0
SECTION
2
HEADER
9
$ACADVER
1
AC1009
9
$DWGCODEPAGE
3
ANSI_932
9
$EXTMIN
10
0.000
20
0.000
30
0.0
9
$EXTMAX
10
4752.000
20
3360.000
30
0.0
9
$LTSCALE
40
8.000
9
$PDMODE
70
0
9
$PDSIZE
40
40.0
0
ENDSEC
0
SECTION
2
TABLES
0
TABLE
2
LTYPE
70
9
0
LTYPE
5
1f4
2
CONTINUOUS
70
64
3
SolidLine
72
65
73
0
40
0.0
0
LTYPE
5
1f5
2
DOT
70
64
3
--  --  --  --  --  --  --  --     
72
65
73
2
40
3.000
49
1.000
49
-2.000
0
LTYPE
5
1f6
2
DASHED
70
64
3
----    ----    ----    ----    
72
65
73
2
40
5.000
49
2.000
49
-3.000
0
LTYPE
5
1f7
2
DASHED2
70
64
3
------  ------  ------  ------ 
72
65
73
2
40
10.000
49
4.000
49
-6.000
0
LTYPE
5
1f8
2
CENTER
70
64
3
----- - ----- - ----- - ----- - 
72
65
73
4
40
10.000
49
6.000
49
-3.000
49
1.000
49
-3.000
0
LTYPE
5
1f9
2
CENTER2
70
64
3
----------  --  ----------  -- 
72
65
73
4
40
17.000
49
12.000
49
-5.000
49
2.000
49
-5.000
0
LTYPE
5
1fa
2
PHANTOM
70
64
3
--- - - --- - - --- - - --- - -
72
65
73
6
40
13.000
49
5.000
49
-3.000
49
1.000
49
-3.000
49
1.000
49
-3.000
0
LTYPE
5
1fb
2
PHANTOM2
70
64
3
--------  -  -  --------  -  -
72
65
73
6
40
20.000
49
6.000
49
-5.000
49
2.000
49
-5.000
49
2.000
49
-5.000
0
LTYPE
5
1fc
2
HIDDEN
70
64
3
-   -   -   -   -   -   -   -   
72
65
73
2
40
3.000
49
0.500
49
-2.500
0
ENDTAB
0
TABLE
2
STYLE
70
1
0
STYLE
5
1fd
100
AcDbSymbolTableRecord
100
AcDbTextStyleTableRecord
2
STANDARD
70
0
40
0.0
41
1.0
50
0.0
71
0
42
0.0
3
txt.shx
4
extfont.shx
0
STYLE
5
1fe
100
AcDbSymbolTableRecord
100
AcDbTextStyleTableRecord
2
TATEGAKI
70
4
40
0.0
41
1.0
50
0.0
71
0
42
0.0
3
txt.shx
4
extfont.shx
0
STYLE
5
1ff
100
AcDbSymbolTableRecord
100
AcDbTextStyleTableRecord
2
DIM
70
0
40
0.0
41
0.75
50
0.0
71
0
42
0.0
3
txt.shx
4
extfont.shx
0
STYLE
5
200
100
AcDbSymbolTableRecord
100
AcDbTextStyleTableRecord
2
_Gothic__
70
0
40
0.0
41
1.0
50
0.0
71
0
42
0.0
3
MS Gothic
4

0
STYLE
5
201
100
AcDbSymbolTableRecord
100
AcDbTextStyleTableRecord
2
_TateGothic_
70
4
40
0.0
41
1.0
50
0.0
71
0
42
0.0
3
@MS Gothic
4

0
ENDTAB
0
TABLE
2
LAYER
5
403
100
AcDbSymbolTable
70
10
0
LAYER
5
404
100
AcDbSymbolTableRecord
100
AcDbLayerTableRecord
2
2-0
70
0
62
5
6
CONTINUOUS
0
LAYER
5
405
100
AcDbSymbolTableRecord
100
AcDbLayerTableRecord
2
3-0
70
0
62
7
6
CONTINUOUS
0
LAYER
5
406
100
AcDbSymbolTableRecord
100
AcDbLayerTableRecord
2
4-0
70
0
62
7
6
CONTINUOUS
0
LAYER
5
407
100
AcDbSymbolTableRecord
100
AcDbLayerTableRecord
2
5-0
70
0
62
-7
6
CONTINUOUS
0
LAYER
5
408
100
AcDbSymbolTableRecord
100
AcDbLayerTableRecord
2
6-0
70
0
62
-7
6
CONTINUOUS
0
LAYER
5
409
100
AcDbSymbolTableRecord
100
AcDbLayerTableRecord
2
8-0
70
0
62
7
6
CONTINUOUS
0
LAYER
5
40a
100
AcDbSymbolTableRecord
100
AcDbLayerTableRecord
2
9-0
70
0
62
5
6
CONTINUOUS
0
LAYER
5
40b
100
AcDbSymbolTableRecord
100
AcDbLayerTableRecord
2
A-0
70
0
62
6
6
CONTINUOUS
0
LAYER
5
40c
100
AcDbSymbolTableRecord
100
AcDbLayerTableRecord
2
B-0
70
0
62
6
6
CONTINUOUS
0
LAYER
5
40d
100
AcDbSymbolTableRecord
100
AcDbLayerTableRecord
2
C-0
70
0
62
3
6
CONTINUOUS
0
LAYER
5
40e
100
AcDbSymbolTableRecord
100
AcDbLayerTableRecord
2
D-0
70
0
62
1
6
CENTER2
0
LAYER
5
40f
100
AcDbSymbolTableRecord
100
AcDbLayerTableRecord
2
E-0
70
0
62
4
6
CONTINUOUS
0
ENDTAB
0
ENDSEC
0
SECTION
2
ENTITIES
0
LINE
5
410
100
AcDbEntity
8
6-0
6
CONTINUOUS
62
7
100
AcDbLine
10
36.809303150352
20
0.000000000000
30
0.0
11
2136.809303150352
21
0.000000000000
31
0.0
0
LINE
5
411
100
AcDbEntity
8
6-0
6
CONTINUOUS
62
7
100
AcDbLine
10
2136.809303150352
20
0.000000000000
30
0.0
11
2136.809303150352
21
2970.000000000000
31
0.0
0
LINE
5
412
100
AcDbEntity
8
6-0
6
CONTINUOUS
62
7
100
AcDbLine
10
2136.809303150352
20
2970.000000000000
30
0.0
11
36.809303150352
21
2970.000000000000
31
0.0
0
LINE
5
413
100
AcDbEntity
8
6-0
6
CONTINUOUS
62
7
100
AcDbLine
10
36.809303150352
20
2970.000000000000
30
0.0
11
36.809303150352
21
0.000000000000
31
0.0
0
LINE
5
414
100
AcDbEntity
8
B-0
6
CONTINUOUS
62
6
100
AcDbLine
10
2049.042087849648
20
2870.824391000000
30
0.0
11
2049.042087849648
21
99.175609000000
31
0.0
0
LINE
5
415
100
AcDbEntity
8
B-0
6
CONTINUOUS
62
6
100
AcDbLine
10
124.576518849648
20
99.175609000000
30
0.0
11
124.576518849648
21
2870.824391000000
31
0.0
0
LINE
5
416
100
AcDbEntity
8
B-0
6
CONTINUOUS
62
6
100
AcDbLine
10
124.576518849648
20
2870.824391000000
30
0.0
11
2049.042087849648
21
2870.824391000000
31
0.0
0
LINE
5
417
100
AcDbEntity
8
B-0
6
CONTINUOUS
62
6
100
AcDbLine
10
2049.042087849648
20
99.175609000000
30
0.0
11
124.576518849648
21
99.175609000000
31
0.0
0
LINE
5
418
100
AcDbEntity
8
B-0
6
CONTINUOUS
62
6
100
AcDbLine
10
1399.042087849648
20
279.175609000000
30
0.0
11
1399.042087849648
21
99.175609000000
31
0.0
0
LINE
5
419
100
AcDbEntity
8
B-0
6
CONTINUOUS
62
6
100
AcDbLine
10
2049.042087849648
20
279.175609000000
30
0.0
11
124.576518849648
21
279.175609000000
31
0.0
0
LINE
5
41a
100
AcDbEntity
8
A-0
6
CONTINUOUS
62
6
100
AcDbLine
10
240.920929849648
20
133.984897000000
30
0.0
11
282.959427849648
21
133.984897000000
31
0.0
0
LINE
5
41b
100
AcDbEntity
8
A-0
6
CONTINUOUS
62
6
100
AcDbLine
10
282.959427849648
20
133.984897000000
30
0.0
11
282.959427849648
21
176.082589000000
31
0.0
0
LINE
5
41c
100
AcDbEntity
8
A-0
6
CONTINUOUS
62
6
100
AcDbLine
10
240.920929849648
20
176.082589000000
30
0.0
11
240.920929849648
21
133.984897000000
31
0.0
0
LINE
5
41d
100
AcDbEntity
8
A-0
6
CONTINUOUS
62
6
100
AcDbLine
10
282.959427849648
20
176.082589000000
30
0.0
11
240.920929849648
21
176.082589000000
31
0.0
0
LINE
5
41e
100
AcDbEntity
8
A-0
6
CONTINUOUS
62
6
100
AcDbLine
10
287.722649849648
20
189.810507000000
30
0.0
11
309.222649849648
21
227.049599000000
31
0.0
0
LINE
5
41f
100
AcDbEntity
8
A-0
6
CONTINUOUS
62
6
100
AcDbLine
10
287.722649849648
20
189.810507000000
30
0.0
11
330.722649849648
21
189.810507000000
31
0.0
0
LINE
5
420
100
AcDbEntity
8
A-0
6
CONTINUOUS
62
6
100
AcDbLine
10
309.222649849648
20
227.049599000000
30
0.0
11
330.722649849648
21
189.810507000000
31
0.0
0
CIRCLE
5
421
100
AcDbEntity
8
A-0
6
CONTINUOUS
62
6
100
AcDbCircle
10
343.050343849648
20
235.007299000000
30
0.0
40
14.758716000000
0
LINE
5
422
100
AcDbEntity
8
A-0
6
CONTINUOUS
62
6
100
AcDbLine
10
372.718302849648
20
155.949899000000
30
0.0
11
390.840952849648
21
155.949899000000
31
0.0
0
LINE
5
423
100
AcDbEntity
8
A-0
6
CONTINUOUS
62
6
100
AcDbLine
10
395.504028849648
20
145.949899000000
30
0.0
11
401.566028849648
21
132.949899000000
31
0.0
0
LINE
5
424
100
AcDbEntity
8
A-0
6
CONTINUOUS
62
6
100
AcDbLine
10
368.055225849648
20
145.949899000000
30
0.0
11
361.993226849648
21
132.949899000000
31
0.0
0
LINE
5
425
100
AcDbEntity
8
A-0
6
CONTINUOUS
62
6
100
AcDbLine
10
381.779627849648
20
175.381973000000
30
0.0
11
390.840952849648
21
155.949899000000
31
0.0
0
LINE
5
426
100
AcDbEntity
8
A-0
6
CONTINUOUS
62
6
100
AcDbLine
10
381.779627849648
20
175.381973000000
30
0.0
11
372.718302849648
21
155.949899000000
31
0.0
0
LINE
5
427
100
AcDbEntity
8
A-0
6
CONTINUOUS
62
6
100
AcDbLine
10
375.829829849648
20
190.501179000000
30
0.0
11
348.993226849648
21
132.949899000000
31
0.0
0
LINE
5
428
100
AcDbEntity
8
A-0
6
CONTINUOUS
62
6
100
AcDbLine
10
454.258557849648
20
180.501179000000
30
0.0
11
455.006697849648
21
180.090612000000
31
0.0
0
LINE
5
429
100
AcDbEntity
8
A-0
6
CONTINUOUS
62
6
100
AcDbLine
10
455.006697849648
20
180.090612000000
30
0.0
11
456.282661849648
21
179.373316000000
31
0.0
0
LINE
5
42a
100
AcDbEntity
8
A-0
6
CONTINUOUS
62
6
100
AcDbLine
10
456.282661849648
20
179.373316000000
30
0.0
11
457.519925849648
21
178.629853000000
31
0.0
0
LINE
5
42b
100
AcDbEntity
8
A-0
6
CONTINUOUS
62
6
100
AcDbLine
10
457.519925849648
20
178.629853000000
30
0.0
11
458.693995849648
21
177.843660000000
31
0.0
0
LINE
5
42c
100
AcDbEntity
8
A-0
6
CONTINUOUS
62
6
100
AcDbLine
10
458.693995849648
20
177.843660000000
30
0.0
11
459.780376849648
21
176.998176000000
31
0.0
0
LINE
5
42d
100
AcDbEntity
8
A-0
6
CONTINUOUS
62
6
100
AcDbLine
10
459.780376849648
20
176.998176000000
30
0.0
11
460.754575849648
21
176.076838000000
31
0.0
0
LINE
5
42e
100
AcDbEntity
8
A-0
6
CONTINUOUS
62
6
100
AcDbLine
10
460.754575849648
20
176.076838000000
30
0.0
11
461.258557849648
21
175.501179000000
31
0.0
0
LINE
5
42f
100
AcDbEntity
8
A-0
6
CONTINUOUS
62
6
100
AcDbLine
10
461.258557849648
20
175.501179000000
30
0.0
11
461.978043849648
21
174.485834000000
31
0.0
0
LINE
5
430
100
AcDbEntity
8
A-0
6
CONTINUOUS
62
6
100
AcDbLine
10
461.978043849648
20
174.485834000000
30
0.0
11
462.932599849648
21
172.544054000000
31
0.0
0
LINE
5
431
100
AcDbEntity
8
A-0
6
CONTINUOUS
62
6
100
AcDbLine
10
462.932599849648
20
172.544054000000
30
0.0
11
463.576966849648
21
170.398528000000
31
0.0
0
LINE
5
432
100
AcDbEntity
8
A-0
6
CONTINUOUS
62
6
100
AcDbLine
10
463.576966849648
20
170.398528000000
30
0.0
11
463.971331849648
21
168.093740000000
31
0.0
0
LINE
5
433
100
AcDbEntity
8
A-0
6
CONTINUOUS
62
6
100
AcDbLine
10
463.971331849648
20
168.093740000000
30
0.0
11
464.175877849648
21
165.674179000000
31
0.0
0
LINE
5
434
100
AcDbEntity
8
A-0
6
CONTINUOUS
62
6
100
AcDbLine
10
464.175877849648
20
165.674179000000
30
0.0
11
464.250790849648
21
163.184328000000
31
0.0
0
LINE
5
435
100
AcDbEntity
8
A-0
6
CONTINUOUS
62
6
100
AcDbLine
10
464.250790849648
20
163.184328000000
30
0.0
11
464.258557849648
21
161.725539000000
31
0.0
0
LINE
5
436
100
AcDbEntity
8
A-0
6
CONTINUOUS
62
6
100
AcDbLine
10
464.258557849648
20
161.725539000000
30
0.0
11
464.250790849648
21
160.266750000000
31
0.0
0
LINE
5
437
100
AcDbEntity
8
A-0
6
CONTINUOUS
62
6
100
AcDbLine
10
464.250790849648
20
160.266750000000
30
0.0
11
464.175877849648
21
157.776899000000
31
0.0
0
LINE
5
438
100
AcDbEntity
8
A-0
6
CONTINUOUS
62
6
100
AcDbLine
10
464.175877849648
20
157.776899000000
30
0.0
11
463.971331849648
21
155.357338000000
31
0.0
0
LINE
5
439
100
AcDbEntity
8
A-0
6
CONTINUOUS
62
6
100
AcDbLine
10
463.971331849648
20
155.357338000000
30
0.0
11
463.576966849648
21
153.052550000000
31
0.0
0
LINE
5
43a
100
AcDbEntity
8
A-0
6
CONTINUOUS
62
6
100
AcDbLine
10
463.576966849648
20
153.052550000000
30
0.0
11
462.932599849648
21
150.907024000000
31
0.0
0
LINE
5
43b
100
AcDbEntity
8
A-0
6
CONTINUOUS
62
6
100
AcDbLine
10
462.932599849648
20
150.907024000000
30
0.0
11
461.978043849648
21
148.965244000000
31
0.0
0
LINE
5
43c
100
AcDbEntity
8
A-0
6
CONTINUOUS
62
6
100
AcDbLine
10
461.978043849648
20
148.965244000000
30
0.0
11
461.258557849648
21
147.949899000000
31
0.0
0
LINE
5
43d
100
AcDbEntity
8
A-0
6
CONTINUOUS
62
6
100
AcDbLine
10
461.258557849648
20
147.949899000000
30
0.0
11
460.754575849648
21
147.374240000000
31
0.0
0
LINE
5
43e
100
AcDbEntity
8
A-0
6
CONTINUOUS
62
6
100
AcDbLine
10
460.754575849648
20
147.374240000000
30
0.0
11
459.780376849648
21
146.452902000000
31
0.0
0
LINE
5
43f
100
AcDbEntity
8
A-0
6
CONTINUOUS
62
6
100
AcDbLine
10
459.780376849648
20
146.452902000000
30
0.0
11
458.693995849648
21
145.607418000000
31
0.0
0
LINE
5
440
100
AcDbEntity
8
A-0
6
CONTINUOUS
62
6
100
AcDbLine
10
458.693995849648
20
145.607418000000
30
0.0
11
457.519925849648
21
144.821225000000
31
0.0
0
LINE
5
441
100
AcDbEntity
8
A-0
6
CONTINUOUS
62
6
100
AcDbLine
10
457.519925849648
20
144.821225000000
30
0.0
11
456.282661849648
21
144.077762000000
31
0.0
0
LINE
5
442
100
AcDbEntity
8
A-0
6
CONTINUOUS
62
6
100
AcDbLine
10
456.282661849648
20
144.077762000000
30
0.0
11
455.006697849648
21
143.360466000000
31
0.0
0
LINE
5
443
100
AcDbEntity
8
A-0
6
CONTINUOUS
62
6
100
AcDbLine
10
455.006697849648
20
143.360466000000
30
0.0
11
454.258557849648
21
142.949899000000
31
0.0
0
LINE
5
444
100
AcDbEntity
8
A-0
6
CONTINUOUS
62
6
100
AcDbLine
10
454.258557849648
20
132.949899000000
30
0.0
11
454.913444849648
21
133.119437000000
31
0.0
0
LINE
5
445
100
AcDbEntity
8
A-0
6
CONTINUOUS
62
6
100
AcDbLine
10
454.913444849648
20
133.119437000000
30
0.0
11
456.043218849648
21
133.414681000000
31
0.0
0
LINE
5
446
100
AcDbEntity
8
A-0
6
CONTINUOUS
62
6
100
AcDbLine
10
456.043218849648
20
133.414681000000
30
0.0
11
457.174818849648
21
133.718084000000
31
0.0
0
LINE
5
447
100
AcDbEntity
8
A-0
6
CONTINUOUS
62
6
100
AcDbLine
10
457.174818849648
20
133.718084000000
30
0.0
11
458.309402849648
21
134.034810000000
31
0.0
0
LINE
5
448
100
AcDbEntity
8
A-0
6
CONTINUOUS
62
6
100
AcDbLine
10
458.309402849648
20
134.034810000000
30
0.0
11
459.448125849648
21
134.370023000000
31
0.0
0
LINE
5
449
100
AcDbEntity
8
A-0
6
CONTINUOUS
62
6
100
AcDbLine
10
459.448125849648
20
134.370023000000
30
0.0
11
460.592144849648
21
134.728886000000
31
0.0
0
LINE
5
44a
100
AcDbEntity
8
A-0
6
CONTINUOUS
62
6
100
AcDbLine
10
460.592144849648
20
134.728886000000
30
0.0
11
461.258557849648
21
134.949899000000
31
0.0
0
LINE
5
44b
100
AcDbEntity
8
A-0
6
CONTINUOUS
62
6
100
AcDbLine
10
461.258557849648
20
134.949899000000
30
0.0
11
462.583599849648
21
135.419726000000
31
0.0
0
LINE
5
44c
100
AcDbEntity
8
A-0
6
CONTINUOUS
62
6
100
AcDbLine
10
462.583599849648
20
135.419726000000
30
0.0
11
464.852625849648
21
136.341132000000
31
0.0
0
LINE
5
44d
100
AcDbEntity
8
A-0
6
CONTINUOUS
62
6
100
AcDbLine
10
464.852625849648
20
136.341132000000
30
0.0
11
467.045124849648
21
137.422754000000
31
0.0
0
LINE
5
44e
100
AcDbEntity
8
A-0
6
CONTINUOUS
62
6
100
AcDbLine
10
467.045124849648
20
137.422754000000
30
0.0
11
469.094971849648
21
138.686985000000
31
0.0
0
LINE
5
44f
100
AcDbEntity
8
A-0
6
CONTINUOUS
62
6
100
AcDbLine
10
469.094971849648
20
138.686985000000
30
0.0
11
470.936038849648
21
140.156217000000
31
0.0
0
LINE
5
450
100
AcDbEntity
8
A-0
6
CONTINUOUS
62
6
100
AcDbLine
10
470.936038849648
20
140.156217000000
30
0.0
11
472.502201849648
21
141.852842000000
31
0.0
0
LINE
5
451
100
AcDbEntity
8
A-0
6
CONTINUOUS
62
6
100
AcDbLine
10
472.502201849648
20
141.852842000000
30
0.0
11
473.258557849648
21
142.949899000000
31
0.0
0
LINE
5
452
100
AcDbEntity
8
A-0
6
CONTINUOUS
62
6
100
AcDbLine
10
473.258557849648
20
142.949899000000
30
0.0
11
473.509262849648
21
143.381745000000
31
0.0
0
LINE
5
453
100
AcDbEntity
8
A-0
6
CONTINUOUS
62
6
100
AcDbLine
10
473.509262849648
20
143.381745000000
30
0.0
11
473.903355849648
21
144.152066000000
31
0.0
0
LINE
5
454
100
AcDbEntity
8
A-0
6
CONTINUOUS
62
6
100
AcDbLine
10
473.903355849648
20
144.152066000000
30
0.0
11
474.254636849648
21
144.950179000000
31
0.0
0
LINE
5
455
100
AcDbEntity
8
A-0
6
CONTINUOUS
62
6
100
AcDbLine
10
474.254636849648
20
144.950179000000
30
0.0
11
474.569487849648
21
145.770485000000
31
0.0
0
LINE
5
456
100
AcDbEntity
8
A-0
6
CONTINUOUS
62
6
100
AcDbLine
10
474.569487849648
20
145.770485000000
30
0.0
11
474.854290849648
21
146.607386000000
31
0.0
0
LINE
5
457
100
AcDbEntity
8
A-0
6
CONTINUOUS
62
6
100
AcDbLine
10
474.854290849648
20
146.607386000000
30
0.0
11
475.115427849648
21
147.455285000000
31
0.0
0
LINE
5
458
100
AcDbEntity
8
A-0
6
CONTINUOUS
62
6
100
AcDbLine
10
475.115427849648
20
147.455285000000
30
0.0
11
475.258557849648
21
147.949899000000
31
0.0
0
LINE
5
459
100
AcDbEntity
8
A-0
6
CONTINUOUS
62
6
100
AcDbLine
10
475.258557849648
20
147.949899000000
30
0.0
11
475.606708849648
21
149.232172000000
31
0.0
0
LINE
5
45a
100
AcDbEntity
8
A-0
6
CONTINUOUS
62
6
100
AcDbLine
10
475.606708849648
20
149.232172000000
30
0.0
11
476.133240849648
21
151.453021000000
31
0.0
0
LINE
5
45b
100
AcDbEntity
8
A-0
6
CONTINUOUS
62
6
100
AcDbLine
10
476.133240849648
20
151.453021000000
30
0.0
11
476.563375849648
21
153.684562000000
31
0.0
0
LINE
5
45c
100
AcDbEntity
8
A-0
6
CONTINUOUS
62
6
100
AcDbLine
10
476.563375849648
20
153.684562000000
30
0.0
11
476.893544849648
21
155.924462000000
31
0.0
0
LINE
5
45d
100
AcDbEntity
8
A-0
6
CONTINUOUS
62
6
100
AcDbLine
10
476.893544849648
20
155.924462000000
30
0.0
11
477.120178849648
21
158.170384000000
31
0.0
0
LINE
5
45e
100
AcDbEntity
8
A-0
6
CONTINUOUS
62
6
100
AcDbLine
10
477.120178849648
20
158.170384000000
30
0.0
11
477.239710849648
21
160.419995000000
31
0.0
0
LINE
5
45f
100
AcDbEntity
8
A-0
6
CONTINUOUS
62
6
100
AcDbLine
10
477.239710849648
20
160.419995000000
30
0.0
11
477.258557849648
21
161.725539000000
31
0.0
0
LINE
5
460
100
AcDbEntity
8
A-0
6
CONTINUOUS
62
6
100
AcDbLine
10
477.258557849648
20
161.725539000000
30
0.0
11
477.239710849648
21
163.031083000000
31
0.0
0
LINE
5
461
100
AcDbEntity
8
A-0
6
CONTINUOUS
62
6
100
AcDbLine
10
477.239710849648
20
163.031083000000
30
0.0
11
477.120178849648
21
165.280694000000
31
0.0
0
LINE
5
462
100
AcDbEntity
8
A-0
6
CONTINUOUS
62
6
100
AcDbLine
10
477.120178849648
20
165.280694000000
30
0.0
11
476.893544849648
21
167.526616000000
31
0.0
0
LINE
5
463
100
AcDbEntity
8
A-0
6
CONTINUOUS
62
6
100
AcDbLine
10
476.893544849648
20
167.526616000000
30
0.0
11
476.563375849648
21
169.766516000000
31
0.0
0
LINE
5
464
100
AcDbEntity
8
A-0
6
CONTINUOUS
62
6
100
AcDbLine
10
476.563375849648
20
169.766516000000
30
0.0
11
476.133240849648
21
171.998057000000
31
0.0
0
LINE
5
465
100
AcDbEntity
8
A-0
6
CONTINUOUS
62
6
100
AcDbLine
10
476.133240849648
20
171.998057000000
30
0.0
11
475.606708849648
21
174.218906000000
31
0.0
0
LINE
5
466
100
AcDbEntity
8
A-0
6
CONTINUOUS
62
6
100
AcDbLine
10
475.606708849648
20
174.218906000000
30
0.0
11
475.258557849648
21
175.501179000000
31
0.0
0
LINE
5
467
100
AcDbEntity
8
A-0
6
CONTINUOUS
62
6
100
AcDbLine
10
475.258557849648
20
175.501179000000
30
0.0
11
475.115427849648
21
175.995793000000
31
0.0
0
LINE
5
468
100
AcDbEntity
8
A-0
6
CONTINUOUS
62
6
100
AcDbLine
10
475.115427849648
20
175.995793000000
30
0.0
11
474.854290849648
21
176.843692000000
31
0.0
0
LINE
5
469
100
AcDbEntity
8
A-0
6
CONTINUOUS
62
6
100
AcDbLine
10
474.854290849648
20
176.843692000000
30
0.0
11
474.569487849648
21
177.680593000000
31
0.0
0
LINE
5
46a
100
AcDbEntity
8
A-0
6
CONTINUOUS
62
6
100
AcDbLine
10
474.569487849648
20
177.680593000000
30
0.0
11
474.254636849648
21
178.500899000000
31
0.0
0
LINE
5
46b
100
AcDbEntity
8
A-0
6
CONTINUOUS
62
6
100
AcDbLine
10
474.254636849648
20
178.500899000000
30
0.0
11
473.903355849648
21
179.299012000000
31
0.0
0
LINE
5
46c
100
AcDbEntity
8
A-0
6
CONTINUOUS
62
6
100
AcDbLine
10
473.903355849648
20
179.299012000000
30
0.0
11
473.509262849648
21
180.069333000000
31
0.0
0
LINE
5
46d
100
AcDbEntity
8
A-0
6
CONTINUOUS
62
6
100
AcDbLine
10
473.509262849648
20
180.069333000000
30
0.0
11
473.258557849648
21
180.501179000000
31
0.0
0
LINE
5
46e
100
AcDbEntity
8
A-0
6
CONTINUOUS
62
6
100
AcDbLine
10
473.258557849648
20
180.501179000000
30
0.0
11
472.502201849648
21
181.598236000000
31
0.0
0
LINE
5
46f
100
AcDbEntity
8
A-0
6
CONTINUOUS
62
6
100
AcDbLine
10
472.502201849648
20
181.598236000000
30
0.0
11
470.936038849648
21
183.294861000000
31
0.0
0
LINE
5
470
100
AcDbEntity
8
A-0
6
CONTINUOUS
62
6
100
AcDbLine
10
470.936038849648
20
183.294861000000
30
0.0
11
469.094971849648
21
184.764093000000
31
0.0
0
LINE
5
471
100
AcDbEntity
8
A-0
6
CONTINUOUS
62
6
100
AcDbLine
10
469.094971849648
20
184.764093000000
30
0.0
11
467.045124849648
21
186.028324000000
31
0.0
0
LINE
5
472
100
AcDbEntity
8
A-0
6
CONTINUOUS
62
6
100
AcDbLine
10
467.045124849648
20
186.028324000000
30
0.0
11
464.852625849648
21
187.109946000000
31
0.0
0
LINE
5
473
100
AcDbEntity
8
A-0
6
CONTINUOUS
62
6
100
AcDbLine
10
464.852625849648
20
187.109946000000
30
0.0
11
462.583599849648
21
188.031352000000
31
0.0
0
LINE
5
474
100
AcDbEntity
8
A-0
6
CONTINUOUS
62
6
100
AcDbLine
10
462.583599849648
20
188.031352000000
30
0.0
11
461.258557849648
21
188.501179000000
31
0.0
0
LINE
5
475
100
AcDbEntity
8
A-0
6
CONTINUOUS
62
6
100
AcDbLine
10
461.258557849648
20
188.501179000000
30
0.0
11
460.592144849648
21
188.722192000000
31
0.0
0
LINE
5
476
100
AcDbEntity
8
A-0
6
CONTINUOUS
62
6
100
AcDbLine
10
460.592144849648
20
188.722192000000
30
0.0
11
459.448125849648
21
189.081055000000
31
0.0
0
LINE
5
477
100
AcDbEntity
8
A-0
6
CONTINUOUS
62
6
100
AcDbLine
10
459.448125849648
20
189.081055000000
30
0.0
11
458.309402849648
21
189.416268000000
31
0.0
0
LINE
5
478
100
AcDbEntity
8
A-0
6
CONTINUOUS
62
6
100
AcDbLine
10
458.309402849648
20
189.416268000000
30
0.0
11
457.174818849648
21
189.732994000000
31
0.0
0
LINE
5
479
100
AcDbEntity
8
A-0
6
CONTINUOUS
62
6
100
AcDbLine
10
457.174818849648
20
189.732994000000
30
0.0
11
456.043218849648
21
190.036397000000
31
0.0
0
LINE
5
47a
100
AcDbEntity
8
A-0
6
CONTINUOUS
62
6
100
AcDbLine
10
456.043218849648
20
190.036397000000
30
0.0
11
454.913444849648
21
190.331641000000
31
0.0
0
LINE
5
47b
100
AcDbEntity
8
A-0
6
CONTINUOUS
62
6
100
AcDbLine
10
454.913444849648
20
190.331641000000
30
0.0
11
454.258557849648
21
190.501179000000
31
0.0
0
LINE
5
47c
100
AcDbEntity
8
A-0
6
CONTINUOUS
62
6
100
AcDbLine
10
490.258557849648
20
190.501179000000
30
0.0
11
510.595159849648
21
146.889194000000
31
0.0
0
LINE
5
47d
100
AcDbEntity
8
A-0
6
CONTINUOUS
62
6
100
AcDbLine
10
530.931762849648
20
190.501179000000
30
0.0
11
510.595159849648
21
146.889194000000
31
0.0
0
LINE
5
47e
100
AcDbEntity
8
A-0
6
CONTINUOUS
62
6
100
AcDbLine
10
477.258557849648
20
190.501179000000
30
0.0
11
504.095159849648
21
132.949899000000
31
0.0
0
LINE
5
47f
100
AcDbEntity
8
A-0
6
CONTINUOUS
62
6
100
AcDbLine
10
517.095159849648
20
132.949899000000
30
0.0
11
543.931762849648
21
190.501179000000
31
0.0
0
LINE
5
480
100
AcDbEntity
8
A-0
6
CONTINUOUS
62
6
100
AcDbLine
10
553.931762849648
20
190.501179000000
30
0.0
11
527.095159849648
21
132.949899000000
31
0.0
0
LINE
5
481
100
AcDbEntity
8
A-0
6
CONTINUOUS
62
6
100
AcDbLine
10
567.286102849648
20
190.501179000000
30
0.0
11
594.122705849648
21
132.949899000000
31
0.0
0
LINE
5
482
100
AcDbEntity
8
A-0
6
CONTINUOUS
62
6
100
AcDbLine
10
368.055225849648
20
145.949899000000
30
0.0
11
395.504028849648
21
145.949899000000
31
0.0
0
LINE
5
483
100
AcDbEntity
8
A-0
6
CONTINUOUS
62
6
100
AcDbLine
10
546.157159849648
20
145.949899000000
30
0.0
11
575.060705849648
21
145.949899000000
31
0.0
0
LINE
5
484
100
AcDbEntity
8
A-0
6
CONTINUOUS
62
6
100
AcDbLine
10
550.820236849648
20
155.949899000000
30
0.0
11
570.397629849648
21
155.949899000000
31
0.0
0
LINE
5
485
100
AcDbEntity
8
A-0
6
CONTINUOUS
62
6
100
AcDbLine
10
612.888189849648
20
180.501179000000
30
0.0
11
642.601527849648
21
132.949899000000
31
0.0
0
LINE
5
486
100
AcDbEntity
8
A-0
6
CONTINUOUS
62
6
100
AcDbLine
10
648.675783849648
20
143.986936000000
30
0.0
11
648.675783849648
21
190.501179000000
31
0.0
0
LINE
5
487
100
AcDbEntity
8
A-0
6
CONTINUOUS
62
6
100
AcDbLine
10
659.675783849648
20
132.949899000000
30
0.0
11
659.675783849648
21
190.501179000000
31
0.0
0
LINE
5
488
100
AcDbEntity
8
A-0
6
CONTINUOUS
62
6
100
AcDbLine
10
619.610458849648
20
190.501179000000
30
0.0
11
648.675783849648
21
143.986936000000
31
0.0
0
LINE
5
489
100
AcDbEntity
8
A-0
6
CONTINUOUS
62
6
100
AcDbLine
10
599.888189849648
20
190.501179000000
30
0.0
11
599.888189849648
21
132.949899000000
31
0.0
0
LINE
5
48a
100
AcDbEntity
8
A-0
6
CONTINUOUS
62
6
100
AcDbLine
10
454.258557849648
20
180.501179000000
30
0.0
11
434.258557849648
21
180.501179000000
31
0.0
0
LINE
5
48b
100
AcDbEntity
8
A-0
6
CONTINUOUS
62
6
100
AcDbLine
10
434.258557849648
20
142.949899000000
30
0.0
11
454.258557849648
21
142.949899000000
31
0.0
0
LINE
5
48c
100
AcDbEntity
8
A-0
6
CONTINUOUS
62
6
100
AcDbLine
10
570.397629849648
20
155.949899000000
30
0.0
11
560.608932849648
21
176.941826000000
31
0.0
0
LINE
5
48d
100
AcDbEntity
8
A-0
6
CONTINUOUS
62
6
100
AcDbLine
10
550.820236849648
20
155.949899000000
30
0.0
11
560.608932849648
21
176.941826000000
31
0.0
0
LINE
5
48e
100
AcDbEntity
8
A-0
6
CONTINUOUS
62
6
100
AcDbLine
10
540.095159849648
20
132.949899000000
30
0.0
11
546.157159849648
21
145.949899000000
31
0.0
0
LINE
5
48f
100
AcDbEntity
8
A-0
6
CONTINUOUS
62
6
100
AcDbLine
10
581.122705849648
20
132.949899000000
30
0.0
11
575.060705849648
21
145.949899000000
31
0.0
0
LINE
5
490
100
AcDbEntity
8
A-0
6
CONTINUOUS
62
6
100
AcDbLine
10
612.888189849648
20
180.501179000000
30
0.0
11
612.888189849648
21
132.949899000000
31
0.0
0
LINE
5
491
100
AcDbEntity
8
A-0
6
CONTINUOUS
62
6
100
AcDbLine
10
348.993226849648
20
132.949899000000
30
0.0
11
361.993226849648
21
132.949899000000
31
0.0
0
LINE
5
492
100
AcDbEntity
8
A-0
6
CONTINUOUS
62
6
100
AcDbLine
10
401.566028849648
20
132.949899000000
30
0.0
11
414.566028849648
21
132.949899000000
31
0.0
0
LINE
5
493
100
AcDbEntity
8
A-0
6
CONTINUOUS
62
6
100
AcDbLine
10
387.729425849648
20
190.501179000000
30
0.0
11
414.566028849648
21
132.949899000000
31
0.0
0
LINE
5
494
100
AcDbEntity
8
A-0
6
CONTINUOUS
62
6
100
AcDbLine
10
387.729425849648
20
190.501179000000
30
0.0
11
375.829829849648
21
190.501179000000
31
0.0
0
LINE
5
495
100
AcDbEntity
8
A-0
6
CONTINUOUS
62
6
100
AcDbLine
10
421.258557849648
20
190.501179000000
30
0.0
11
421.258557849648
21
132.949899000000
31
0.0
0
LINE
5
496
100
AcDbEntity
8
A-0
6
CONTINUOUS
62
6
100
AcDbLine
10
434.258557849648
20
180.501179000000
30
0.0
11
434.258557849648
21
142.949899000000
31
0.0
0
LINE
5
497
100
AcDbEntity
8
A-0
6
CONTINUOUS
62
6
100
AcDbLine
10
421.258557849648
20
132.949899000000
30
0.0
11
454.258557849648
21
132.949899000000
31
0.0
0
LINE
5
498
100
AcDbEntity
8
A-0
6
CONTINUOUS
62
6
100
AcDbLine
10
454.258557849648
20
190.501179000000
30
0.0
11
421.258557849648
21
190.501179000000
31
0.0
0
LINE
5
499
100
AcDbEntity
8
A-0
6
CONTINUOUS
62
6
100
AcDbLine
10
490.258557849648
20
190.501179000000
30
0.0
11
477.258557849648
21
190.501179000000
31
0.0
0
LINE
5
49a
100
AcDbEntity
8
A-0
6
CONTINUOUS
62
6
100
AcDbLine
10
504.095159849648
20
132.949899000000
30
0.0
11
517.095159849648
21
132.949899000000
31
0.0
0
LINE
5
49b
100
AcDbEntity
8
A-0
6
CONTINUOUS
62
6
100
AcDbLine
10
543.931762849648
20
190.501179000000
30
0.0
11
530.931762849648
21
190.501179000000
31
0.0
0
LINE
5
49c
100
AcDbEntity
8
A-0
6
CONTINUOUS
62
6
100
AcDbLine
10
527.095159849648
20
132.949899000000
30
0.0
11
540.095159849648
21
132.949899000000
31
0.0
0
LINE
5
49d
100
AcDbEntity
8
A-0
6
CONTINUOUS
62
6
100
AcDbLine
10
581.122705849648
20
132.949899000000
30
0.0
11
594.122705849648
21
132.949899000000
31
0.0
0
LINE
5
49e
100
AcDbEntity
8
A-0
6
CONTINUOUS
62
6
100
AcDbLine
10
599.888189849648
20
132.949899000000
30
0.0
11
612.888189849648
21
132.949899000000
31
0.0
0
LINE
5
49f
100
AcDbEntity
8
A-0
6
CONTINUOUS
62
6
100
AcDbLine
10
642.601527849648
20
132.949899000000
30
0.0
11
659.675783849648
21
132.949899000000
31
0.0
0
LINE
5
4a0
100
AcDbEntity
8
A-0
6
CONTINUOUS
62
6
100
AcDbLine
10
659.675783849648
20
190.501179000000
30
0.0
11
648.675783849648
21
190.501179000000
31
0.0
0
LINE
5
4a1
100
AcDbEntity
8
A-0
6
CONTINUOUS
62
6
100
AcDbLine
10
619.610458849648
20
190.501179000000
30
0.0
11
599.888189849648
21
190.501179000000
31
0.0
0
LINE
5
4a2
100
AcDbEntity
8
A-0
6
CONTINUOUS
62
6
100
AcDbLine
10
567.286102849648
20
190.501179000000
30
0.0
11
553.931762849648
21
190.501179000000
31
0.0
0
LINE
5
4a3
100
AcDbEntity
8
A-0
6
CONTINUOUS
62
6
100
AcDbLine
10
349.716600849648
20
134.501179000000
30
0.0
11
362.716600849648
21
134.501179000000
31
0.0
0
LINE
5
4a4
100
AcDbEntity
8
A-0
6
CONTINUOUS
62
6
100
AcDbLine
10
400.842654849648
20
134.501179000000
30
0.0
11
413.842654849648
21
134.501179000000
31
0.0
0
LINE
5
4a5
100
AcDbEntity
8
A-0
6
CONTINUOUS
62
6
100
AcDbLine
10
421.258557849648
20
134.501179000000
30
0.0
11
459.866237849648
21
134.501179000000
31
0.0
0
LINE
5
4a6
100
AcDbEntity
8
A-0
6
CONTINUOUS
62
6
100
AcDbLine
10
503.371786849648
20
134.501179000000
30
0.0
11
517.818533849648
21
134.501179000000
31
0.0
0
LINE
5
4a7
100
AcDbEntity
8
A-0
6
CONTINUOUS
62
6
100
AcDbLine
10
527.818533849648
20
134.501179000000
30
0.0
11
540.818533849648
21
134.501179000000
31
0.0
0
LINE
5
4a8
100
AcDbEntity
8
A-0
6
CONTINUOUS
62
6
100
AcDbLine
10
580.399331849648
20
134.501179000000
30
0.0
11
593.399331849648
21
134.501179000000
31
0.0
0
LINE
5
4a9
100
AcDbEntity
8
A-0
6
CONTINUOUS
62
6
100
AcDbLine
10
599.888189849648
20
134.501179000000
30
0.0
11
612.888189849648
21
134.501179000000
31
0.0
0
LINE
5
4aa
100
AcDbEntity
8
A-0
6
CONTINUOUS
62
6
100
AcDbLine
10
641.632180849648
20
134.501179000000
30
0.0
11
659.675783849648
21
134.501179000000
31
0.0
0
LINE
5
4ab
100
AcDbEntity
8
A-0
6
CONTINUOUS
62
6
100
AcDbLine
10
350.649215849648
20
136.501179000000
30
0.0
11
363.649215849648
21
136.501179000000
31
0.0
0
LINE
5
4ac
100
AcDbEntity
8
A-0
6
CONTINUOUS
62
6
100
AcDbLine
10
399.910039849648
20
136.501179000000
30
0.0
11
412.910039849648
21
136.501179000000
31
0.0
0
LINE
5
4ad
100
AcDbEntity
8
A-0
6
CONTINUOUS
62
6
100
AcDbLine
10
421.258557849648
20
136.501179000000
30
0.0
11
465.177049849648
21
136.501179000000
31
0.0
0
LINE
5
4ae
100
AcDbEntity
8
A-0
6
CONTINUOUS
62
6
100
AcDbLine
10
502.439170849648
20
136.501179000000
30
0.0
11
518.751149849648
21
136.501179000000
31
0.0
0
LINE
5
4af
100
AcDbEntity
8
A-0
6
CONTINUOUS
62
6
100
AcDbLine
10
528.751149849648
20
136.501179000000
30
0.0
11
541.751149849648
21
136.501179000000
31
0.0
0
LINE
5
4b0
100
AcDbEntity
8
A-0
6
CONTINUOUS
62
6
100
AcDbLine
10
579.466715849648
20
136.501179000000
30
0.0
11
592.466715849648
21
136.501179000000
31
0.0
0
LINE
5
4b1
100
AcDbEntity
8
A-0
6
CONTINUOUS
62
6
100
AcDbLine
10
599.888189849648
20
136.501179000000
30
0.0
11
612.888189849648
21
136.501179000000
31
0.0
0
LINE
5
4b2
100
AcDbEntity
8
A-0
6
CONTINUOUS
62
6
100
AcDbLine
10
640.382441849648
20
136.501179000000
30
0.0
11
659.675783849648
21
136.501179000000
31
0.0
0
LINE
5
4b3
100
AcDbEntity
8
A-0
6
CONTINUOUS
62
6
100
AcDbLine
10
351.581831849648
20
138.501179000000
30
0.0
11
364.581831849648
21
138.501179000000
31
0.0
0
LINE
5
4b4
100
AcDbEntity
8
A-0
6
CONTINUOUS
62
6
100
AcDbLine
10
398.977423849648
20
138.501179000000
30
0.0
11
411.977423849648
21
138.501179000000
31
0.0
0
LINE
5
4b5
100
AcDbEntity
8
A-0
6
CONTINUOUS
62
6
100
AcDbLine
10
421.258557849648
20
138.501179000000
30
0.0
11
468.793702849648
21
138.501179000000
31
0.0
0
LINE
5
4b6
100
AcDbEntity
8
A-0
6
CONTINUOUS
62
6
100
AcDbLine
10
501.506555849648
20
138.501179000000
30
0.0
11
519.683764849648
21
138.501179000000
31
0.0
0
LINE
5
4b7
100
AcDbEntity
8
A-0
6
CONTINUOUS
62
6
100
AcDbLine
10
529.683764849648
20
138.501179000000
30
0.0
11
542.683764849648
21
138.501179000000
31
0.0
0
LINE
5
4b8
100
AcDbEntity
8
A-0
6
CONTINUOUS
62
6
100
AcDbLine
10
578.534100849648
20
138.501179000000
30
0.0
11
591.534100849648
21
138.501179000000
31
0.0
0
LINE
5
4b9
100
AcDbEntity
8
A-0
6
CONTINUOUS
62
6
100
AcDbLine
10
599.888189849648
20
138.501179000000
30
0.0
11
612.888189849648
21
138.501179000000
31
0.0
0
LINE
5
4ba
100
AcDbEntity
8
A-0
6
CONTINUOUS
62
6
100
AcDbLine
10
639.132702849648
20
138.501179000000
30
0.0
11
659.675783849648
21
138.501179000000
31
0.0
0
LINE
5
4bb
100
AcDbEntity
8
A-0
6
CONTINUOUS
62
6
100
AcDbLine
10
352.514446849648
20
140.501179000000
30
0.0
11
365.514446849648
21
140.501179000000
31
0.0
0
LINE
5
4bc
100
AcDbEntity
8
A-0
6
CONTINUOUS
62
6
100
AcDbLine
10
398.044808849648
20
140.501179000000
30
0.0
11
411.044808849648
21
140.501179000000
31
0.0
0
LINE
5
4bd
100
AcDbEntity
8
A-0
6
CONTINUOUS
62
6
100
AcDbLine
10
421.258557849648
20
140.501179000000
30
0.0
11
471.254475849648
21
140.501179000000
31
0.0
0
LINE
5
4be
100
AcDbEntity
8
A-0
6
CONTINUOUS
62
6
100
AcDbLine
10
500.573940849648
20
140.501179000000
30
0.0
11
520.616379849648
21
140.501179000000
31
0.0
0
LINE
5
4bf
100
AcDbEntity
8
A-0
6
CONTINUOUS
62
6
100
AcDbLine
10
530.616379849648
20
140.501179000000
30
0.0
11
543.616379849648
21
140.501179000000
31
0.0
0
LINE
5
4c0
100
AcDbEntity
8
A-0
6
CONTINUOUS
62
6
100
AcDbLine
10
577.601485849648
20
140.501179000000
30
0.0
11
590.601485849648
21
140.501179000000
31
0.0
0
LINE
5
4c1
100
AcDbEntity
8
A-0
6
CONTINUOUS
62
6
100
AcDbLine
10
599.888189849648
20
140.501179000000
30
0.0
11
612.888189849648
21
140.501179000000
31
0.0
0
LINE
5
4c2
100
AcDbEntity
8
A-0
6
CONTINUOUS
62
6
100
AcDbLine
10
637.882963849648
20
140.501179000000
30
0.0
11
659.675783849648
21
140.501179000000
31
0.0
0
LINE
5
4c3
100
AcDbEntity
8
A-0
6
CONTINUOUS
62
6
100
AcDbLine
10
353.447061849648
20
142.501179000000
30
0.0
11
366.447061849648
21
142.501179000000
31
0.0
0
LINE
5
4c4
100
AcDbEntity
8
A-0
6
CONTINUOUS
62
6
100
AcDbLine
10
397.112193849648
20
142.501179000000
30
0.0
11
410.112193849648
21
142.501179000000
31
0.0
0
LINE
5
4c5
100
AcDbEntity
8
A-0
6
CONTINUOUS
62
6
100
AcDbLine
10
421.258557849648
20
142.501179000000
30
0.0
11
472.949191849648
21
142.501179000000
31
0.0
0
LINE
5
4c6
100
AcDbEntity
8
A-0
6
CONTINUOUS
62
6
100
AcDbLine
10
499.641324849648
20
142.501179000000
30
0.0
11
521.548995849648
21
142.501179000000
31
0.0
0
LINE
5
4c7
100
AcDbEntity
8
A-0
6
CONTINUOUS
62
6
100
AcDbLine
10
531.548995849648
20
142.501179000000
30
0.0
11
544.548995849648
21
142.501179000000
31
0.0
0
LINE
5
4c8
100
AcDbEntity
8
A-0
6
CONTINUOUS
62
6
100
AcDbLine
10
576.668869849648
20
142.501179000000
30
0.0
11
589.668869849648
21
142.501179000000
31
0.0
0
LINE
5
4c9
100
AcDbEntity
8
A-0
6
CONTINUOUS
62
6
100
AcDbLine
10
599.888189849648
20
142.501179000000
30
0.0
11
612.888189849648
21
142.501179000000
31
0.0
0
LINE
5
4ca
100
AcDbEntity
8
A-0
6
CONTINUOUS
62
6
100
AcDbLine
10
636.633225849648
20
142.501179000000
30
0.0
11
659.675783849648
21
142.501179000000
31
0.0
0
LINE
5
4cb
100
AcDbEntity
8
A-0
6
CONTINUOUS
62
6
100
AcDbLine
10
354.379676849648
20
144.501179000000
30
0.0
11
367.379676849648
21
144.501179000000
31
0.0
0
LINE
5
4cc
100
AcDbEntity
8
A-0
6
CONTINUOUS
62
6
100
AcDbLine
10
396.179577849648
20
144.501179000000
30
0.0
11
409.179577849648
21
144.501179000000
31
0.0
0
LINE
5
4cd
100
AcDbEntity
8
A-0
6
CONTINUOUS
62
6
100
AcDbLine
10
421.258557849648
20
144.501179000000
30
0.0
11
434.258557849648
21
144.501179000000
31
0.0
0
LINE
5
4ce
100
AcDbEntity
8
A-0
6
CONTINUOUS
62
6
100
AcDbLine
10
456.987309849648
20
144.501179000000
30
0.0
11
474.057013849648
21
144.501179000000
31
0.0
0
LINE
5
4cf
100
AcDbEntity
8
A-0
6
CONTINUOUS
62
6
100
AcDbLine
10
498.708709849648
20
144.501179000000
30
0.0
11
522.481610849648
21
144.501179000000
31
0.0
0
LINE
5
4d0
100
AcDbEntity
8
A-0
6
CONTINUOUS
62
6
100
AcDbLine
10
532.481610849648
20
144.501179000000
30
0.0
11
545.481610849648
21
144.501179000000
31
0.0
0
LINE
5
4d1
100
AcDbEntity
8
A-0
6
CONTINUOUS
62
6
100
AcDbLine
10
575.736254849648
20
144.501179000000
30
0.0
11
588.736254849648
21
144.501179000000
31
0.0
0
LINE
5
4d2
100
AcDbEntity
8
A-0
6
CONTINUOUS
62
6
100
AcDbLine
10
599.888189849648
20
144.501179000000
30
0.0
11
612.888189849648
21
144.501179000000
31
0.0
0
LINE
5
4d3
100
AcDbEntity
8
A-0
6
CONTINUOUS
62
6
100
AcDbLine
10
635.383486849648
20
144.501179000000
30
0.0
11
648.354448849648
21
144.501179000000
31
0.0
0
LINE
5
4d4
100
AcDbEntity
8
A-0
6
CONTINUOUS
62
6
100
AcDbLine
10
648.675783849648
20
144.501179000000
30
0.0
11
659.675783849648
21
144.501179000000
31
0.0
0
LINE
5
4d5
100
AcDbEntity
8
A-0
6
CONTINUOUS
62
6
100
AcDbLine
10
355.312292849648
20
146.501179000000
30
0.0
11
408.246962849648
21
146.501179000000
31
0.0
0
LINE
5
4d6
100
AcDbEntity
8
A-0
6
CONTINUOUS
62
6
100
AcDbLine
10
421.258557849648
20
146.501179000000
30
0.0
11
434.258557849648
21
146.501179000000
31
0.0
0
LINE
5
4d7
100
AcDbEntity
8
A-0
6
CONTINUOUS
62
6
100
AcDbLine
10
459.831423849648
20
146.501179000000
30
0.0
11
474.818147849648
21
146.501179000000
31
0.0
0
LINE
5
4d8
100
AcDbEntity
8
A-0
6
CONTINUOUS
62
6
100
AcDbLine
10
497.776094849648
20
146.501179000000
30
0.0
11
523.414225849648
21
146.501179000000
31
0.0
0
LINE
5
4d9
100
AcDbEntity
8
A-0
6
CONTINUOUS
62
6
100
AcDbLine
10
533.414225849648
20
146.501179000000
30
0.0
11
587.803639849648
21
146.501179000000
31
0.0
0
LINE
5
4da
100
AcDbEntity
8
A-0
6
CONTINUOUS
62
6
100
AcDbLine
10
599.888189849648
20
146.501179000000
30
0.0
11
612.888189849648
21
146.501179000000
31
0.0
0
LINE
5
4db
100
AcDbEntity
8
A-0
6
CONTINUOUS
62
6
100
AcDbLine
10
634.133747849648
20
146.501179000000
30
0.0
11
647.104710849648
21
146.501179000000
31
0.0
0
LINE
5
4dc
100
AcDbEntity
8
A-0
6
CONTINUOUS
62
6
100
AcDbLine
10
648.675783849648
20
146.501179000000
30
0.0
11
659.675783849648
21
146.501179000000
31
0.0
0
LINE
5
4dd
100
AcDbEntity
8
A-0
6
CONTINUOUS
62
6
100
AcDbLine
10
356.244907849648
20
148.501179000000
30
0.0
11
407.314347849648
21
148.501179000000
31
0.0
0
LINE
5
4de
100
AcDbEntity
8
A-0
6
CONTINUOUS
62
6
100
AcDbLine
10
421.258557849648
20
148.501179000000
30
0.0
11
434.258557849648
21
148.501179000000
31
0.0
0
LINE
5
4df
100
AcDbEntity
8
A-0
6
CONTINUOUS
62
6
100
AcDbLine
10
461.649201849648
20
148.501179000000
30
0.0
11
475.408236849648
21
148.501179000000
31
0.0
0
LINE
5
4e0
100
AcDbEntity
8
A-0
6
CONTINUOUS
62
6
100
AcDbLine
10
496.843478849648
20
148.501179000000
30
0.0
11
509.843478849648
21
148.501179000000
31
0.0
0
LINE
5
4e1
100
AcDbEntity
8
A-0
6
CONTINUOUS
62
6
100
AcDbLine
10
511.346841849648
20
148.501179000000
30
0.0
11
524.346841849648
21
148.501179000000
31
0.0
0
LINE
5
4e2
100
AcDbEntity
8
A-0
6
CONTINUOUS
62
6
100
AcDbLine
10
534.346841849648
20
148.501179000000
30
0.0
11
586.871024849648
21
148.501179000000
31
0.0
0
LINE
5
4e3
100
AcDbEntity
8
A-0
6
CONTINUOUS
62
6
100
AcDbLine
10
599.888189849648
20
148.501179000000
30
0.0
11
612.888189849648
21
148.501179000000
31
0.0
0
LINE
5
4e4
100
AcDbEntity
8
A-0
6
CONTINUOUS
62
6
100
AcDbLine
10
632.884009849648
20
148.501179000000
30
0.0
11
645.854971849648
21
148.501179000000
31
0.0
0
LINE
5
4e5
100
AcDbEntity
8
A-0
6
CONTINUOUS
62
6
100
AcDbLine
10
648.675783849648
20
148.501179000000
30
0.0
11
659.675783849648
21
148.501179000000
31
0.0
0
LINE
5
4e6
100
AcDbEntity
8
A-0
6
CONTINUOUS
62
6
100
AcDbLine
10
357.177522849648
20
150.501179000000
30
0.0
11
406.381731849648
21
150.501179000000
31
0.0
0
LINE
5
4e7
100
AcDbEntity
8
A-0
6
CONTINUOUS
62
6
100
AcDbLine
10
421.258557849648
20
150.501179000000
30
0.0
11
434.258557849648
21
150.501179000000
31
0.0
0
LINE
5
4e8
100
AcDbEntity
8
A-0
6
CONTINUOUS
62
6
100
AcDbLine
10
462.733090849648
20
150.501179000000
30
0.0
11
475.907572849648
21
150.501179000000
31
0.0
0
LINE
5
4e9
100
AcDbEntity
8
A-0
6
CONTINUOUS
62
6
100
AcDbLine
10
495.910863849648
20
150.501179000000
30
0.0
11
508.910863849648
21
150.501179000000
31
0.0
0
LINE
5
4ea
100
AcDbEntity
8
A-0
6
CONTINUOUS
62
6
100
AcDbLine
10
512.279456849648
20
150.501179000000
30
0.0
11
525.279456849648
21
150.501179000000
31
0.0
0
LINE
5
4eb
100
AcDbEntity
8
A-0
6
CONTINUOUS
62
6
100
AcDbLine
10
535.279456849648
20
150.501179000000
30
0.0
11
585.938408849648
21
150.501179000000
31
0.0
0
LINE
5
4ec
100
AcDbEntity
8
A-0
6
CONTINUOUS
62
6
100
AcDbLine
10
599.888189849648
20
150.501179000000
30
0.0
11
612.888189849648
21
150.501179000000
31
0.0
0
LINE
5
4ed
100
AcDbEntity
8
A-0
6
CONTINUOUS
62
6
100
AcDbLine
10
631.634270849648
20
150.501179000000
30
0.0
11
644.605232849648
21
150.501179000000
31
0.0
0
LINE
5
4ee
100
AcDbEntity
8
A-0
6
CONTINUOUS
62
6
100
AcDbLine
10
648.675783849648
20
150.501179000000
30
0.0
11
659.675783849648
21
150.501179000000
31
0.0
0
LINE
5
4ef
100
AcDbEntity
8
A-0
6
CONTINUOUS
62
6
100
AcDbLine
10
358.110138849648
20
152.501179000000
30
0.0
11
405.449116849648
21
152.501179000000
31
0.0
0
LINE
5
4f0
100
AcDbEntity
8
A-0
6
CONTINUOUS
62
6
100
AcDbLine
10
421.258557849648
20
152.501179000000
30
0.0
11
434.258557849648
21
152.501179000000
31
0.0
0
LINE
5
4f1
100
AcDbEntity
8
A-0
6
CONTINUOUS
62
6
100
AcDbLine
10
463.411373849648
20
152.501179000000
30
0.0
11
476.335275849648
21
152.501179000000
31
0.0
0
LINE
5
4f2
100
AcDbEntity
8
A-0
6
CONTINUOUS
62
6
100
AcDbLine
10
494.978248849648
20
152.501179000000
30
0.0
11
507.978248849648
21
152.501179000000
31
0.0
0
LINE
5
4f3
100
AcDbEntity
8
A-0
6
CONTINUOUS
62
6
100
AcDbLine
10
513.212071849648
20
152.501179000000
30
0.0
11
526.212071849648
21
152.501179000000
31
0.0
0
LINE
5
4f4
100
AcDbEntity
8
A-0
6
CONTINUOUS
62
6
100
AcDbLine
10
536.212071849648
20
152.501179000000
30
0.0
11
585.005793849648
21
152.501179000000
31
0.0
0
LINE
5
4f5
100
AcDbEntity
8
A-0
6
CONTINUOUS
62
6
100
AcDbLine
10
599.888189849648
20
152.501179000000
30
0.0
11
612.888189849648
21
152.501179000000
31
0.0
0
LINE
5
4f6
100
AcDbEntity
8
A-0
6
CONTINUOUS
62
6
100
AcDbLine
10
630.384531849648
20
152.501179000000
30
0.0
11
643.355494849648
21
152.501179000000
31
0.0
0
LINE
5
4f7
100
AcDbEntity
8
A-0
6
CONTINUOUS
62
6
100
AcDbLine
10
648.675783849648
20
152.501179000000
30
0.0
11
659.675783849648
21
152.501179000000
31
0.0
0
LINE
5
4f8
100
AcDbEntity
8
A-0
6
CONTINUOUS
62
6
100
AcDbLine
10
359.042753849648
20
154.501179000000
30
0.0
11
404.516501849648
21
154.501179000000
31
0.0
0
LINE
5
4f9
100
AcDbEntity
8
A-0
6
CONTINUOUS
62
6
100
AcDbLine
10
421.258557849648
20
154.501179000000
30
0.0
11
434.258557849648
21
154.501179000000
31
0.0
0
LINE
5
4fa
100
AcDbEntity
8
A-0
6
CONTINUOUS
62
6
100
AcDbLine
10
463.824837849648
20
154.501179000000
30
0.0
11
476.683747849648
21
154.501179000000
31
0.0
0
LINE
5
4fb
100
AcDbEntity
8
A-0
6
CONTINUOUS
62
6
100
AcDbLine
10
494.045632849648
20
154.501179000000
30
0.0
11
507.045632849648
21
154.501179000000
31
0.0
0
LINE
5
4fc
100
AcDbEntity
8
A-0
6
CONTINUOUS
62
6
100
AcDbLine
10
514.144687849648
20
154.501179000000
30
0.0
11
527.144687849648
21
154.501179000000
31
0.0
0
LINE
5
4fd
100
AcDbEntity
8
A-0
6
CONTINUOUS
62
6
100
AcDbLine
10
537.144687849648
20
154.501179000000
30
0.0
11
584.073178849648
21
154.501179000000
31
0.0
0
LINE
5
4fe
100
AcDbEntity
8
A-0
6
CONTINUOUS
62
6
100
AcDbLine
10
599.888189849648
20
154.501179000000
30
0.0
11
612.888189849648
21
154.501179000000
31
0.0
0
LINE
5
4ff
100
AcDbEntity
8
A-0
6
CONTINUOUS
62
6
100
AcDbLine
10
629.134792849648
20
154.501179000000
30
0.0
11
642.105755849648
21
154.501179000000
31
0.0
0
LINE
5
500
100
AcDbEntity
8
A-0
6
CONTINUOUS
62
6
100
AcDbLine
10
648.675783849648
20
154.501179000000
30
0.0
11
659.675783849648
21
154.501179000000
31
0.0
0
LINE
5
501
100
AcDbEntity
8
A-0
6
CONTINUOUS
62
6
100
AcDbLine
10
359.975368849648
20
156.501179000000
30
0.0
11
372.975368849648
21
156.501179000000
31
0.0
0
LINE
5
502
100
AcDbEntity
8
A-0
6
CONTINUOUS
62
6
100
AcDbLine
10
390.583885849648
20
156.501179000000
30
0.0
11
403.583885849648
21
156.501179000000
31
0.0
0
LINE
5
503
100
AcDbEntity
8
A-0
6
CONTINUOUS
62
6
100
AcDbLine
10
421.258557849648
20
156.501179000000
30
0.0
11
434.258557849648
21
156.501179000000
31
0.0
0
LINE
5
504
100
AcDbEntity
8
A-0
6
CONTINUOUS
62
6
100
AcDbLine
10
464.068030849648
20
156.501179000000
30
0.0
11
476.951740849648
21
156.501179000000
31
0.0
0
LINE
5
505
100
AcDbEntity
8
A-0
6
CONTINUOUS
62
6
100
AcDbLine
10
493.113017849648
20
156.501179000000
30
0.0
11
506.113017849648
21
156.501179000000
31
0.0
0
LINE
5
506
100
AcDbEntity
8
A-0
6
CONTINUOUS
62
6
100
AcDbLine
10
515.077302849648
20
156.501179000000
30
0.0
11
528.077302849648
21
156.501179000000
31
0.0
0
LINE
5
507
100
AcDbEntity
8
A-0
6
CONTINUOUS
62
6
100
AcDbLine
10
538.077302849648
20
156.501179000000
30
0.0
11
551.077302849648
21
156.501179000000
31
0.0
0
LINE
5
508
100
AcDbEntity
8
A-0
6
CONTINUOUS
62
6
100
AcDbLine
10
570.140562849648
20
156.501179000000
30
0.0
11
583.140562849648
21
156.501179000000
31
0.0
0
LINE
5
509
100
AcDbEntity
8
A-0
6
CONTINUOUS
62
6
100
AcDbLine
10
599.888189849648
20
156.501179000000
30
0.0
11
612.888189849648
21
156.501179000000
31
0.0
0
LINE
5
50a
100
AcDbEntity
8
A-0
6
CONTINUOUS
62
6
100
AcDbLine
10
627.885054849648
20
156.501179000000
30
0.0
11
640.856016849648
21
156.501179000000
31
0.0
0
LINE
5
50b
100
AcDbEntity
8
A-0
6
CONTINUOUS
62
6
100
AcDbLine
10
648.675783849648
20
156.501179000000
30
0.0
11
659.675783849648
21
156.501179000000
31
0.0
0
LINE
5
50c
100
AcDbEntity
8
A-0
6
CONTINUOUS
62
6
100
AcDbLine
10
360.907984849648
20
158.501179000000
30
0.0
11
373.907984849648
21
158.501179000000
31
0.0
0
LINE
5
50d
100
AcDbEntity
8
A-0
6
CONTINUOUS
62
6
100
AcDbLine
10
389.651270849648
20
158.501179000000
30
0.0
11
402.651270849648
21
158.501179000000
31
0.0
0
LINE
5
50e
100
AcDbEntity
8
A-0
6
CONTINUOUS
62
6
100
AcDbLine
10
421.258557849648
20
158.501179000000
30
0.0
11
434.258557849648
21
158.501179000000
31
0.0
0
LINE
5
50f
100
AcDbEntity
8
A-0
6
CONTINUOUS
62
6
100
AcDbLine
10
464.197669849648
20
158.501179000000
30
0.0
11
477.137755849648
21
158.501179000000
31
0.0
0
LINE
5
510
100
AcDbEntity
8
A-0
6
CONTINUOUS
62
6
100
AcDbLine
10
492.180402849648
20
158.501179000000
30
0.0
11
505.180402849648
21
158.501179000000
31
0.0
0
LINE
5
511
100
AcDbEntity
8
A-0
6
CONTINUOUS
62
6
100
AcDbLine
10
516.009917849648
20
158.501179000000
30
0.0
11
529.009917849648
21
158.501179000000
31
0.0
0
LINE
5
512
100
AcDbEntity
8
A-0
6
CONTINUOUS
62
6
100
AcDbLine
10
539.009917849648
20
158.501179000000
30
0.0
11
552.009917849648
21
158.501179000000
31
0.0
0
LINE
5
513
100
AcDbEntity
8
A-0
6
CONTINUOUS
62
6
100
AcDbLine
10
569.207947849648
20
158.501179000000
30
0.0
11
582.207947849648
21
158.501179000000
31
0.0
0
LINE
5
514
100
AcDbEntity
8
A-0
6
CONTINUOUS
62
6
100
AcDbLine
10
599.888189849648
20
158.501179000000
30
0.0
11
612.888189849648
21
158.501179000000
31
0.0
0
LINE
5
515
100
AcDbEntity
8
A-0
6
CONTINUOUS
62
6
100
AcDbLine
10
626.635315849648
20
158.501179000000
30
0.0
11
639.606278849648
21
158.501179000000
31
0.0
0
LINE
5
516
100
AcDbEntity
8
A-0
6
CONTINUOUS
62
6
100
AcDbLine
10
648.675783849648
20
158.501179000000
30
0.0
11
659.675783849648
21
158.501179000000
31
0.0
0
LINE
5
517
100
AcDbEntity
8
A-0
6
CONTINUOUS
62
6
100
AcDbLine
10
361.840599849648
20
160.501179000000
30
0.0
11
374.840599849648
21
160.501179000000
31
0.0
0
LINE
5
518
100
AcDbEntity
8
A-0
6
CONTINUOUS
62
6
100
AcDbLine
10
388.718655849648
20
160.501179000000
30
0.0
11
401.718655849648
21
160.501179000000
31
0.0
0
LINE
5
519
100
AcDbEntity
8
A-0
6
CONTINUOUS
62
6
100
AcDbLine
10
421.258557849648
20
160.501179000000
30
0.0
11
434.258557849648
21
160.501179000000
31
0.0
0
LINE
5
51a
100
AcDbEntity
8
A-0
6
CONTINUOUS
62
6
100
AcDbLine
10
464.252038849648
20
160.501179000000
30
0.0
11
477.240882849648
21
160.501179000000
31
0.0
0
LINE
5
51b
100
AcDbEntity
8
A-0
6
CONTINUOUS
62
6
100
AcDbLine
10
491.247786849648
20
160.501179000000
30
0.0
11
504.247786849648
21
160.501179000000
31
0.0
0
LINE
5
51c
100
AcDbEntity
8
A-0
6
CONTINUOUS
62
6
100
AcDbLine
10
516.942533849648
20
160.501179000000
30
0.0
11
529.942533849648
21
160.501179000000
31
0.0
0
LINE
5
51d
100
AcDbEntity
8
A-0
6
CONTINUOUS
62
6
100
AcDbLine
10
539.942533849648
20
160.501179000000
30
0.0
11
552.942533849648
21
160.501179000000
31
0.0
0
LINE
5
51e
100
AcDbEntity
8
A-0
6
CONTINUOUS
62
6
100
AcDbLine
10
568.275332849648
20
160.501179000000
30
0.0
11
581.275332849648
21
160.501179000000
31
0.0
0
LINE
5
51f
100
AcDbEntity
8
A-0
6
CONTINUOUS
62
6
100
AcDbLine
10
599.888189849648
20
160.501179000000
30
0.0
11
612.888189849648
21
160.501179000000
31
0.0
0
LINE
5
520
100
AcDbEntity
8
A-0
6
CONTINUOUS
62
6
100
AcDbLine
10
625.385576849648
20
160.501179000000
30
0.0
11
638.356539849648
21
160.501179000000
31
0.0
0
LINE
5
521
100
AcDbEntity
8
A-0
6
CONTINUOUS
62
6
100
AcDbLine
10
648.675783849648
20
160.501179000000
30
0.0
11
659.675783849648
21
160.501179000000
31
0.0
0
LINE
5
522
100
AcDbEntity
8
A-0
6
CONTINUOUS
62
6
100
AcDbLine
10
362.773214849648
20
162.501179000000
30
0.0
11
375.773214849648
21
162.501179000000
31
0.0
0
LINE
5
523
100
AcDbEntity
8
A-0
6
CONTINUOUS
62
6
100
AcDbLine
10
387.786040849648
20
162.501179000000
30
0.0
11
400.786040849648
21
162.501179000000
31
0.0
0
LINE
5
524
100
AcDbEntity
8
A-0
6
CONTINUOUS
62
6
100
AcDbLine
10
421.258557849648
20
162.501179000000
30
0.0
11
434.258557849648
21
162.501179000000
31
0.0
0
LINE
5
525
100
AcDbEntity
8
A-0
6
CONTINUOUS
62
6
100
AcDbLine
10
464.254427849648
20
162.501179000000
30
0.0
11
477.247359849648
21
162.501179000000
31
0.0
0
LINE
5
526
100
AcDbEntity
8
A-0
6
CONTINUOUS
62
6
100
AcDbLine
10
490.315171849648
20
162.501179000000
30
0.0
11
503.315171849648
21
162.501179000000
31
0.0
0
LINE
5
527
100
AcDbEntity
8
A-0
6
CONTINUOUS
62
6
100
AcDbLine
10
517.875148849648
20
162.501179000000
30
0.0
11
530.875148849648
21
162.501179000000
31
0.0
0
LINE
5
528
100
AcDbEntity
8
A-0
6
CONTINUOUS
62
6
100
AcDbLine
10
540.875148849648
20
162.501179000000
30
0.0
11
553.875148849648
21
162.501179000000
31
0.0
0
LINE
5
529
100
AcDbEntity
8
A-0
6
CONTINUOUS
62
6
100
AcDbLine
10
567.342716849648
20
162.501179000000
30
0.0
11
580.342716849648
21
162.501179000000
31
0.0
0
LINE
5
52a
100
AcDbEntity
8
A-0
6
CONTINUOUS
62
6
100
AcDbLine
10
599.888189849648
20
162.501179000000
30
0.0
11
612.888189849648
21
162.501179000000
31
0.0
0
LINE
5
52b
100
AcDbEntity
8
A-0
6
CONTINUOUS
62
6
100
AcDbLine
10
624.135838849648
20
162.501179000000
30
0.0
11
637.106800849648
21
162.501179000000
31
0.0
0
LINE
5
52c
100
AcDbEntity
8
A-0
6
CONTINUOUS
62
6
100
AcDbLine
10
648.675783849648
20
162.501179000000
30
0.0
11
659.675783849648
21
162.501179000000
31
0.0
0
LINE
5
52d
100
AcDbEntity
8
A-0
6
CONTINUOUS
62
6
100
AcDbLine
10
363.705830849648
20
164.501179000000
30
0.0
11
376.705830849648
21
164.501179000000
31
0.0
0
LINE
5
52e
100
AcDbEntity
8
A-0
6
CONTINUOUS
62
6
100
AcDbLine
10
386.853424849648
20
164.501179000000
30
0.0
11
399.853424849648
21
164.501179000000
31
0.0
0
LINE
5
52f
100
AcDbEntity
8
A-0
6
CONTINUOUS
62
6
100
AcDbLine
10
421.258557849648
20
164.501179000000
30
0.0
11
434.258557849648
21
164.501179000000
31
0.0
0
LINE
5
530
100
AcDbEntity
8
A-0
6
CONTINUOUS
62
6
100
AcDbLine
10
464.211169849648
20
164.501179000000
30
0.0
11
477.161597849648
21
164.501179000000
31
0.0
0
LINE
5
531
100
AcDbEntity
8
A-0
6
CONTINUOUS
62
6
100
AcDbLine
10
489.382556849648
20
164.501179000000
30
0.0
11
502.382556849648
21
164.501179000000
31
0.0
0
LINE
5
532
100
AcDbEntity
8
A-0
6
CONTINUOUS
62
6
100
AcDbLine
10
518.807763849648
20
164.501179000000
30
0.0
11
531.807763849648
21
164.501179000000
31
0.0
0
LINE
5
533
100
AcDbEntity
8
A-0
6
CONTINUOUS
62
6
100
AcDbLine
10
541.807763849648
20
164.501179000000
30
0.0
11
554.807763849648
21
164.501179000000
31
0.0
0
LINE
5
534
100
AcDbEntity
8
A-0
6
CONTINUOUS
62
6
100
AcDbLine
10
566.410101849648
20
164.501179000000
30
0.0
11
579.410101849648
21
164.501179000000
31
0.0
0
LINE
5
535
100
AcDbEntity
8
A-0
6
CONTINUOUS
62
6
100
AcDbLine
10
599.888189849648
20
164.501179000000
30
0.0
11
612.888189849648
21
164.501179000000
31
0.0
0
LINE
5
536
100
AcDbEntity
8
A-0
6
CONTINUOUS
62
6
100
AcDbLine
10
622.886099849648
20
164.501179000000
30
0.0
11
635.857061849648
21
164.501179000000
31
0.0
0
LINE
5
537
100
AcDbEntity
8
A-0
6
CONTINUOUS
62
6
100
AcDbLine
10
648.675783849648
20
164.501179000000
30
0.0
11
659.675783849648
21
164.501179000000
31
0.0
0
LINE
5
538
100
AcDbEntity
8
A-0
6
CONTINUOUS
62
6
100
AcDbLine
10
364.638445849648
20
166.501179000000
30
0.0
11
377.638445849648
21
166.501179000000
31
0.0
0
LINE
5
539
100
AcDbEntity
8
A-0
6
CONTINUOUS
62
6
100
AcDbLine
10
385.920809849648
20
166.501179000000
30
0.0
11
398.920809849648
21
166.501179000000
31
0.0
0
LINE
5
53a
100
AcDbEntity
8
A-0
6
CONTINUOUS
62
6
100
AcDbLine
10
421.258557849648
20
166.501179000000
30
0.0
11
434.258557849648
21
166.501179000000
31
0.0
0
LINE
5
53b
100
AcDbEntity
8
A-0
6
CONTINUOUS
62
6
100
AcDbLine
10
464.105964849648
20
166.501179000000
30
0.0
11
476.997020849648
21
166.501179000000
31
0.0
0
LINE
5
53c
100
AcDbEntity
8
A-0
6
CONTINUOUS
62
6
100
AcDbLine
10
488.449940849648
20
166.501179000000
30
0.0
11
501.449940849648
21
166.501179000000
31
0.0
0
LINE
5
53d
100
AcDbEntity
8
A-0
6
CONTINUOUS
62
6
100
AcDbLine
10
519.740378849648
20
166.501179000000
30
0.0
11
532.740378849648
21
166.501179000000
31
0.0
0
LINE
5
53e
100
AcDbEntity
8
A-0
6
CONTINUOUS
62
6
100
AcDbLine
10
542.740378849648
20
166.501179000000
30
0.0
11
555.740378849648
21
166.501179000000
31
0.0
0
LINE
5
53f
100
AcDbEntity
8
A-0
6
CONTINUOUS
62
6
100
AcDbLine
10
565.477486849648
20
166.501179000000
30
0.0
11
578.477486849648
21
166.501179000000
31
0.0
0
LINE
5
540
100
AcDbEntity
8
A-0
6
CONTINUOUS
62
6
100
AcDbLine
10
599.888189849648
20
166.501179000000
30
0.0
11
612.888189849648
21
166.501179000000
31
0.0
0
LINE
5
541
100
AcDbEntity
8
A-0
6
CONTINUOUS
62
6
100
AcDbLine
10
621.636360849648
20
166.501179000000
30
0.0
11
634.607323849648
21
166.501179000000
31
0.0
0
LINE
5
542
100
AcDbEntity
8
A-0
6
CONTINUOUS
62
6
100
AcDbLine
10
648.675783849648
20
166.501179000000
30
0.0
11
659.675783849648
21
166.501179000000
31
0.0
0
LINE
5
543
100
AcDbEntity
8
A-0
6
CONTINUOUS
62
6
100
AcDbLine
10
365.571060849648
20
168.501179000000
30
0.0
11
378.571060849648
21
168.501179000000
31
0.0
0
LINE
5
544
100
AcDbEntity
8
A-0
6
CONTINUOUS
62
6
100
AcDbLine
10
384.988194849648
20
168.501179000000
30
0.0
11
397.988194849648
21
168.501179000000
31
0.0
0
LINE
5
545
100
AcDbEntity
8
A-0
6
CONTINUOUS
62
6
100
AcDbLine
10
421.258557849648
20
168.501179000000
30
0.0
11
434.258557849648
21
168.501179000000
31
0.0
0
LINE
5
546
100
AcDbEntity
8
A-0
6
CONTINUOUS
62
6
100
AcDbLine
10
463.901616849648
20
168.501179000000
30
0.0
11
476.749890849648
21
168.501179000000
31
0.0
0
LINE
5
547
100
AcDbEntity
8
A-0
6
CONTINUOUS
62
6
100
AcDbLine
10
487.517325849648
20
168.501179000000
30
0.0
11
500.517325849648
21
168.501179000000
31
0.0
0
LINE
5
548
100
AcDbEntity
8
A-0
6
CONTINUOUS
62
6
100
AcDbLine
10
520.672994849648
20
168.501179000000
30
0.0
11
533.672994849648
21
168.501179000000
31
0.0
0
LINE
5
549
100
AcDbEntity
8
A-0
6
CONTINUOUS
62
6
100
AcDbLine
10
543.672994849648
20
168.501179000000
30
0.0
11
556.672994849648
21
168.501179000000
31
0.0
0
LINE
5
54a
100
AcDbEntity
8
A-0
6
CONTINUOUS
62
6
100
AcDbLine
10
564.544870849648
20
168.501179000000
30
0.0
11
577.544870849648
21
168.501179000000
31
0.0
0
LINE
5
54b
100
AcDbEntity
8
A-0
6
CONTINUOUS
62
6
100
AcDbLine
10
599.888189849648
20
168.501179000000
30
0.0
11
612.888189849648
21
168.501179000000
31
0.0
0
LINE
5
54c
100
AcDbEntity
8
A-0
6
CONTINUOUS
62
6
100
AcDbLine
10
620.386622849648
20
168.501179000000
30
0.0
11
633.357584849648
21
168.501179000000
31
0.0
0
LINE
5
54d
100
AcDbEntity
8
A-0
6
CONTINUOUS
62
6
100
AcDbLine
10
648.675783849648
20
168.501179000000
30
0.0
11
659.675783849648
21
168.501179000000
31
0.0
0
LINE
5
54e
100
AcDbEntity
8
A-0
6
CONTINUOUS
62
6
100
AcDbLine
10
366.503676849648
20
170.501179000000
30
0.0
11
379.503676849648
21
170.501179000000
31
0.0
0
LINE
5
54f
100
AcDbEntity
8
A-0
6
CONTINUOUS
62
6
100
AcDbLine
10
384.055578849648
20
170.501179000000
30
0.0
11
397.055578849648
21
170.501179000000
31
0.0
0
LINE
5
550
100
AcDbEntity
8
A-0
6
CONTINUOUS
62
6
100
AcDbLine
10
421.258557849648
20
170.501179000000
30
0.0
11
434.258557849648
21
170.501179000000
31
0.0
0
LINE
5
551
100
AcDbEntity
8
A-0
6
CONTINUOUS
62
6
100
AcDbLine
10
463.546137849648
20
170.501179000000
30
0.0
11
476.421767849648
21
170.501179000000
31
0.0
0
LINE
5
552
100
AcDbEntity
8
A-0
6
CONTINUOUS
62
6
100
AcDbLine
10
486.584710849648
20
170.501179000000
30
0.0
11
499.584710849648
21
170.501179000000
31
0.0
0
LINE
5
553
100
AcDbEntity
8
A-0
6
CONTINUOUS
62
6
100
AcDbLine
10
521.605609849648
20
170.501179000000
30
0.0
11
534.605609849648
21
170.501179000000
31
0.0
0
LINE
5
554
100
AcDbEntity
8
A-0
6
CONTINUOUS
62
6
100
AcDbLine
10
544.605609849648
20
170.501179000000
30
0.0
11
557.605609849648
21
170.501179000000
31
0.0
0
LINE
5
555
100
AcDbEntity
8
A-0
6
CONTINUOUS
62
6
100
AcDbLine
10
563.612255849648
20
170.501179000000
30
0.0
11
576.612255849648
21
170.501179000000
31
0.0
0
LINE
5
556
100
AcDbEntity
8
A-0
6
CONTINUOUS
62
6
100
AcDbLine
10
599.888189849648
20
170.501179000000
30
0.0
11
612.888189849648
21
170.501179000000
31
0.0
0
LINE
5
557
100
AcDbEntity
8
A-0
6
CONTINUOUS
62
6
100
AcDbLine
10
619.136883849648
20
170.501179000000
30
0.0
11
632.107845849648
21
170.501179000000
31
0.0
0
LINE
5
558
100
AcDbEntity
8
A-0
6
CONTINUOUS
62
6
100
AcDbLine
10
648.675783849648
20
170.501179000000
30
0.0
11
659.675783849648
21
170.501179000000
31
0.0
0
LINE
5
559
100
AcDbEntity
8
A-0
6
CONTINUOUS
62
6
100
AcDbLine
10
367.436291849648
20
172.501179000000
30
0.0
11
380.436291849648
21
172.501179000000
31
0.0
0
LINE
5
55a
100
AcDbEntity
8
A-0
6
CONTINUOUS
62
6
100
AcDbLine
10
383.122963849648
20
172.501179000000
30
0.0
11
396.122963849648
21
172.501179000000
31
0.0
0
LINE
5
55b
100
AcDbEntity
8
A-0
6
CONTINUOUS
62
6
100
AcDbLine
10
421.258557849648
20
172.501179000000
30
0.0
11
434.258557849648
21
172.501179000000
31
0.0
0
LINE
5
55c
100
AcDbEntity
8
A-0
6
CONTINUOUS
62
6
100
AcDbLine
10
462.945475849648
20
172.501179000000
30
0.0
11
476.013957849648
21
172.501179000000
31
0.0
0
LINE
5
55d
100
AcDbEntity
8
A-0
6
CONTINUOUS
62
6
100
AcDbLine
10
485.652095849648
20
172.501179000000
30
0.0
11
498.652095849648
21
172.501179000000
31
0.0
0
LINE
5
55e
100
AcDbEntity
8
A-0
6
CONTINUOUS
62
6
100
AcDbLine
10
522.538224849648
20
172.501179000000
30
0.0
11
535.538224849648
21
172.501179000000
31
0.0
0
LINE
5
55f
100
AcDbEntity
8
A-0
6
CONTINUOUS
62
6
100
AcDbLine
10
545.538224849648
20
172.501179000000
30
0.0
11
558.538224849648
21
172.501179000000
31
0.0
0
LINE
5
560
100
AcDbEntity
8
A-0
6
CONTINUOUS
62
6
100
AcDbLine
10
562.679640849648
20
172.501179000000
30
0.0
11
575.679640849648
21
172.501179000000
31
0.0
0
LINE
5
561
100
AcDbEntity
8
A-0
6
CONTINUOUS
62
6
100
AcDbLine
10
599.888189849648
20
172.501179000000
30
0.0
11
612.888189849648
21
172.501179000000
31
0.0
0
LINE
5
562
100
AcDbEntity
8
A-0
6
CONTINUOUS
62
6
100
AcDbLine
10
617.887144849648
20
172.501179000000
30
0.0
11
630.858107849648
21
172.501179000000
31
0.0
0
LINE
5
563
100
AcDbEntity
8
A-0
6
CONTINUOUS
62
6
100
AcDbLine
10
648.675783849648
20
172.501179000000
30
0.0
11
659.675783849648
21
172.501179000000
31
0.0
0
LINE
5
564
100
AcDbEntity
8
A-0
6
CONTINUOUS
62
6
100
AcDbLine
10
368.368906849648
20
174.501179000000
30
0.0
11
381.368906849648
21
174.501179000000
31
0.0
0
LINE
5
565
100
AcDbEntity
8
A-0
6
CONTINUOUS
62
6
100
AcDbLine
10
382.190348849648
20
174.501179000000
30
0.0
11
395.190348849648
21
174.501179000000
31
0.0
0
LINE
5
566
100
AcDbEntity
8
A-0
6
CONTINUOUS
62
6
100
AcDbLine
10
421.258557849648
20
174.501179000000
30
0.0
11
434.258557849648
21
174.501179000000
31
0.0
0
LINE
5
567
100
AcDbEntity
8
A-0
6
CONTINUOUS
62
6
100
AcDbLine
10
461.967169849648
20
174.501179000000
30
0.0
11
475.530068849648
21
174.501179000000
31
0.0
0
LINE
5
568
100
AcDbEntity
8
A-0
6
CONTINUOUS
62
6
100
AcDbLine
10
484.719479849648
20
174.501179000000
30
0.0
11
497.719479849648
21
174.501179000000
31
0.0
0
LINE
5
569
100
AcDbEntity
8
A-0
6
CONTINUOUS
62
6
100
AcDbLine
10
523.470840849648
20
174.501179000000
30
0.0
11
536.470840849648
21
174.501179000000
31
0.0
0
LINE
5
56a
100
AcDbEntity
8
A-0
6
CONTINUOUS
62
6
100
AcDbLine
10
546.470840849648
20
174.501179000000
30
0.0
11
559.470840849648
21
174.501179000000
31
0.0
0
LINE
5
56b
100
AcDbEntity
8
A-0
6
CONTINUOUS
62
6
100
AcDbLine
10
561.747024849648
20
174.501179000000
30
0.0
11
574.747024849648
21
174.501179000000
31
0.0
0
LINE
5
56c
100
AcDbEntity
8
A-0
6
CONTINUOUS
62
6
100
AcDbLine
10
599.888189849648
20
174.501179000000
30
0.0
11
612.888189849648
21
174.501179000000
31
0.0
0
LINE
5
56d
100
AcDbEntity
8
A-0
6
CONTINUOUS
62
6
100
AcDbLine
10
616.637405849648
20
174.501179000000
30
0.0
11
629.608368849648
21
174.501179000000
31
0.0
0
LINE
5
56e
100
AcDbEntity
8
A-0
6
CONTINUOUS
62
6
100
AcDbLine
10
648.675783849648
20
174.501179000000
30
0.0
11
659.675783849648
21
174.501179000000
31
0.0
0
LINE
5
56f
100
AcDbEntity
8
A-0
6
CONTINUOUS
62
6
100
AcDbLine
10
369.301522849648
20
176.501179000000
30
0.0
11
394.257732849648
21
176.501179000000
31
0.0
0
LINE
5
570
100
AcDbEntity
8
A-0
6
CONTINUOUS
62
6
100
AcDbLine
10
421.258557849648
20
176.501179000000
30
0.0
11
434.258557849648
21
176.501179000000
31
0.0
0
LINE
5
571
100
AcDbEntity
8
A-0
6
CONTINUOUS
62
6
100
AcDbLine
10
460.305887849648
20
176.501179000000
30
0.0
11
474.959777849648
21
176.501179000000
31
0.0
0
LINE
5
572
100
AcDbEntity
8
A-0
6
CONTINUOUS
62
6
100
AcDbLine
10
483.786864849648
20
176.501179000000
30
0.0
11
496.786864849648
21
176.501179000000
31
0.0
0
LINE
5
573
100
AcDbEntity
8
A-0
6
CONTINUOUS
62
6
100
AcDbLine
10
524.403455849648
20
176.501179000000
30
0.0
11
537.403455849648
21
176.501179000000
31
0.0
0
LINE
5
574
100
AcDbEntity
8
A-0
6
CONTINUOUS
62
6
100
AcDbLine
10
547.403455849648
20
176.501179000000
30
0.0
11
560.403455849648
21
176.501179000000
31
0.0
0
LINE
5
575
100
AcDbEntity
8
A-0
6
CONTINUOUS
62
6
100
AcDbLine
10
560.814409849648
20
176.501179000000
30
0.0
11
573.814409849648
21
176.501179000000
31
0.0
0
LINE
5
576
100
AcDbEntity
8
A-0
6
CONTINUOUS
62
6
100
AcDbLine
10
599.888189849648
20
176.501179000000
30
0.0
11
612.888189849648
21
176.501179000000
31
0.0
0
LINE
5
577
100
AcDbEntity
8
A-0
6
CONTINUOUS
62
6
100
AcDbLine
10
615.387667849648
20
176.501179000000
30
0.0
11
628.358629849648
21
176.501179000000
31
0.0
0
LINE
5
578
100
AcDbEntity
8
A-0
6
CONTINUOUS
62
6
100
AcDbLine
10
648.675783849648
20
176.501179000000
30
0.0
11
659.675783849648
21
176.501179000000
31
0.0
0
LINE
5
579
100
AcDbEntity
8
A-0
6
CONTINUOUS
62
6
100
AcDbLine
10
370.234137849648
20
178.501179000000
30
0.0
11
393.325117849648
21
178.501179000000
31
0.0
0
LINE
5
57a
100
AcDbEntity
8
A-0
6
CONTINUOUS
62
6
100
AcDbLine
10
421.258557849648
20
178.501179000000
30
0.0
11
434.258557849648
21
178.501179000000
31
0.0
0
LINE
5
57b
100
AcDbEntity
8
A-0
6
CONTINUOUS
62
6
100
AcDbLine
10
457.712082849648
20
178.501179000000
30
0.0
11
474.254513849648
21
178.501179000000
31
0.0
0
LINE
5
57c
100
AcDbEntity
8
A-0
6
CONTINUOUS
62
6
100
AcDbLine
10
482.854249849648
20
178.501179000000
30
0.0
11
495.854249849648
21
178.501179000000
31
0.0
0
LINE
5
57d
100
AcDbEntity
8
A-0
6
CONTINUOUS
62
6
100
AcDbLine
10
525.336070849648
20
178.501179000000
30
0.0
11
538.336070849648
21
178.501179000000
31
0.0
0
LINE
5
57e
100
AcDbEntity
8
A-0
6
CONTINUOUS
62
6
100
AcDbLine
10
548.336070849648
20
178.501179000000
30
0.0
11
572.881794849648
21
178.501179000000
31
0.0
0
LINE
5
57f
100
AcDbEntity
8
A-0
6
CONTINUOUS
62
6
100
AcDbLine
10
599.888189849648
20
178.501179000000
30
0.0
11
612.888189849648
21
178.501179000000
31
0.0
0
LINE
5
580
100
AcDbEntity
8
A-0
6
CONTINUOUS
62
6
100
AcDbLine
10
614.137928849648
20
178.501179000000
30
0.0
11
627.108890849648
21
178.501179000000
31
0.0
0
LINE
5
581
100
AcDbEntity
8
A-0
6
CONTINUOUS
62
6
100
AcDbLine
10
648.675783849648
20
178.501179000000
30
0.0
11
659.675783849648
21
178.501179000000
31
0.0
0
LINE
5
582
100
AcDbEntity
8
A-0
6
CONTINUOUS
62
6
100
AcDbLine
10
371.166752849648
20
180.501179000000
30
0.0
11
392.392502849648
21
180.501179000000
31
0.0
0
LINE
5
583
100
AcDbEntity
8
A-0
6
CONTINUOUS
62
6
100
AcDbLine
10
421.258557849648
20
180.501179000000
30
0.0
11
434.258557849648
21
180.501179000000
31
0.0
0
LINE
5
584
100
AcDbEntity
8
A-0
6
CONTINUOUS
62
6
100
AcDbLine
10
454.258557849648
20
180.501179000000
30
0.0
11
473.258557849648
21
180.501179000000
31
0.0
0
LINE
5
585
100
AcDbEntity
8
A-0
6
CONTINUOUS
62
6
100
AcDbLine
10
481.921633849648
20
180.501179000000
30
0.0
11
494.921633849648
21
180.501179000000
31
0.0
0
LINE
5
586
100
AcDbEntity
8
A-0
6
CONTINUOUS
62
6
100
AcDbLine
10
526.268686849648
20
180.501179000000
30
0.0
11
539.268686849648
21
180.501179000000
31
0.0
0
LINE
5
587
100
AcDbEntity
8
A-0
6
CONTINUOUS
62
6
100
AcDbLine
10
549.268686849648
20
180.501179000000
30
0.0
11
571.949178849648
21
180.501179000000
31
0.0
0
LINE
5
588
100
AcDbEntity
8
A-0
6
CONTINUOUS
62
6
100
AcDbLine
10
599.888189849648
20
180.501179000000
30
0.0
11
612.888189849648
21
180.501179000000
31
0.0
0
LINE
5
589
100
AcDbEntity
8
A-0
6
CONTINUOUS
62
6
100
AcDbLine
10
612.888189849648
20
180.501179000000
30
0.0
11
625.859152849648
21
180.501179000000
31
0.0
0
LINE
5
58a
100
AcDbEntity
8
A-0
6
CONTINUOUS
62
6
100
AcDbLine
10
648.675783849648
20
180.501179000000
30
0.0
11
659.675783849648
21
180.501179000000
31
0.0
0
LINE
5
58b
100
AcDbEntity
8
A-0
6
CONTINUOUS
62
6
100
AcDbLine
10
372.099367849648
20
182.501179000000
30
0.0
11
391.459886849648
21
182.501179000000
31
0.0
0
LINE
5
58c
100
AcDbEntity
8
A-0
6
CONTINUOUS
62
6
100
AcDbLine
10
421.258557849648
20
182.501179000000
30
0.0
11
471.668690849648
21
182.501179000000
31
0.0
0
LINE
5
58d
100
AcDbEntity
8
A-0
6
CONTINUOUS
62
6
100
AcDbLine
10
480.989018849648
20
182.501179000000
30
0.0
11
493.989018849648
21
182.501179000000
31
0.0
0
LINE
5
58e
100
AcDbEntity
8
A-0
6
CONTINUOUS
62
6
100
AcDbLine
10
527.201301849648
20
182.501179000000
30
0.0
11
540.201301849648
21
182.501179000000
31
0.0
0
LINE
5
58f
100
AcDbEntity
8
A-0
6
CONTINUOUS
62
6
100
AcDbLine
10
550.201301849648
20
182.501179000000
30
0.0
11
571.016563849648
21
182.501179000000
31
0.0
0
LINE
5
590
100
AcDbEntity
8
A-0
6
CONTINUOUS
62
6
100
AcDbLine
10
599.888189849648
20
182.501179000000
30
0.0
11
624.609413849648
21
182.501179000000
31
0.0
0
LINE
5
591
100
AcDbEntity
8
A-0
6
CONTINUOUS
62
6
100
AcDbLine
10
648.675783849648
20
182.501179000000
30
0.0
11
659.675783849648
21
182.501179000000
31
0.0
0
LINE
5
592
100
AcDbEntity
8
A-0
6
CONTINUOUS
62
6
100
AcDbLine
10
373.031983849648
20
184.501179000000
30
0.0
11
390.527271849648
21
184.501179000000
31
0.0
0
LINE
5
593
100
AcDbEntity
8
A-0
6
CONTINUOUS
62
6
100
AcDbLine
10
421.258557849648
20
184.501179000000
30
0.0
11
469.424423849648
21
184.501179000000
31
0.0
0
LINE
5
594
100
AcDbEntity
8
A-0
6
CONTINUOUS
62
6
100
AcDbLine
10
480.056403849648
20
184.501179000000
30
0.0
11
493.056403849648
21
184.501179000000
31
0.0
0
LINE
5
595
100
AcDbEntity
8
A-0
6
CONTINUOUS
62
6
100
AcDbLine
10
528.133916849648
20
184.501179000000
30
0.0
11
541.133916849648
21
184.501179000000
31
0.0
0
LINE
5
596
100
AcDbEntity
8
A-0
6
CONTINUOUS
62
6
100
AcDbLine
10
551.133916849648
20
184.501179000000
30
0.0
11
570.083948849648
21
184.501179000000
31
0.0
0
LINE
5
597
100
AcDbEntity
8
A-0
6
CONTINUOUS
62
6
100
AcDbLine
10
599.888189849648
20
184.501179000000
30
0.0
11
623.359674849648
21
184.501179000000
31
0.0
0
LINE
5
598
100
AcDbEntity
8
A-0
6
CONTINUOUS
62
6
100
AcDbLine
10
648.675783849648
20
184.501179000000
30
0.0
11
659.675783849648
21
184.501179000000
31
0.0
0
LINE
5
599
100
AcDbEntity
8
A-0
6
CONTINUOUS
62
6
100
AcDbLine
10
373.964598849648
20
186.501179000000
30
0.0
11
389.594656849648
21
186.501179000000
31
0.0
0
LINE
5
59a
100
AcDbEntity
8
A-0
6
CONTINUOUS
62
6
100
AcDbLine
10
421.258557849648
20
186.501179000000
30
0.0
11
466.086625849648
21
186.501179000000
31
0.0
0
LINE
5
59b
100
AcDbEntity
8
A-0
6
CONTINUOUS
62
6
100
AcDbLine
10
479.123787849648
20
186.501179000000
30
0.0
11
492.123787849648
21
186.501179000000
31
0.0
0
LINE
5
59c
100
AcDbEntity
8
A-0
6
CONTINUOUS
62
6
100
AcDbLine
10
529.066532849648
20
186.501179000000
30
0.0
11
542.066532849648
21
186.501179000000
31
0.0
0
LINE
5
59d
100
AcDbEntity
8
A-0
6
CONTINUOUS
62
6
100
AcDbLine
10
552.066532849648
20
186.501179000000
30
0.0
11
569.151333849648
21
186.501179000000
31
0.0
0
LINE
5
59e
100
AcDbEntity
8
A-0
6
CONTINUOUS
62
6
100
AcDbLine
10
599.888189849648
20
186.501179000000
30
0.0
11
622.109936849648
21
186.501179000000
31
0.0
0
LINE
5
59f
100
AcDbEntity
8
A-0
6
CONTINUOUS
62
6
100
AcDbLine
10
648.675783849648
20
186.501179000000
30
0.0
11
659.675783849648
21
186.501179000000
31
0.0
0
LINE
5
5a0
100
AcDbEntity
8
A-0
6
CONTINUOUS
62
6
100
AcDbLine
10
374.897213849648
20
188.501179000000
30
0.0
11
388.662040849648
21
188.501179000000
31
0.0
0
LINE
5
5a1
100
AcDbEntity
8
A-0
6
CONTINUOUS
62
6
100
AcDbLine
10
421.258557849648
20
188.501179000000
30
0.0
11
461.258557849648
21
188.501179000000
31
0.0
0
LINE
5
5a2
100
AcDbEntity
8
A-0
6
CONTINUOUS
62
6
100
AcDbLine
10
478.191172849648
20
188.501179000000
30
0.0
11
491.191172849648
21
188.501179000000
31
0.0
0
LINE
5
5a3
100
AcDbEntity
8
A-0
6
CONTINUOUS
62
6
100
AcDbLine
10
529.999147849648
20
188.501179000000
30
0.0
11
542.999147849648
21
188.501179000000
31
0.0
0
LINE
5
5a4
100
AcDbEntity
8
A-0
6
CONTINUOUS
62
6
100
AcDbLine
10
552.999147849648
20
188.501179000000
30
0.0
11
568.218717849648
21
188.501179000000
31
0.0
0
LINE
5
5a5
100
AcDbEntity
8
A-0
6
CONTINUOUS
62
6
100
AcDbLine
10
599.888189849648
20
188.501179000000
30
0.0
11
620.860197849648
21
188.501179000000
31
0.0
0
LINE
5
5a6
100
AcDbEntity
8
A-0
6
CONTINUOUS
62
6
100
AcDbLine
10
648.675783849648
20
188.501179000000
30
0.0
11
659.675783849648
21
188.501179000000
31
0.0
0
LINE
5
5a7
100
AcDbEntity
8
A-0
6
CONTINUOUS
62
6
100
AcDbLine
10
375.829829849648
20
190.501179000000
30
0.0
11
387.729425849648
21
190.501179000000
31
0.0
0
LINE
5
5a8
100
AcDbEntity
8
A-0
6
CONTINUOUS
62
6
100
AcDbLine
10
421.258557849648
20
190.501179000000
30
0.0
11
454.258557849648
21
190.501179000000
31
0.0
0
LINE
5
5a9
100
AcDbEntity
8
A-0
6
CONTINUOUS
62
6
100
AcDbLine
10
477.258557849648
20
190.501179000000
30
0.0
11
490.258557849648
21
190.501179000000
31
0.0
0
LINE
5
5aa
100
AcDbEntity
8
A-0
6
CONTINUOUS
62
6
100
AcDbLine
10
530.931762849648
20
190.501179000000
30
0.0
11
543.931762849648
21
190.501179000000
31
0.0
0
LINE
5
5ab
100
AcDbEntity
8
A-0
6
CONTINUOUS
62
6
100
AcDbLine
10
553.931762849648
20
190.501179000000
30
0.0
11
567.286102849648
21
190.501179000000
31
0.0
0
LINE
5
5ac
100
AcDbEntity
8
A-0
6
CONTINUOUS
62
6
100
AcDbLine
10
599.888189849648
20
190.501179000000
30
0.0
11
619.610458849648
21
190.501179000000
31
0.0
0
LINE
5
5ad
100
AcDbEntity
8
A-0
6
CONTINUOUS
62
6
100
AcDbLine
10
648.675783849648
20
190.501179000000
30
0.0
11
659.675783849648
21
190.501179000000
31
0.0
0
LINE
5
5ae
100
AcDbEntity
8
A-0
6
CONTINUOUS
62
6
100
AcDbLine
10
349.250292849648
20
133.501179000000
30
0.0
11
362.250292849648
21
133.501179000000
31
0.0
0
LINE
5
5af
100
AcDbEntity
8
A-0
6
CONTINUOUS
62
6
100
AcDbLine
10
401.308962849648
20
133.501179000000
30
0.0
11
414.308962849648
21
133.501179000000
31
0.0
0
LINE
5
5b0
100
AcDbEntity
8
A-0
6
CONTINUOUS
62
6
100
AcDbLine
10
421.258557849648
20
133.501179000000
30
0.0
11
456.365829849648
21
133.501179000000
31
0.0
0
LINE
5
5b1
100
AcDbEntity
8
A-0
6
CONTINUOUS
62
6
100
AcDbLine
10
503.838093849648
20
133.501179000000
30
0.0
11
517.352226849648
21
133.501179000000
31
0.0
0
LINE
5
5b2
100
AcDbEntity
8
A-0
6
CONTINUOUS
62
6
100
AcDbLine
10
527.352226849648
20
133.501179000000
30
0.0
11
540.352226849648
21
133.501179000000
31
0.0
0
LINE
5
5b3
100
AcDbEntity
8
A-0
6
CONTINUOUS
62
6
100
AcDbLine
10
580.865638849648
20
133.501179000000
30
0.0
11
593.865638849648
21
133.501179000000
31
0.0
0
LINE
5
5b4
100
AcDbEntity
8
A-0
6
CONTINUOUS
62
6
100
AcDbLine
10
599.888189849648
20
133.501179000000
30
0.0
11
612.888189849648
21
133.501179000000
31
0.0
0
LINE
5
5b5
100
AcDbEntity
8
A-0
6
CONTINUOUS
62
6
100
AcDbLine
10
642.257049849648
20
133.501179000000
30
0.0
11
659.675783849648
21
133.501179000000
31
0.0
0
LINE
5
5b6
100
AcDbEntity
8
A-0
6
CONTINUOUS
62
6
100
AcDbLine
10
350.182908849648
20
135.501179000000
30
0.0
11
363.182908849648
21
135.501179000000
31
0.0
0
LINE
5
5b7
100
AcDbEntity
8
A-0
6
CONTINUOUS
62
6
100
AcDbLine
10
400.376346849648
20
135.501179000000
30
0.0
11
413.376346849648
21
135.501179000000
31
0.0
0
LINE
5
5b8
100
AcDbEntity
8
A-0
6
CONTINUOUS
62
6
100
AcDbLine
10
421.258557849648
20
135.501179000000
30
0.0
11
462.784183849648
21
135.501179000000
31
0.0
0
LINE
5
5b9
100
AcDbEntity
8
A-0
6
CONTINUOUS
62
6
100
AcDbLine
10
502.905478849648
20
135.501179000000
30
0.0
11
518.284841849648
21
135.501179000000
31
0.0
0
LINE
5
5ba
100
AcDbEntity
8
A-0
6
CONTINUOUS
62
6
100
AcDbLine
10
528.284841849648
20
135.501179000000
30
0.0
11
541.284841849648
21
135.501179000000
31
0.0
0
LINE
5
5bb
100
AcDbEntity
8
A-0
6
CONTINUOUS
62
6
100
AcDbLine
10
579.933023849648
20
135.501179000000
30
0.0
11
592.933023849648
21
135.501179000000
31
0.0
0
LINE
5
5bc
100
AcDbEntity
8
A-0
6
CONTINUOUS
62
6
100
AcDbLine
10
599.888189849648
20
135.501179000000
30
0.0
11
612.888189849648
21
135.501179000000
31
0.0
0
LINE
5
5bd
100
AcDbEntity
8
A-0
6
CONTINUOUS
62
6
100
AcDbLine
10
641.007310849648
20
135.501179000000
30
0.0
11
659.675783849648
21
135.501179000000
31
0.0
0
LINE
5
5be
100
AcDbEntity
8
A-0
6
CONTINUOUS
62
6
100
AcDbLine
10
351.115523849648
20
137.501179000000
30
0.0
11
364.115523849648
21
137.501179000000
31
0.0
0
LINE
5
5bf
100
AcDbEntity
8
A-0
6
CONTINUOUS
62
6
100
AcDbLine
10
399.443731849648
20
137.501179000000
30
0.0
11
412.443731849648
21
137.501179000000
31
0.0
0
LINE
5
5c0
100
AcDbEntity
8
A-0
6
CONTINUOUS
62
6
100
AcDbLine
10
421.258557849648
20
137.501179000000
30
0.0
11
467.172284849648
21
137.501179000000
31
0.0
0
LINE
5
5c1
100
AcDbEntity
8
A-0
6
CONTINUOUS
62
6
100
AcDbLine
10
501.972863849648
20
137.501179000000
30
0.0
11
519.217456849648
21
137.501179000000
31
0.0
0
LINE
5
5c2
100
AcDbEntity
8
A-0
6
CONTINUOUS
62
6
100
AcDbLine
10
529.217456849648
20
137.501179000000
30
0.0
11
542.217456849648
21
137.501179000000
31
0.0
0
LINE
5
5c3
100
AcDbEntity
8
A-0
6
CONTINUOUS
62
6
100
AcDbLine
10
579.000408849648
20
137.501179000000
30
0.0
11
592.000408849648
21
137.501179000000
31
0.0
0
LINE
5
5c4
100
AcDbEntity
8
A-0
6
CONTINUOUS
62
6
100
AcDbLine
10
599.888189849648
20
137.501179000000
30
0.0
11
612.888189849648
21
137.501179000000
31
0.0
0
LINE
5
5c5
100
AcDbEntity
8
A-0
6
CONTINUOUS
62
6
100
AcDbLine
10
639.757571849648
20
137.501179000000
30
0.0
11
659.675783849648
21
137.501179000000
31
0.0
0
LINE
5
5c6
100
AcDbEntity
8
A-0
6
CONTINUOUS
62
6
100
AcDbLine
10
352.048138849648
20
139.501179000000
30
0.0
11
365.048138849648
21
139.501179000000
31
0.0
0
LINE
5
5c7
100
AcDbEntity
8
A-0
6
CONTINUOUS
62
6
100
AcDbLine
10
398.511116849648
20
139.501179000000
30
0.0
11
411.511116849648
21
139.501179000000
31
0.0
0
LINE
5
5c8
100
AcDbEntity
8
A-0
6
CONTINUOUS
62
6
100
AcDbLine
10
421.258557849648
20
139.501179000000
30
0.0
11
470.115223849648
21
139.501179000000
31
0.0
0
LINE
5
5c9
100
AcDbEntity
8
A-0
6
CONTINUOUS
62
6
100
AcDbLine
10
501.040247849648
20
139.501179000000
30
0.0
11
520.150072849648
21
139.501179000000
31
0.0
0
LINE
5
5ca
100
AcDbEntity
8
A-0
6
CONTINUOUS
62
6
100
AcDbLine
10
530.150072849648
20
139.501179000000
30
0.0
11
543.150072849648
21
139.501179000000
31
0.0
0
LINE
5
5cb
100
AcDbEntity
8
A-0
6
CONTINUOUS
62
6
100
AcDbLine
10
578.067792849648
20
139.501179000000
30
0.0
11
591.067792849648
21
139.501179000000
31
0.0
0
LINE
5
5cc
100
AcDbEntity
8
A-0
6
CONTINUOUS
62
6
100
AcDbLine
10
599.888189849648
20
139.501179000000
30
0.0
11
612.888189849648
21
139.501179000000
31
0.0
0
LINE
5
5cd
100
AcDbEntity
8
A-0
6
CONTINUOUS
62
6
100
AcDbLine
10
638.507833849648
20
139.501179000000
30
0.0
11
659.675783849648
21
139.501179000000
31
0.0
0
LINE
5
5ce
100
AcDbEntity
8
A-0
6
CONTINUOUS
62
6
100
AcDbLine
10
352.980754849648
20
141.501179000000
30
0.0
11
365.980754849648
21
141.501179000000
31
0.0
0
LINE
5
5cf
100
AcDbEntity
8
A-0
6
CONTINUOUS
62
6
100
AcDbLine
10
397.578500849648
20
141.501179000000
30
0.0
11
410.578500849648
21
141.501179000000
31
0.0
0
LINE
5
5d0
100
AcDbEntity
8
A-0
6
CONTINUOUS
62
6
100
AcDbLine
10
421.258557849648
20
141.501179000000
30
0.0
11
472.177580849648
21
141.501179000000
31
0.0
0
LINE
5
5d1
100
AcDbEntity
8
A-0
6
CONTINUOUS
62
6
100
AcDbLine
10
500.107632849648
20
141.501179000000
30
0.0
11
521.082687849648
21
141.501179000000
31
0.0
0
LINE
5
5d2
100
AcDbEntity
8
A-0
6
CONTINUOUS
62
6
100
AcDbLine
10
531.082687849648
20
141.501179000000
30
0.0
11
544.082687849648
21
141.501179000000
31
0.0
0
LINE
5
5d3
100
AcDbEntity
8
A-0
6
CONTINUOUS
62
6
100
AcDbLine
10
577.135177849648
20
141.501179000000
30
0.0
11
590.135177849648
21
141.501179000000
31
0.0
0
LINE
5
5d4
100
AcDbEntity
8
A-0
6
CONTINUOUS
62
6
100
AcDbLine
10
599.888189849648
20
141.501179000000
30
0.0
11
612.888189849648
21
141.501179000000
31
0.0
0
LINE
5
5d5
100
AcDbEntity
8
A-0
6
CONTINUOUS
62
6
100
AcDbLine
10
637.258094849648
20
141.501179000000
30
0.0
11
659.675783849648
21
141.501179000000
31
0.0
0
LINE
5
5d6
100
AcDbEntity
8
A-0
6
CONTINUOUS
62
6
100
AcDbLine
10
353.913369849648
20
143.501179000000
30
0.0
11
366.913369849648
21
143.501179000000
31
0.0
0
LINE
5
5d7
100
AcDbEntity
8
A-0
6
CONTINUOUS
62
6
100
AcDbLine
10
396.645885849648
20
143.501179000000
30
0.0
11
409.645885849648
21
143.501179000000
31
0.0
0
LINE
5
5d8
100
AcDbEntity
8
A-0
6
CONTINUOUS
62
6
100
AcDbLine
10
421.258557849648
20
143.501179000000
30
0.0
11
434.258557849648
21
143.501179000000
31
0.0
0
LINE
5
5d9
100
AcDbEntity
8
A-0
6
CONTINUOUS
62
6
100
AcDbLine
10
455.257005849648
20
143.501179000000
30
0.0
11
473.570364849648
21
143.501179000000
31
0.0
0
LINE
5
5da
100
AcDbEntity
8
A-0
6
CONTINUOUS
62
6
100
AcDbLine
10
499.175017849648
20
143.501179000000
30
0.0
11
522.015302849648
21
143.501179000000
31
0.0
0
LINE
5
5db
100
AcDbEntity
8
A-0
6
CONTINUOUS
62
6
100
AcDbLine
10
532.015302849648
20
143.501179000000
30
0.0
11
545.015302849648
21
143.501179000000
31
0.0
0
LINE
5
5dc
100
AcDbEntity
8
A-0
6
CONTINUOUS
62
6
100
AcDbLine
10
576.202562849648
20
143.501179000000
30
0.0
11
589.202562849648
21
143.501179000000
31
0.0
0
LINE
5
5dd
100
AcDbEntity
8
A-0
6
CONTINUOUS
62
6
100
AcDbLine
10
599.888189849648
20
143.501179000000
30
0.0
11
612.888189849648
21
143.501179000000
31
0.0
0
LINE
5
5de
100
AcDbEntity
8
A-0
6
CONTINUOUS
62
6
100
AcDbLine
10
636.008355849648
20
143.501179000000
30
0.0
11
659.675783849648
21
143.501179000000
31
0.0
0
LINE
5
5df
100
AcDbEntity
8
A-0
6
CONTINUOUS
62
6
100
AcDbLine
10
354.845984849648
20
145.501179000000
30
0.0
11
367.845984849648
21
145.501179000000
31
0.0
0
LINE
5
5e0
100
AcDbEntity
8
A-0
6
CONTINUOUS
62
6
100
AcDbLine
10
395.713270849648
20
145.501179000000
30
0.0
11
408.713270849648
21
145.501179000000
31
0.0
0
LINE
5
5e1
100
AcDbEntity
8
A-0
6
CONTINUOUS
62
6
100
AcDbLine
10
421.258557849648
20
145.501179000000
30
0.0
11
434.258557849648
21
145.501179000000
31
0.0
0
LINE
5
5e2
100
AcDbEntity
8
A-0
6
CONTINUOUS
62
6
100
AcDbLine
10
458.535343849648
20
145.501179000000
30
0.0
11
474.466122849648
21
145.501179000000
31
0.0
0
LINE
5
5e3
100
AcDbEntity
8
A-0
6
CONTINUOUS
62
6
100
AcDbLine
10
498.242401849648
20
145.501179000000
30
0.0
11
522.947918849648
21
145.501179000000
31
0.0
0
LINE
5
5e4
100
AcDbEntity
8
A-0
6
CONTINUOUS
62
6
100
AcDbLine
10
532.947918849648
20
145.501179000000
30
0.0
11
545.947918849648
21
145.501179000000
31
0.0
0
LINE
5
5e5
100
AcDbEntity
8
A-0
6
CONTINUOUS
62
6
100
AcDbLine
10
575.269947849648
20
145.501179000000
30
0.0
11
588.269947849648
21
145.501179000000
31
0.0
0
LINE
5
5e6
100
AcDbEntity
8
A-0
6
CONTINUOUS
62
6
100
AcDbLine
10
599.888189849648
20
145.501179000000
30
0.0
11
612.888189849648
21
145.501179000000
31
0.0
0
LINE
5
5e7
100
AcDbEntity
8
A-0
6
CONTINUOUS
62
6
100
AcDbLine
10
634.758617849648
20
145.501179000000
30
0.0
11
647.729579849648
21
145.501179000000
31
0.0
0
LINE
5
5e8
100
AcDbEntity
8
A-0
6
CONTINUOUS
62
6
100
AcDbLine
10
648.675783849648
20
145.501179000000
30
0.0
11
659.675783849648
21
145.501179000000
31
0.0
0
LINE
5
5e9
100
AcDbEntity
8
A-0
6
CONTINUOUS
62
6
100
AcDbLine
10
355.778599849648
20
147.501179000000
30
0.0
11
407.780654849648
21
147.501179000000
31
0.0
0
LINE
5
5ea
100
AcDbEntity
8
A-0
6
CONTINUOUS
62
6
100
AcDbLine
10
421.258557849648
20
147.501179000000
30
0.0
11
434.258557849648
21
147.501179000000
31
0.0
0
LINE
5
5eb
100
AcDbEntity
8
A-0
6
CONTINUOUS
62
6
100
AcDbLine
10
460.865709849648
20
147.501179000000
30
0.0
11
475.128708849648
21
147.501179000000
31
0.0
0
LINE
5
5ec
100
AcDbEntity
8
A-0
6
CONTINUOUS
62
6
100
AcDbLine
10
497.309786849648
20
147.501179000000
30
0.0
11
510.309786849648
21
147.501179000000
31
0.0
0
LINE
5
5ed
100
AcDbEntity
8
A-0
6
CONTINUOUS
62
6
100
AcDbLine
10
510.880533849648
20
147.501179000000
30
0.0
11
523.880533849648
21
147.501179000000
31
0.0
0
LINE
5
5ee
100
AcDbEntity
8
A-0
6
CONTINUOUS
62
6
100
AcDbLine
10
533.880533849648
20
147.501179000000
30
0.0
11
587.337331849648
21
147.501179000000
31
0.0
0
LINE
5
5ef
100
AcDbEntity
8
A-0
6
CONTINUOUS
62
6
100
AcDbLine
10
599.888189849648
20
147.501179000000
30
0.0
11
612.888189849648
21
147.501179000000
31
0.0
0
LINE
5
5f0
100
AcDbEntity
8
A-0
6
CONTINUOUS
62
6
100
AcDbLine
10
633.508878849648
20
147.501179000000
30
0.0
11
646.479840849648
21
147.501179000000
31
0.0
0
LINE
5
5f1
100
AcDbEntity
8
A-0
6
CONTINUOUS
62
6
100
AcDbLine
10
648.675783849648
20
147.501179000000
30
0.0
11
659.675783849648
21
147.501179000000
31
0.0
0
LINE
5
5f2
100
AcDbEntity
8
A-0
6
CONTINUOUS
62
6
100
AcDbLine
10
356.711215849648
20
149.501179000000
30
0.0
11
406.848039849648
21
149.501179000000
31
0.0
0
LINE
5
5f3
100
AcDbEntity
8
A-0
6
CONTINUOUS
62
6
100
AcDbLine
10
421.258557849648
20
149.501179000000
30
0.0
11
434.258557849648
21
149.501179000000
31
0.0
0
LINE
5
5f4
100
AcDbEntity
8
A-0
6
CONTINUOUS
62
6
100
AcDbLine
10
462.241502849648
20
149.501179000000
30
0.0
11
475.670486849648
21
149.501179000000
31
0.0
0
LINE
5
5f5
100
AcDbEntity
8
A-0
6
CONTINUOUS
62
6
100
AcDbLine
10
496.377171849648
20
149.501179000000
30
0.0
11
509.377171849648
21
149.501179000000
31
0.0
0
LINE
5
5f6
100
AcDbEntity
8
A-0
6
CONTINUOUS
62
6
100
AcDbLine
10
511.813148849648
20
149.501179000000
30
0.0
11
524.813148849648
21
149.501179000000
31
0.0
0
LINE
5
5f7
100
AcDbEntity
8
A-0
6
CONTINUOUS
62
6
100
AcDbLine
10
534.813148849648
20
149.501179000000
30
0.0
11
586.404716849648
21
149.501179000000
31
0.0
0
LINE
5
5f8
100
AcDbEntity
8
A-0
6
CONTINUOUS
62
6
100
AcDbLine
10
599.888189849648
20
149.501179000000
30
0.0
11
612.888189849648
21
149.501179000000
31
0.0
0
LINE
5
5f9
100
AcDbEntity
8
A-0
6
CONTINUOUS
62
6
100
AcDbLine
10
632.259139849648
20
149.501179000000
30
0.0
11
645.230102849648
21
149.501179000000
31
0.0
0
LINE
5
5fa
100
AcDbEntity
8
A-0
6
CONTINUOUS
62
6
100
AcDbLine
10
648.675783849648
20
149.501179000000
30
0.0
11
659.675783849648
21
149.501179000000
31
0.0
0
LINE
5
5fb
100
AcDbEntity
8
A-0
6
CONTINUOUS
62
6
100
AcDbLine
10
357.643830849648
20
151.501179000000
30
0.0
11
405.915424849648
21
151.501179000000
31
0.0
0
LINE
5
5fc
100
AcDbEntity
8
A-0
6
CONTINUOUS
62
6
100
AcDbLine
10
421.258557849648
20
151.501179000000
30
0.0
11
434.258557849648
21
151.501179000000
31
0.0
0
LINE
5
5fd
100
AcDbEntity
8
A-0
6
CONTINUOUS
62
6
100
AcDbLine
10
463.111042849648
20
151.501179000000
30
0.0
11
476.142523849648
21
151.501179000000
31
0.0
0
LINE
5
5fe
100
AcDbEntity
8
A-0
6
CONTINUOUS
62
6
100
AcDbLine
10
495.444555849648
20
151.501179000000
30
0.0
11
508.444555849648
21
151.501179000000
31
0.0
0
LINE
5
5ff
100
AcDbEntity
8
A-0
6
CONTINUOUS
62
6
100
AcDbLine
10
512.745764849648
20
151.501179000000
30
0.0
11
525.745764849648
21
151.501179000000
31
0.0
0
LINE
5
600
100
AcDbEntity
8
A-0
6
CONTINUOUS
62
6
100
AcDbLine
10
535.745764849648
20
151.501179000000
30
0.0
11
585.472101849648
21
151.501179000000
31
0.0
0
LINE
5
601
100
AcDbEntity
8
A-0
6
CONTINUOUS
62
6
100
AcDbLine
10
599.888189849648
20
151.501179000000
30
0.0
11
612.888189849648
21
151.501179000000
31
0.0
0
LINE
5
602
100
AcDbEntity
8
A-0
6
CONTINUOUS
62
6
100
AcDbLine
10
631.009401849648
20
151.501179000000
30
0.0
11
643.980363849648
21
151.501179000000
31
0.0
0
LINE
5
603
100
AcDbEntity
8
A-0
6
CONTINUOUS
62
6
100
AcDbLine
10
648.675783849648
20
151.501179000000
30
0.0
11
659.675783849648
21
151.501179000000
31
0.0
0
LINE
5
604
100
AcDbEntity
8
A-0
6
CONTINUOUS
62
6
100
AcDbLine
10
358.576445849648
20
153.501179000000
30
0.0
11
404.982808849648
21
153.501179000000
31
0.0
0
LINE
5
605
100
AcDbEntity
8
A-0
6
CONTINUOUS
62
6
100
AcDbLine
10
421.258557849648
20
153.501179000000
30
0.0
11
434.258557849648
21
153.501179000000
31
0.0
0
LINE
5
606
100
AcDbEntity
8
A-0
6
CONTINUOUS
62
6
100
AcDbLine
10
463.653730849648
20
153.501179000000
30
0.0
11
476.528028849648
21
153.501179000000
31
0.0
0
LINE
5
607
100
AcDbEntity
8
A-0
6
CONTINUOUS
62
6
100
AcDbLine
10
494.511940849648
20
153.501179000000
30
0.0
11
507.511940849648
21
153.501179000000
31
0.0
0
LINE
5
608
100
AcDbEntity
8
A-0
6
CONTINUOUS
62
6
100
AcDbLine
10
513.678379849648
20
153.501179000000
30
0.0
11
526.678379849648
21
153.501179000000
31
0.0
0
LINE
5
609
100
AcDbEntity
8
A-0
6
CONTINUOUS
62
6
100
AcDbLine
10
536.678379849648
20
153.501179000000
30
0.0
11
584.539485849648
21
153.501179000000
31
0.0
0
LINE
5
60a
100
AcDbEntity
8
A-0
6
CONTINUOUS
62
6
100
AcDbLine
10
599.888189849648
20
153.501179000000
30
0.0
11
612.888189849648
21
153.501179000000
31
0.0
0
LINE
5
60b
100
AcDbEntity
8
A-0
6
CONTINUOUS
62
6
100
AcDbLine
10
629.759662849648
20
153.501179000000
30
0.0
11
642.730624849648
21
153.501179000000
31
0.0
0
LINE
5
60c
100
AcDbEntity
8
A-0
6
CONTINUOUS
62
6
100
AcDbLine
10
648.675783849648
20
153.501179000000
30
0.0
11
659.675783849648
21
153.501179000000
31
0.0
0
LINE
5
60d
100
AcDbEntity
8
A-0
6
CONTINUOUS
62
6
100
AcDbLine
10
359.509061849648
20
155.501179000000
30
0.0
11
404.050193849648
21
155.501179000000
31
0.0
0
LINE
5
60e
100
AcDbEntity
8
A-0
6
CONTINUOUS
62
6
100
AcDbLine
10
421.258557849648
20
155.501179000000
30
0.0
11
434.258557849648
21
155.501179000000
31
0.0
0
LINE
5
60f
100
AcDbEntity
8
A-0
6
CONTINUOUS
62
6
100
AcDbLine
10
463.983491849648
20
155.501179000000
30
0.0
11
476.831151849648
21
155.501179000000
31
0.0
0
LINE
5
610
100
AcDbEntity
8
A-0
6
CONTINUOUS
62
6
100
AcDbLine
10
493.579325849648
20
155.501179000000
30
0.0
11
506.579325849648
21
155.501179000000
31
0.0
0
LINE
5
611
100
AcDbEntity
8
A-0
6
CONTINUOUS
62
6
100
AcDbLine
10
514.610994849648
20
155.501179000000
30
0.0
11
527.610994849648
21
155.501179000000
31
0.0
0
LINE
5
612
100
AcDbEntity
8
A-0
6
CONTINUOUS
62
6
100
AcDbLine
10
537.610994849648
20
155.501179000000
30
0.0
11
583.606870849648
21
155.501179000000
31
0.0
0
LINE
5
613
100
AcDbEntity
8
A-0
6
CONTINUOUS
62
6
100
AcDbLine
10
599.888189849648
20
155.501179000000
30
0.0
11
612.888189849648
21
155.501179000000
31
0.0
0
LINE
5
614
100
AcDbEntity
8
A-0
6
CONTINUOUS
62
6
100
AcDbLine
10
628.509923849648
20
155.501179000000
30
0.0
11
641.480886849648
21
155.501179000000
31
0.0
0
LINE
5
615
100
AcDbEntity
8
A-0
6
CONTINUOUS
62
6
100
AcDbLine
10
648.675783849648
20
155.501179000000
30
0.0
11
659.675783849648
21
155.501179000000
31
0.0
0
LINE
5
616
100
AcDbEntity
8
A-0
6
CONTINUOUS
62
6
100
AcDbLine
10
360.441676849648
20
157.501179000000
30
0.0
11
373.441676849648
21
157.501179000000
31
0.0
0
LINE
5
617
100
AcDbEntity
8
A-0
6
CONTINUOUS
62
6
100
AcDbLine
10
390.117578849648
20
157.501179000000
30
0.0
11
403.117578849648
21
157.501179000000
31
0.0
0
LINE
5
618
100
AcDbEntity
8
A-0
6
CONTINUOUS
62
6
100
AcDbLine
10
421.258557849648
20
157.501179000000
30
0.0
11
434.258557849648
21
157.501179000000
31
0.0
0
LINE
5
619
100
AcDbEntity
8
A-0
6
CONTINUOUS
62
6
100
AcDbLine
10
464.152568849648
20
157.501179000000
30
0.0
11
477.052650849648
21
157.501179000000
31
0.0
0
LINE
5
61a
100
AcDbEntity
8
A-0
6
CONTINUOUS
62
6
100
AcDbLine
10
492.646709849648
20
157.501179000000
30
0.0
11
505.646709849648
21
157.501179000000
31
0.0
0
LINE
5
61b
100
AcDbEntity
8
A-0
6
CONTINUOUS
62
6
100
AcDbLine
10
515.543610849648
20
157.501179000000
30
0.0
11
528.543610849648
21
157.501179000000
31
0.0
0
LINE
5
61c
100
AcDbEntity
8
A-0
6
CONTINUOUS
62
6
100
AcDbLine
10
538.543610849648
20
157.501179000000
30
0.0
11
551.543610849648
21
157.501179000000
31
0.0
0
LINE
5
61d
100
AcDbEntity
8
A-0
6
CONTINUOUS
62
6
100
AcDbLine
10
569.674255849648
20
157.501179000000
30
0.0
11
582.674255849648
21
157.501179000000
31
0.0
0
LINE
5
61e
100
AcDbEntity
8
A-0
6
CONTINUOUS
62
6
100
AcDbLine
10
599.888189849648
20
157.501179000000
30
0.0
11
612.888189849648
21
157.501179000000
31
0.0
0
LINE
5
61f
100
AcDbEntity
8
A-0
6
CONTINUOUS
62
6
100
AcDbLine
10
627.260184849648
20
157.501179000000
30
0.0
11
640.231147849648
21
157.501179000000
31
0.0
0
LINE
5
620
100
AcDbEntity
8
A-0
6
CONTINUOUS
62
6
100
AcDbLine
10
648.675783849648
20
157.501179000000
30
0.0
11
659.675783849648
21
157.501179000000
31
0.0
0
LINE
5
621
100
AcDbEntity
8
A-0
6
CONTINUOUS
62
6
100
AcDbLine
10
361.374291849648
20
159.501179000000
30
0.0
11
374.374291849648
21
159.501179000000
31
0.0
0
LINE
5
622
100
AcDbEntity
8
A-0
6
CONTINUOUS
62
6
100
AcDbLine
10
389.184962849648
20
159.501179000000
30
0.0
11
402.184962849648
21
159.501179000000
31
0.0
0
LINE
5
623
100
AcDbEntity
8
A-0
6
CONTINUOUS
62
6
100
AcDbLine
10
421.258557849648
20
159.501179000000
30
0.0
11
434.258557849648
21
159.501179000000
31
0.0
0
LINE
5
624
100
AcDbEntity
8
A-0
6
CONTINUOUS
62
6
100
AcDbLine
10
464.227756849648
20
159.501179000000
30
0.0
11
477.190889849648
21
159.501179000000
31
0.0
0
LINE
5
625
100
AcDbEntity
8
A-0
6
CONTINUOUS
62
6
100
AcDbLine
10
491.714094849648
20
159.501179000000
30
0.0
11
504.714094849648
21
159.501179000000
31
0.0
0
LINE
5
626
100
AcDbEntity
8
A-0
6
CONTINUOUS
62
6
100
AcDbLine
10
516.476225849648
20
159.501179000000
30
0.0
11
529.476225849648
21
159.501179000000
31
0.0
0
LINE
5
627
100
AcDbEntity
8
A-0
6
CONTINUOUS
62
6
100
AcDbLine
10
539.476225849648
20
159.501179000000
30
0.0
11
552.476225849648
21
159.501179000000
31
0.0
0
LINE
5
628
100
AcDbEntity
8
A-0
6
CONTINUOUS
62
6
100
AcDbLine
10
568.741639849648
20
159.501179000000
30
0.0
11
581.741639849648
21
159.501179000000
31
0.0
0
LINE
5
629
100
AcDbEntity
8
A-0
6
CONTINUOUS
62
6
100
AcDbLine
10
599.888189849648
20
159.501179000000
30
0.0
11
612.888189849648
21
159.501179000000
31
0.0
0
LINE
5
62a
100
AcDbEntity
8
A-0
6
CONTINUOUS
62
6
100
AcDbLine
10
626.010446849648
20
159.501179000000
30
0.0
11
638.981408849648
21
159.501179000000
31
0.0
0
LINE
5
62b
100
AcDbEntity
8
A-0
6
CONTINUOUS
62
6
100
AcDbLine
10
648.675783849648
20
159.501179000000
30
0.0
11
659.675783849648
21
159.501179000000
31
0.0
0
LINE
5
62c
100
AcDbEntity
8
A-0
6
CONTINUOUS
62
6
100
AcDbLine
10
362.306907849648
20
161.501179000000
30
0.0
11
375.306907849648
21
161.501179000000
31
0.0
0
LINE
5
62d
100
AcDbEntity
8
A-0
6
CONTINUOUS
62
6
100
AcDbLine
10
388.252347849648
20
161.501179000000
30
0.0
11
401.252347849648
21
161.501179000000
31
0.0
0
LINE
5
62e
100
AcDbEntity
8
A-0
6
CONTINUOUS
62
6
100
AcDbLine
10
421.258557849648
20
161.501179000000
30
0.0
11
434.258557849648
21
161.501179000000
31
0.0
0
LINE
5
62f
100
AcDbEntity
8
A-0
6
CONTINUOUS
62
6
100
AcDbLine
10
464.257362849648
20
161.501179000000
30
0.0
11
477.255318849648
21
161.501179000000
31
0.0
0
LINE
5
630
100
AcDbEntity
8
A-0
6
CONTINUOUS
62
6
100
AcDbLine
10
490.781479849648
20
161.501179000000
30
0.0
11
503.781479849648
21
161.501179000000
31
0.0
0
LINE
5
631
100
AcDbEntity
8
A-0
6
CONTINUOUS
62
6
100
AcDbLine
10
517.408840849648
20
161.501179000000
30
0.0
11
530.408840849648
21
161.501179000000
31
0.0
0
LINE
5
632
100
AcDbEntity
8
A-0
6
CONTINUOUS
62
6
100
AcDbLine
10
540.408840849648
20
161.501179000000
30
0.0
11
553.408840849648
21
161.501179000000
31
0.0
0
LINE
5
633
100
AcDbEntity
8
A-0
6
CONTINUOUS
62
6
100
AcDbLine
10
567.809024849648
20
161.501179000000
30
0.0
11
580.809024849648
21
161.501179000000
31
0.0
0
LINE
5
634
100
AcDbEntity
8
A-0
6
CONTINUOUS
62
6
100
AcDbLine
10
599.888189849648
20
161.501179000000
30
0.0
11
612.888189849648
21
161.501179000000
31
0.0
0
LINE
5
635
100
AcDbEntity
8
A-0
6
CONTINUOUS
62
6
100
AcDbLine
10
624.760707849648
20
161.501179000000
30
0.0
11
637.731669849648
21
161.501179000000
31
0.0
0
LINE
5
636
100
AcDbEntity
8
A-0
6
CONTINUOUS
62
6
100
AcDbLine
10
648.675783849648
20
161.501179000000
30
0.0
11
659.675783849648
21
161.501179000000
31
0.0
0
LINE
5
637
100
AcDbEntity
8
A-0
6
CONTINUOUS
62
6
100
AcDbLine
10
363.239522849648
20
163.501179000000
30
0.0
11
376.239522849648
21
163.501179000000
31
0.0
0
LINE
5
638
100
AcDbEntity
8
A-0
6
CONTINUOUS
62
6
100
AcDbLine
10
387.319732849648
20
163.501179000000
30
0.0
11
400.319732849648
21
163.501179000000
31
0.0
0
LINE
5
639
100
AcDbEntity
8
A-0
6
CONTINUOUS
62
6
100
AcDbLine
10
421.258557849648
20
163.501179000000
30
0.0
11
434.258557849648
21
163.501179000000
31
0.0
0
LINE
5
63a
100
AcDbEntity
8
A-0
6
CONTINUOUS
62
6
100
AcDbLine
10
464.241256849648
20
163.501179000000
30
0.0
11
477.214731849648
21
163.501179000000
31
0.0
0
LINE
5
63b
100
AcDbEntity
8
A-0
6
CONTINUOUS
62
6
100
AcDbLine
10
489.848863849648
20
163.501179000000
30
0.0
11
502.848863849648
21
163.501179000000
31
0.0
0
LINE
5
63c
100
AcDbEntity
8
A-0
6
CONTINUOUS
62
6
100
AcDbLine
10
518.341456849648
20
163.501179000000
30
0.0
11
531.341456849648
21
163.501179000000
31
0.0
0
LINE
5
63d
100
AcDbEntity
8
A-0
6
CONTINUOUS
62
6
100
AcDbLine
10
541.341456849648
20
163.501179000000
30
0.0
11
554.341456849648
21
163.501179000000
31
0.0
0
LINE
5
63e
100
AcDbEntity
8
A-0
6
CONTINUOUS
62
6
100
AcDbLine
10
566.876409849648
20
163.501179000000
30
0.0
11
579.876409849648
21
163.501179000000
31
0.0
0
LINE
5
63f
100
AcDbEntity
8
A-0
6
CONTINUOUS
62
6
100
AcDbLine
10
599.888189849648
20
163.501179000000
30
0.0
11
612.888189849648
21
163.501179000000
31
0.0
0
LINE
5
640
100
AcDbEntity
8
A-0
6
CONTINUOUS
62
6
100
AcDbLine
10
623.510968849648
20
163.501179000000
30
0.0
11
636.481931849648
21
163.501179000000
31
0.0
0
LINE
5
641
100
AcDbEntity
8
A-0
6
CONTINUOUS
62
6
100
AcDbLine
10
648.675783849648
20
163.501179000000
30
0.0
11
659.675783849648
21
163.501179000000
31
0.0
0
LINE
5
642
100
AcDbEntity
8
A-0
6
CONTINUOUS
62
6
100
AcDbLine
10
364.172137849648
20
165.501179000000
30
0.0
11
377.172137849648
21
165.501179000000
31
0.0
0
LINE
5
643
100
AcDbEntity
8
A-0
6
CONTINUOUS
62
6
100
AcDbLine
10
386.387117849648
20
165.501179000000
30
0.0
11
399.387117849648
21
165.501179000000
31
0.0
0
LINE
5
644
100
AcDbEntity
8
A-0
6
CONTINUOUS
62
6
100
AcDbLine
10
421.258557849648
20
165.501179000000
30
0.0
11
434.258557849648
21
165.501179000000
31
0.0
0
LINE
5
645
100
AcDbEntity
8
A-0
6
CONTINUOUS
62
6
100
AcDbLine
10
464.181082849648
20
165.501179000000
30
0.0
11
477.097929849648
21
165.501179000000
31
0.0
0
LINE
5
646
100
AcDbEntity
8
A-0
6
CONTINUOUS
62
6
100
AcDbLine
10
488.916248849648
20
165.501179000000
30
0.0
11
501.916248849648
21
165.501179000000
31
0.0
0
LINE
5
647
100
AcDbEntity
8
A-0
6
CONTINUOUS
62
6
100
AcDbLine
10
519.274071849648
20
165.501179000000
30
0.0
11
532.274071849648
21
165.501179000000
31
0.0
0
LINE
5
648
100
AcDbEntity
8
A-0
6
CONTINUOUS
62
6
100
AcDbLine
10
542.274071849648
20
165.501179000000
30
0.0
11
555.274071849648
21
165.501179000000
31
0.0
0
LINE
5
649
100
AcDbEntity
8
A-0
6
CONTINUOUS
62
6
100
AcDbLine
10
565.943793849648
20
165.501179000000
30
0.0
11
578.943793849648
21
165.501179000000
31
0.0
0
LINE
5
64a
100
AcDbEntity
8
A-0
6
CONTINUOUS
62
6
100
AcDbLine
10
599.888189849648
20
165.501179000000
30
0.0
11
612.888189849648
21
165.501179000000
31
0.0
0
LINE
5
64b
100
AcDbEntity
8
A-0
6
CONTINUOUS
62
6
100
AcDbLine
10
622.261230849648
20
165.501179000000
30
0.0
11
635.232192849648
21
165.501179000000
31
0.0
0
LINE
5
64c
100
AcDbEntity
8
A-0
6
CONTINUOUS
62
6
100
AcDbLine
10
648.675783849648
20
165.501179000000
30
0.0
11
659.675783849648
21
165.501179000000
31
0.0
0
LINE
5
64d
100
AcDbEntity
8
A-0
6
CONTINUOUS
62
6
100
AcDbLine
10
365.104753849648
20
167.501179000000
30
0.0
11
378.104753849648
21
167.501179000000
31
0.0
0
LINE
5
64e
100
AcDbEntity
8
A-0
6
CONTINUOUS
62
6
100
AcDbLine
10
385.454501849648
20
167.501179000000
30
0.0
11
398.454501849648
21
167.501179000000
31
0.0
0
LINE
5
64f
100
AcDbEntity
8
A-0
6
CONTINUOUS
62
6
100
AcDbLine
10
421.258557849648
20
167.501179000000
30
0.0
11
434.258557849648
21
167.501179000000
31
0.0
0
LINE
5
650
100
AcDbEntity
8
A-0
6
CONTINUOUS
62
6
100
AcDbLine
10
464.021425849648
20
167.501179000000
30
0.0
11
476.896111849648
21
167.501179000000
31
0.0
0
LINE
5
651
100
AcDbEntity
8
A-0
6
CONTINUOUS
62
6
100
AcDbLine
10
487.983633849648
20
167.501179000000
30
0.0
11
500.983633849648
21
167.501179000000
31
0.0
0
LINE
5
652
100
AcDbEntity
8
A-0
6
CONTINUOUS
62
6
100
AcDbLine
10
520.206686849648
20
167.501179000000
30
0.0
11
533.206686849648
21
167.501179000000
31
0.0
0
LINE
5
653
100
AcDbEntity
8
A-0
6
CONTINUOUS
62
6
100
AcDbLine
10
543.206686849648
20
167.501179000000
30
0.0
11
556.206686849648
21
167.501179000000
31
0.0
0
LINE
5
654
100
AcDbEntity
8
A-0
6
CONTINUOUS
62
6
100
AcDbLine
10
565.011178849648
20
167.501179000000
30
0.0
11
578.011178849648
21
167.501179000000
31
0.0
0
LINE
5
655
100
AcDbEntity
8
A-0
6
CONTINUOUS
62
6
100
AcDbLine
10
599.888189849648
20
167.501179000000
30
0.0
11
612.888189849648
21
167.501179000000
31
0.0
0
LINE
5
656
100
AcDbEntity
8
A-0
6
CONTINUOUS
62
6
100
AcDbLine
10
621.011491849648
20
167.501179000000
30
0.0
11
633.982453849648
21
167.501179000000
31
0.0
0
LINE
5
657
100
AcDbEntity
8
A-0
6
CONTINUOUS
62
6
100
AcDbLine
10
648.675783849648
20
167.501179000000
30
0.0
11
659.675783849648
21
167.501179000000
31
0.0
0
LINE
5
658
100
AcDbEntity
8
A-0
6
CONTINUOUS
62
6
100
AcDbLine
10
366.037368849648
20
169.501179000000
30
0.0
11
379.037368849648
21
169.501179000000
31
0.0
0
LINE
5
659
100
AcDbEntity
8
A-0
6
CONTINUOUS
62
6
100
AcDbLine
10
384.521886849648
20
169.501179000000
30
0.0
11
397.521886849648
21
169.501179000000
31
0.0
0
LINE
5
65a
100
AcDbEntity
8
A-0
6
CONTINUOUS
62
6
100
AcDbLine
10
421.258557849648
20
169.501179000000
30
0.0
11
434.258557849648
21
169.501179000000
31
0.0
0
LINE
5
65b
100
AcDbEntity
8
A-0
6
CONTINUOUS
62
6
100
AcDbLine
10
463.730509849648
20
169.501179000000
30
0.0
11
476.602487849648
21
169.501179000000
31
0.0
0
LINE
5
65c
100
AcDbEntity
8
A-0
6
CONTINUOUS
62
6
100
AcDbLine
10
487.051017849648
20
169.501179000000
30
0.0
11
500.051017849648
21
169.501179000000
31
0.0
0
LINE
5
65d
100
AcDbEntity
8
A-0
6
CONTINUOUS
62
6
100
AcDbLine
10
521.139301849648
20
169.501179000000
30
0.0
11
534.139301849648
21
169.501179000000
31
0.0
0
LINE
5
65e
100
AcDbEntity
8
A-0
6
CONTINUOUS
62
6
100
AcDbLine
10
544.139301849648
20
169.501179000000
30
0.0
11
557.139301849648
21
169.501179000000
31
0.0
0
LINE
5
65f
100
AcDbEntity
8
A-0
6
CONTINUOUS
62
6
100
AcDbLine
10
564.078563849648
20
169.501179000000
30
0.0
11
577.078563849648
21
169.501179000000
31
0.0
0
LINE
5
660
100
AcDbEntity
8
A-0
6
CONTINUOUS
62
6
100
AcDbLine
10
599.888189849648
20
169.501179000000
30
0.0
11
612.888189849648
21
169.501179000000
31
0.0
0
LINE
5
661
100
AcDbEntity
8
A-0
6
CONTINUOUS
62
6
100
AcDbLine
10
619.761752849648
20
169.501179000000
30
0.0
11
632.732715849648
21
169.501179000000
31
0.0
0
LINE
5
662
100
AcDbEntity
8
A-0
6
CONTINUOUS
62
6
100
AcDbLine
10
648.675783849648
20
169.501179000000
30
0.0
11
659.675783849648
21
169.501179000000
31
0.0
0
LINE
5
663
100
AcDbEntity
8
A-0
6
CONTINUOUS
62
6
100
AcDbLine
10
366.969983849648
20
171.501179000000
30
0.0
11
379.969983849648
21
171.501179000000
31
0.0
0
LINE
5
664
100
AcDbEntity
8
A-0
6
CONTINUOUS
62
6
100
AcDbLine
10
383.589271849648
20
171.501179000000
30
0.0
11
396.589271849648
21
171.501179000000
31
0.0
0
LINE
5
665
100
AcDbEntity
8
A-0
6
CONTINUOUS
62
6
100
AcDbLine
10
421.258557849648
20
171.501179000000
30
0.0
11
434.258557849648
21
171.501179000000
31
0.0
0
LINE
5
666
100
AcDbEntity
8
A-0
6
CONTINUOUS
62
6
100
AcDbLine
10
463.245806849648
20
171.501179000000
30
0.0
11
476.229015849648
21
171.501179000000
31
0.0
0
LINE
5
667
100
AcDbEntity
8
A-0
6
CONTINUOUS
62
6
100
AcDbLine
10
486.118402849648
20
171.501179000000
30
0.0
11
499.118402849648
21
171.501179000000
31
0.0
0
LINE
5
668
100
AcDbEntity
8
A-0
6
CONTINUOUS
62
6
100
AcDbLine
10
522.071917849648
20
171.501179000000
30
0.0
11
535.071917849648
21
171.501179000000
31
0.0
0
LINE
5
669
100
AcDbEntity
8
A-0
6
CONTINUOUS
62
6
100
AcDbLine
10
545.071917849648
20
171.501179000000
30
0.0
11
558.071917849648
21
171.501179000000
31
0.0
0
LINE
5
66a
100
AcDbEntity
8
A-0
6
CONTINUOUS
62
6
100
AcDbLine
10
563.145947849648
20
171.501179000000
30
0.0
11
576.145947849648
21
171.501179000000
31
0.0
0
LINE
5
66b
100
AcDbEntity
8
A-0
6
CONTINUOUS
62
6
100
AcDbLine
10
599.888189849648
20
171.501179000000
30
0.0
11
612.888189849648
21
171.501179000000
31
0.0
0
LINE
5
66c
100
AcDbEntity
8
A-0
6
CONTINUOUS
62
6
100
AcDbLine
10
618.512014849648
20
171.501179000000
30
0.0
11
631.482976849648
21
171.501179000000
31
0.0
0
LINE
5
66d
100
AcDbEntity
8
A-0
6
CONTINUOUS
62
6
100
AcDbLine
10
648.675783849648
20
171.501179000000
30
0.0
11
659.675783849648
21
171.501179000000
31
0.0
0
LINE
5
66e
100
AcDbEntity
8
A-0
6
CONTINUOUS
62
6
100
AcDbLine
10
367.902599849648
20
173.501179000000
30
0.0
11
380.902599849648
21
173.501179000000
31
0.0
0
LINE
5
66f
100
AcDbEntity
8
A-0
6
CONTINUOUS
62
6
100
AcDbLine
10
382.656655849648
20
173.501179000000
30
0.0
11
395.656655849648
21
173.501179000000
31
0.0
0
LINE
5
670
100
AcDbEntity
8
A-0
6
CONTINUOUS
62
6
100
AcDbLine
10
421.258557849648
20
173.501179000000
30
0.0
11
434.258557849648
21
173.501179000000
31
0.0
0
LINE
5
671
100
AcDbEntity
8
A-0
6
CONTINUOUS
62
6
100
AcDbLine
10
462.462088849648
20
173.501179000000
30
0.0
11
475.776871849648
21
173.501179000000
31
0.0
0
LINE
5
672
100
AcDbEntity
8
A-0
6
CONTINUOUS
62
6
100
AcDbLine
10
485.185787849648
20
173.501179000000
30
0.0
11
498.185787849648
21
173.501179000000
31
0.0
0
LINE
5
673
100
AcDbEntity
8
A-0
6
CONTINUOUS
62
6
100
AcDbLine
10
523.004532849648
20
173.501179000000
30
0.0
11
536.004532849648
21
173.501179000000
31
0.0
0
LINE
5
674
100
AcDbEntity
8
A-0
6
CONTINUOUS
62
6
100
AcDbLine
10
546.004532849648
20
173.501179000000
30
0.0
11
559.004532849648
21
173.501179000000
31
0.0
0
LINE
5
675
100
AcDbEntity
8
A-0
6
CONTINUOUS
62
6
100
AcDbLine
10
562.213332849648
20
173.501179000000
30
0.0
11
575.213332849648
21
173.501179000000
31
0.0
0
LINE
5
676
100
AcDbEntity
8
A-0
6
CONTINUOUS
62
6
100
AcDbLine
10
599.888189849648
20
173.501179000000
30
0.0
11
612.888189849648
21
173.501179000000
31
0.0
0
LINE
5
677
100
AcDbEntity
8
A-0
6
CONTINUOUS
62
6
100
AcDbLine
10
617.262275849648
20
173.501179000000
30
0.0
11
630.233237849648
21
173.501179000000
31
0.0
0
LINE
5
678
100
AcDbEntity
8
A-0
6
CONTINUOUS
62
6
100
AcDbLine
10
648.675783849648
20
173.501179000000
30
0.0
11
659.675783849648
21
173.501179000000
31
0.0
0
LINE
5
679
100
AcDbEntity
8
A-0
6
CONTINUOUS
62
6
100
AcDbLine
10
368.835214849648
20
175.501179000000
30
0.0
11
394.724040849648
21
175.501179000000
31
0.0
0
LINE
5
67a
100
AcDbEntity
8
A-0
6
CONTINUOUS
62
6
100
AcDbLine
10
421.258557849648
20
175.501179000000
30
0.0
11
434.258557849648
21
175.501179000000
31
0.0
0
LINE
5
67b
100
AcDbEntity
8
A-0
6
CONTINUOUS
62
6
100
AcDbLine
10
461.258557849648
20
175.501179000000
30
0.0
11
475.258557849648
21
175.501179000000
31
0.0
0
LINE
5
67c
100
AcDbEntity
8
A-0
6
CONTINUOUS
62
6
100
AcDbLine
10
484.253172849648
20
175.501179000000
30
0.0
11
497.253172849648
21
175.501179000000
31
0.0
0
LINE
5
67d
100
AcDbEntity
8
A-0
6
CONTINUOUS
62
6
100
AcDbLine
10
523.937147849648
20
175.501179000000
30
0.0
11
536.937147849648
21
175.501179000000
31
0.0
0
LINE
5
67e
100
AcDbEntity
8
A-0
6
CONTINUOUS
62
6
100
AcDbLine
10
546.937147849648
20
175.501179000000
30
0.0
11
559.937147849648
21
175.501179000000
31
0.0
0
LINE
5
67f
100
AcDbEntity
8
A-0
6
CONTINUOUS
62
6
100
AcDbLine
10
561.280717849648
20
175.501179000000
30
0.0
11
574.280717849648
21
175.501179000000
31
0.0
0
LINE
5
680
100
AcDbEntity
8
A-0
6
CONTINUOUS
62
6
100
AcDbLine
10
599.888189849648
20
175.501179000000
30
0.0
11
612.888189849648
21
175.501179000000
31
0.0
0
LINE
5
681
100
AcDbEntity
8
A-0
6
CONTINUOUS
62
6
100
AcDbLine
10
616.012536849648
20
175.501179000000
30
0.0
11
628.983499849648
21
175.501179000000
31
0.0
0
LINE
5
682
100
AcDbEntity
8
A-0
6
CONTINUOUS
62
6
100
AcDbLine
10
648.675783849648
20
175.501179000000
30
0.0
11
659.675783849648
21
175.501179000000
31
0.0
0
LINE
5
683
100
AcDbEntity
8
A-0
6
CONTINUOUS
62
6
100
AcDbLine
10
369.767829849648
20
177.501179000000
30
0.0
11
393.791425849648
21
177.501179000000
31
0.0
0
LINE
5
684
100
AcDbEntity
8
A-0
6
CONTINUOUS
62
6
100
AcDbLine
10
421.258557849648
20
177.501179000000
30
0.0
11
434.258557849648
21
177.501179000000
31
0.0
0
LINE
5
685
100
AcDbEntity
8
A-0
6
CONTINUOUS
62
6
100
AcDbLine
10
459.134056849648
20
177.501179000000
30
0.0
11
474.630543849648
21
177.501179000000
31
0.0
0
LINE
5
686
100
AcDbEntity
8
A-0
6
CONTINUOUS
62
6
100
AcDbLine
10
483.320556849648
20
177.501179000000
30
0.0
11
496.320556849648
21
177.501179000000
31
0.0
0
LINE
5
687
100
AcDbEntity
8
A-0
6
CONTINUOUS
62
6
100
AcDbLine
10
524.869763849648
20
177.501179000000
30
0.0
11
537.869763849648
21
177.501179000000
31
0.0
0
LINE
5
688
100
AcDbEntity
8
A-0
6
CONTINUOUS
62
6
100
AcDbLine
10
547.869763849648
20
177.501179000000
30
0.0
11
573.348101849648
21
177.501179000000
31
0.0
0
LINE
5
689
100
AcDbEntity
8
A-0
6
CONTINUOUS
62
6
100
AcDbLine
10
599.888189849648
20
177.501179000000
30
0.0
11
612.888189849648
21
177.501179000000
31
0.0
0
LINE
5
68a
100
AcDbEntity
8
A-0
6
CONTINUOUS
62
6
100
AcDbLine
10
614.762797849648
20
177.501179000000
30
0.0
11
627.733760849648
21
177.501179000000
31
0.0
0
LINE
5
68b
100
AcDbEntity
8
A-0
6
CONTINUOUS
62
6
100
AcDbLine
10
648.675783849648
20
177.501179000000
30
0.0
11
659.675783849648
21
177.501179000000
31
0.0
0
LINE
5
68c
100
AcDbEntity
8
A-0
6
CONTINUOUS
62
6
100
AcDbLine
10
370.700445849648
20
179.501179000000
30
0.0
11
392.858809849648
21
179.501179000000
31
0.0
0
LINE
5
68d
100
AcDbEntity
8
A-0
6
CONTINUOUS
62
6
100
AcDbLine
10
421.258557849648
20
179.501179000000
30
0.0
11
434.258557849648
21
179.501179000000
31
0.0
0
LINE
5
68e
100
AcDbEntity
8
A-0
6
CONTINUOUS
62
6
100
AcDbLine
10
456.055212849648
20
179.501179000000
30
0.0
11
473.799927849648
21
179.501179000000
31
0.0
0
LINE
5
68f
100
AcDbEntity
8
A-0
6
CONTINUOUS
62
6
100
AcDbLine
10
482.387941849648
20
179.501179000000
30
0.0
11
495.387941849648
21
179.501179000000
31
0.0
0
LINE
5
690
100
AcDbEntity
8
A-0
6
CONTINUOUS
62
6
100
AcDbLine
10
525.802378849648
20
179.501179000000
30
0.0
11
538.802378849648
21
179.501179000000
31
0.0
0
LINE
5
691
100
AcDbEntity
8
A-0
6
CONTINUOUS
62
6
100
AcDbLine
10
548.802378849648
20
179.501179000000
30
0.0
11
572.415486849648
21
179.501179000000
31
0.0
0
LINE
5
692
100
AcDbEntity
8
A-0
6
CONTINUOUS
62
6
100
AcDbLine
10
599.888189849648
20
179.501179000000
30
0.0
11
612.888189849648
21
179.501179000000
31
0.0
0
LINE
5
693
100
AcDbEntity
8
A-0
6
CONTINUOUS
62
6
100
AcDbLine
10
613.513059849648
20
179.501179000000
30
0.0
11
626.484021849648
21
179.501179000000
31
0.0
0
LINE
5
694
100
AcDbEntity
8
A-0
6
CONTINUOUS
62
6
100
AcDbLine
10
648.675783849648
20
179.501179000000
30
0.0
11
659.675783849648
21
179.501179000000
31
0.0
0
LINE
5
695
100
AcDbEntity
8
A-0
6
CONTINUOUS
62
6
100
AcDbLine
10
371.633060849648
20
181.501179000000
30
0.0
11
391.926194849648
21
181.501179000000
31
0.0
0
LINE
5
696
100
AcDbEntity
8
A-0
6
CONTINUOUS
62
6
100
AcDbLine
10
421.258557849648
20
181.501179000000
30
0.0
11
472.569116849648
21
181.501179000000
31
0.0
0
LINE
5
697
100
AcDbEntity
8
A-0
6
CONTINUOUS
62
6
100
AcDbLine
10
481.455326849648
20
181.501179000000
30
0.0
11
494.455326849648
21
181.501179000000
31
0.0
0
LINE
5
698
100
AcDbEntity
8
A-0
6
CONTINUOUS
62
6
100
AcDbLine
10
526.734993849648
20
181.501179000000
30
0.0
11
539.734993849648
21
181.501179000000
31
0.0
0
LINE
5
699
100
AcDbEntity
8
A-0
6
CONTINUOUS
62
6
100
AcDbLine
10
549.734993849648
20
181.501179000000
30
0.0
11
571.482871849648
21
181.501179000000
31
0.0
0
LINE
5
69a
100
AcDbEntity
8
A-0
6
CONTINUOUS
62
6
100
AcDbLine
10
599.888189849648
20
181.501179000000
30
0.0
11
625.234282849648
21
181.501179000000
31
0.0
0
LINE
5
69b
100
AcDbEntity
8
A-0
6
CONTINUOUS
62
6
100
AcDbLine
10
648.675783849648
20
181.501179000000
30
0.0
11
659.675783849648
21
181.501179000000
31
0.0
0
LINE
5
69c
100
AcDbEntity
8
A-0
6
CONTINUOUS
62
6
100
AcDbLine
10
372.565675849648
20
183.501179000000
30
0.0
11
390.993579849648
21
183.501179000000
31
0.0
0
LINE
5
69d
100
AcDbEntity
8
A-0
6
CONTINUOUS
62
6
100
AcDbLine
10
421.258557849648
20
183.501179000000
30
0.0
11
470.677505849648
21
183.501179000000
31
0.0
0
LINE
5
69e
100
AcDbEntity
8
A-0
6
CONTINUOUS
62
6
100
AcDbLine
10
480.522710849648
20
183.501179000000
30
0.0
11
493.522710849648
21
183.501179000000
31
0.0
0
LINE
5
69f
100
AcDbEntity
8
A-0
6
CONTINUOUS
62
6
100
AcDbLine
10
527.667609849648
20
183.501179000000
30
0.0
11
540.667609849648
21
183.501179000000
31
0.0
0
LINE
5
6a0
100
AcDbEntity
8
A-0
6
CONTINUOUS
62
6
100
AcDbLine
10
550.667609849648
20
183.501179000000
30
0.0
11
570.550256849648
21
183.501179000000
31
0.0
0
LINE
5
6a1
100
AcDbEntity
8
A-0
6
CONTINUOUS
62
6
100
AcDbLine
10
599.888189849648
20
183.501179000000
30
0.0
11
623.984544849648
21
183.501179000000
31
0.0
0
LINE
5
6a2
100
AcDbEntity
8
A-0
6
CONTINUOUS
62
6
100
AcDbLine
10
648.675783849648
20
183.501179000000
30
0.0
11
659.675783849648
21
183.501179000000
31
0.0
0
LINE
5
6a3
100
AcDbEntity
8
A-0
6
CONTINUOUS
62
6
100
AcDbLine
10
373.498290849648
20
185.501179000000
30
0.0
11
390.060963849648
21
185.501179000000
31
0.0
0
LINE
5
6a4
100
AcDbEntity
8
A-0
6
CONTINUOUS
62
6
100
AcDbLine
10
421.258557849648
20
185.501179000000
30
0.0
11
467.899846849648
21
185.501179000000
31
0.0
0
LINE
5
6a5
100
AcDbEntity
8
A-0
6
CONTINUOUS
62
6
100
AcDbLine
10
479.590095849648
20
185.501179000000
30
0.0
11
492.590095849648
21
185.501179000000
31
0.0
0
LINE
5
6a6
100
AcDbEntity
8
A-0
6
CONTINUOUS
62
6
100
AcDbLine
10
528.600224849648
20
185.501179000000
30
0.0
11
541.600224849648
21
185.501179000000
31
0.0
0
LINE
5
6a7
100
AcDbEntity
8
A-0
6
CONTINUOUS
62
6
100
AcDbLine
10
551.600224849648
20
185.501179000000
30
0.0
11
569.617640849648
21
185.501179000000
31
0.0
0
LINE
5
6a8
100
AcDbEntity
8
A-0
6
CONTINUOUS
62
6
100
AcDbLine
10
599.888189849648
20
185.501179000000
30
0.0
11
622.734805849648
21
185.501179000000
31
0.0
0
LINE
5
6a9
100
AcDbEntity
8
A-0
6
CONTINUOUS
62
6
100
AcDbLine
10
648.675783849648
20
185.501179000000
30
0.0
11
659.675783849648
21
185.501179000000
31
0.0
0
LINE
5
6aa
100
AcDbEntity
8
A-0
6
CONTINUOUS
62
6
100
AcDbLine
10
374.430906849648
20
187.501179000000
30
0.0
11
389.128348849648
21
187.501179000000
31
0.0
0
LINE
5
6ab
100
AcDbEntity
8
A-0
6
CONTINUOUS
62
6
100
AcDbLine
10
421.258557849648
20
187.501179000000
30
0.0
11
463.889187849648
21
187.501179000000
31
0.0
0
LINE
5
6ac
100
AcDbEntity
8
A-0
6
CONTINUOUS
62
6
100
AcDbLine
10
478.657480849648
20
187.501179000000
30
0.0
11
491.657480849648
21
187.501179000000
31
0.0
0
LINE
5
6ad
100
AcDbEntity
8
A-0
6
CONTINUOUS
62
6
100
AcDbLine
10
529.532839849648
20
187.501179000000
30
0.0
11
542.532839849648
21
187.501179000000
31
0.0
0
LINE
5
6ae
100
AcDbEntity
8
A-0
6
CONTINUOUS
62
6
100
AcDbLine
10
552.532839849648
20
187.501179000000
30
0.0
11
568.685025849648
21
187.501179000000
31
0.0
0
LINE
5
6af
100
AcDbEntity
8
A-0
6
CONTINUOUS
62
6
100
AcDbLine
10
599.888189849648
20
187.501179000000
30
0.0
11
621.485066849648
21
187.501179000000
31
0.0
0
LINE
5
6b0
100
AcDbEntity
8
A-0
6
CONTINUOUS
62
6
100
AcDbLine
10
648.675783849648
20
187.501179000000
30
0.0
11
659.675783849648
21
187.501179000000
31
0.0
0
LINE
5
6b1
100
AcDbEntity
8
A-0
6
CONTINUOUS
62
6
100
AcDbLine
10
375.363521849648
20
189.501179000000
30
0.0
11
388.195733849648
21
189.501179000000
31
0.0
0
LINE
5
6b2
100
AcDbEntity
8
A-0
6
CONTINUOUS
62
6
100
AcDbLine
10
421.258557849648
20
189.501179000000
30
0.0
11
458.005230849648
21
189.501179000000
31
0.0
0
LINE
5
6b3
100
AcDbEntity
8
A-0
6
CONTINUOUS
62
6
100
AcDbLine
10
477.724864849648
20
189.501179000000
30
0.0
11
490.724864849648
21
189.501179000000
31
0.0
0
LINE
5
6b4
100
AcDbEntity
8
A-0
6
CONTINUOUS
62
6
100
AcDbLine
10
530.465455849648
20
189.501179000000
30
0.0
11
543.465455849648
21
189.501179000000
31
0.0
0
LINE
5
6b5
100
AcDbEntity
8
A-0
6
CONTINUOUS
62
6
100
AcDbLine
10
553.465455849648
20
189.501179000000
30
0.0
11
567.752410849648
21
189.501179000000
31
0.0
0
LINE
5
6b6
100
AcDbEntity
8
A-0
6
CONTINUOUS
62
6
100
AcDbLine
10
599.888189849648
20
189.501179000000
30
0.0
11
620.235328849648
21
189.501179000000
31
0.0
0
LINE
5
6b7
100
AcDbEntity
8
A-0
6
CONTINUOUS
62
6
100
AcDbLine
10
648.675783849648
20
189.501179000000
30
0.0
11
659.675783849648
21
189.501179000000
31
0.0
0
LINE
5
6b8
100
AcDbEntity
8
A-0
6
CONTINUOUS
62
6
100
AcDbLine
10
240.920929849648
20
134.190526000000
30
0.0
11
282.959427849648
21
134.190526000000
31
0.0
0
LINE
5
6b9
100
AcDbEntity
8
A-0
6
CONTINUOUS
62
6
100
AcDbLine
10
240.920929849648
20
135.190526000000
30
0.0
11
282.959427849648
21
135.190526000000
31
0.0
0
LINE
5
6ba
100
AcDbEntity
8
A-0
6
CONTINUOUS
62
6
100
AcDbLine
10
240.920929849648
20
136.190526000000
30
0.0
11
282.959427849648
21
136.190526000000
31
0.0
0
LINE
5
6bb
100
AcDbEntity
8
A-0
6
CONTINUOUS
62
6
100
AcDbLine
10
240.920929849648
20
137.190526000000
30
0.0
11
282.959427849648
21
137.190526000000
31
0.0
0
LINE
5
6bc
100
AcDbEntity
8
A-0
6
CONTINUOUS
62
6
100
AcDbLine
10
240.920929849648
20
138.190526000000
30
0.0
11
282.959427849648
21
138.190526000000
31
0.0
0
LINE
5
6bd
100
AcDbEntity
8
A-0
6
CONTINUOUS
62
6
100
AcDbLine
10
240.920929849648
20
139.190526000000
30
0.0
11
282.959427849648
21
139.190526000000
31
0.0
0
LINE
5
6be
100
AcDbEntity
8
A-0
6
CONTINUOUS
62
6
100
AcDbLine
10
240.920929849648
20
140.190526000000
30
0.0
11
282.959427849648
21
140.190526000000
31
0.0
0
LINE
5
6bf
100
AcDbEntity
8
A-0
6
CONTINUOUS
62
6
100
AcDbLine
10
240.920929849648
20
141.190526000000
30
0.0
11
282.959427849648
21
141.190526000000
31
0.0
0
LINE
5
6c0
100
AcDbEntity
8
A-0
6
CONTINUOUS
62
6
100
AcDbLine
10
240.920929849648
20
142.190526000000
30
0.0
11
282.959427849648
21
142.190526000000
31
0.0
0
LINE
5
6c1
100
AcDbEntity
8
A-0
6
CONTINUOUS
62
6
100
AcDbLine
10
240.920929849648
20
143.190526000000
30
0.0
11
282.959427849648
21
143.190526000000
31
0.0
0
LINE
5
6c2
100
AcDbEntity
8
A-0
6
CONTINUOUS
62
6
100
AcDbLine
10
240.920929849648
20
144.190526000000
30
0.0
11
282.959427849648
21
144.190526000000
31
0.0
0
LINE
5
6c3
100
AcDbEntity
8
A-0
6
CONTINUOUS
62
6
100
AcDbLine
10
240.920929849648
20
145.190526000000
30
0.0
11
282.959427849648
21
145.190526000000
31
0.0
0
LINE
5
6c4
100
AcDbEntity
8
A-0
6
CONTINUOUS
62
6
100
AcDbLine
10
240.920929849648
20
146.190526000000
30
0.0
11
282.959427849648
21
146.190526000000
31
0.0
0
LINE
5
6c5
100
AcDbEntity
8
A-0
6
CONTINUOUS
62
6
100
AcDbLine
10
240.920929849648
20
147.190526000000
30
0.0
11
282.959427849648
21
147.190526000000
31
0.0
0
LINE
5
6c6
100
AcDbEntity
8
A-0
6
CONTINUOUS
62
6
100
AcDbLine
10
240.920929849648
20
148.190526000000
30
0.0
11
282.959427849648
21
148.190526000000
31
0.0
0
LINE
5
6c7
100
AcDbEntity
8
A-0
6
CONTINUOUS
62
6
100
AcDbLine
10
240.920929849648
20
149.190526000000
30
0.0
11
282.959427849648
21
149.190526000000
31
0.0
0
LINE
5
6c8
100
AcDbEntity
8
A-0
6
CONTINUOUS
62
6
100
AcDbLine
10
240.920929849648
20
150.190526000000
30
0.0
11
282.959427849648
21
150.190526000000
31
0.0
0
LINE
5
6c9
100
AcDbEntity
8
A-0
6
CONTINUOUS
62
6
100
AcDbLine
10
240.920929849648
20
151.190526000000
30
0.0
11
282.959427849648
21
151.190526000000
31
0.0
0
LINE
5
6ca
100
AcDbEntity
8
A-0
6
CONTINUOUS
62
6
100
AcDbLine
10
240.920929849648
20
152.190526000000
30
0.0
11
282.959427849648
21
152.190526000000
31
0.0
0
LINE
5
6cb
100
AcDbEntity
8
A-0
6
CONTINUOUS
62
6
100
AcDbLine
10
240.920929849648
20
153.190526000000
30
0.0
11
282.959427849648
21
153.190526000000
31
0.0
0
LINE
5
6cc
100
AcDbEntity
8
A-0
6
CONTINUOUS
62
6
100
AcDbLine
10
240.920929849648
20
154.190526000000
30
0.0
11
282.959427849648
21
154.190526000000
31
0.0
0
LINE
5
6cd
100
AcDbEntity
8
A-0
6
CONTINUOUS
62
6
100
AcDbLine
10
240.920929849648
20
155.190526000000
30
0.0
11
282.959427849648
21
155.190526000000
31
0.0
0
LINE
5
6ce
100
AcDbEntity
8
A-0
6
CONTINUOUS
62
6
100
AcDbLine
10
240.920929849648
20
156.190526000000
30
0.0
11
282.959427849648
21
156.190526000000
31
0.0
0
LINE
5
6cf
100
AcDbEntity
8
A-0
6
CONTINUOUS
62
6
100
AcDbLine
10
240.920929849648
20
157.190526000000
30
0.0
11
282.959427849648
21
157.190526000000
31
0.0
0
LINE
5
6d0
100
AcDbEntity
8
A-0
6
CONTINUOUS
62
6
100
AcDbLine
10
240.920929849648
20
158.190526000000
30
0.0
11
282.959427849648
21
158.190526000000
31
0.0
0
LINE
5
6d1
100
AcDbEntity
8
A-0
6
CONTINUOUS
62
6
100
AcDbLine
10
240.920929849648
20
159.190526000000
30
0.0
11
282.959427849648
21
159.190526000000
31
0.0
0
LINE
5
6d2
100
AcDbEntity
8
A-0
6
CONTINUOUS
62
6
100
AcDbLine
10
240.920929849648
20
160.190526000000
30
0.0
11
282.959427849648
21
160.190526000000
31
0.0
0
LINE
5
6d3
100
AcDbEntity
8
A-0
6
CONTINUOUS
62
6
100
AcDbLine
10
240.920929849648
20
161.190526000000
30
0.0
11
282.959427849648
21
161.190526000000
31
0.0
0
LINE
5
6d4
100
AcDbEntity
8
A-0
6
CONTINUOUS
62
6
100
AcDbLine
10
240.920929849648
20
162.190526000000
30
0.0
11
282.959427849648
21
162.190526000000
31
0.0
0
LINE
5
6d5
100
AcDbEntity
8
A-0
6
CONTINUOUS
62
6
100
AcDbLine
10
240.920929849648
20
163.190526000000
30
0.0
11
282.959427849648
21
163.190526000000
31
0.0
0
LINE
5
6d6
100
AcDbEntity
8
A-0
6
CONTINUOUS
62
6
100
AcDbLine
10
240.920929849648
20
164.190526000000
30
0.0
11
282.959427849648
21
164.190526000000
31
0.0
0
LINE
5
6d7
100
AcDbEntity
8
A-0
6
CONTINUOUS
62
6
100
AcDbLine
10
240.920929849648
20
165.190526000000
30
0.0
11
282.959427849648
21
165.190526000000
31
0.0
0
LINE
5
6d8
100
AcDbEntity
8
A-0
6
CONTINUOUS
62
6
100
AcDbLine
10
240.920929849648
20
166.190526000000
30
0.0
11
282.959427849648
21
166.190526000000
31
0.0
0
LINE
5
6d9
100
AcDbEntity
8
A-0
6
CONTINUOUS
62
6
100
AcDbLine
10
240.920929849648
20
167.190526000000
30
0.0
11
282.959427849648
21
167.190526000000
31
0.0
0
LINE
5
6da
100
AcDbEntity
8
A-0
6
CONTINUOUS
62
6
100
AcDbLine
10
240.920929849648
20
168.190526000000
30
0.0
11
282.959427849648
21
168.190526000000
31
0.0
0
LINE
5
6db
100
AcDbEntity
8
A-0
6
CONTINUOUS
62
6
100
AcDbLine
10
240.920929849648
20
169.190526000000
30
0.0
11
282.959427849648
21
169.190526000000
31
0.0
0
LINE
5
6dc
100
AcDbEntity
8
A-0
6
CONTINUOUS
62
6
100
AcDbLine
10
240.920929849648
20
170.190526000000
30
0.0
11
282.959427849648
21
170.190526000000
31
0.0
0
LINE
5
6dd
100
AcDbEntity
8
A-0
6
CONTINUOUS
62
6
100
AcDbLine
10
240.920929849648
20
171.190526000000
30
0.0
11
282.959427849648
21
171.190526000000
31
0.0
0
LINE
5
6de
100
AcDbEntity
8
A-0
6
CONTINUOUS
62
6
100
AcDbLine
10
240.920929849648
20
172.190526000000
30
0.0
11
282.959427849648
21
172.190526000000
31
0.0
0
LINE
5
6df
100
AcDbEntity
8
A-0
6
CONTINUOUS
62
6
100
AcDbLine
10
240.920929849648
20
173.190526000000
30
0.0
11
282.959427849648
21
173.190526000000
31
0.0
0
LINE
5
6e0
100
AcDbEntity
8
A-0
6
CONTINUOUS
62
6
100
AcDbLine
10
240.920929849648
20
174.190526000000
30
0.0
11
282.959427849648
21
174.190526000000
31
0.0
0
LINE
5
6e1
100
AcDbEntity
8
A-0
6
CONTINUOUS
62
6
100
AcDbLine
10
240.920929849648
20
175.190526000000
30
0.0
11
282.959427849648
21
175.190526000000
31
0.0
0
LINE
5
6e2
100
AcDbEntity
8
A-0
6
CONTINUOUS
62
6
100
AcDbLine
10
335.732554849648
20
222.190526000000
30
0.0
11
350.368132849648
21
222.190526000000
31
0.0
0
LINE
5
6e3
100
AcDbEntity
8
A-0
6
CONTINUOUS
62
6
100
AcDbLine
10
333.009570849648
20
224.190526000000
30
0.0
11
353.091116849648
21
224.190526000000
31
0.0
0
LINE
5
6e4
100
AcDbEntity
8
A-0
6
CONTINUOUS
62
6
100
AcDbLine
10
331.214625849648
20
226.190526000000
30
0.0
11
354.886061849648
21
226.190526000000
31
0.0
0
LINE
5
6e5
100
AcDbEntity
8
A-0
6
CONTINUOUS
62
6
100
AcDbLine
10
329.960221849648
20
228.190526000000
30
0.0
11
356.140466849648
21
228.190526000000
31
0.0
0
LINE
5
6e6
100
AcDbEntity
8
A-0
6
CONTINUOUS
62
6
100
AcDbLine
10
329.099773849648
20
230.190526000000
30
0.0
11
357.000913849648
21
230.190526000000
31
0.0
0
LINE
5
6e7
100
AcDbEntity
8
A-0
6
CONTINUOUS
62
6
100
AcDbLine
10
328.562918849648
20
232.190526000000
30
0.0
11
357.537768849648
21
232.190526000000
31
0.0
0
LINE
5
6e8
100
AcDbEntity
8
A-0
6
CONTINUOUS
62
6
100
AcDbLine
10
328.314245849648
20
234.190526000000
30
0.0
11
357.786441849648
21
234.190526000000
31
0.0
0
LINE
5
6e9
100
AcDbEntity
8
A-0
6
CONTINUOUS
62
6
100
AcDbLine
10
328.339134849648
20
236.190526000000
30
0.0
11
357.761552849648
21
236.190526000000
31
0.0
0
LINE
5
6ea
100
AcDbEntity
8
A-0
6
CONTINUOUS
62
6
100
AcDbLine
10
328.639002849648
20
238.190526000000
30
0.0
11
357.461684849648
21
238.190526000000
31
0.0
0
LINE
5
6eb
100
AcDbEntity
8
A-0
6
CONTINUOUS
62
6
100
AcDbLine
10
329.231738849648
20
240.190526000000
30
0.0
11
356.868948849648
21
240.190526000000
31
0.0
0
LINE
5
6ec
100
AcDbEntity
8
A-0
6
CONTINUOUS
62
6
100
AcDbLine
10
330.157673849648
20
242.190526000000
30
0.0
11
355.943013849648
21
242.190526000000
31
0.0
0
LINE
5
6ed
100
AcDbEntity
8
A-0
6
CONTINUOUS
62
6
100
AcDbLine
10
331.496641849648
20
244.190526000000
30
0.0
11
354.604045849648
21
244.190526000000
31
0.0
0
LINE
5
6ee
100
AcDbEntity
8
A-0
6
CONTINUOUS
62
6
100
AcDbLine
10
333.419397849648
20
246.190526000000
30
0.0
11
352.681289849648
21
246.190526000000
31
0.0
0
LINE
5
6ef
100
AcDbEntity
8
A-0
6
CONTINUOUS
62
6
100
AcDbLine
10
336.415420849648
20
248.190526000000
30
0.0
11
349.685267849648
21
248.190526000000
31
0.0
0
LINE
5
6f0
100
AcDbEntity
8
A-0
6
CONTINUOUS
62
6
100
AcDbLine
10
357.032464849648
20
230.282895000000
30
0.0
11
357.032464849648
21
239.731703000000
31
0.0
0
LINE
5
6f1
100
AcDbEntity
8
A-0
6
CONTINUOUS
62
6
100
AcDbLine
10
355.032464849648
20
226.390544000000
30
0.0
11
355.032464849648
21
243.624054000000
31
0.0
0
LINE
5
6f2
100
AcDbEntity
8
A-0
6
CONTINUOUS
62
6
100
AcDbLine
10
353.032464849648
20
224.136377000000
30
0.0
11
353.032464849648
21
245.878222000000
31
0.0
0
LINE
5
6f3
100
AcDbEntity
8
A-0
6
CONTINUOUS
62
6
100
AcDbLine
10
351.032464849648
20
222.593378000000
30
0.0
11
351.032464849648
21
247.421220000000
31
0.0
0
LINE
5
6f4
100
AcDbEntity
8
A-0
6
CONTINUOUS
62
6
100
AcDbLine
10
349.032464849648
20
221.515304000000
30
0.0
11
349.032464849648
21
248.499294000000
31
0.0
0
LINE
5
6f5
100
AcDbEntity
8
A-0
6
CONTINUOUS
62
6
100
AcDbLine
10
347.032464849648
20
220.795951000000
30
0.0
11
347.032464849648
21
249.218647000000
31
0.0
0
LINE
5
6f6
100
AcDbEntity
8
A-0
6
CONTINUOUS
62
6
100
AcDbLine
10
345.032464849648
20
220.382290000000
30
0.0
11
345.032464849648
21
249.632308000000
31
0.0
0
LINE
5
6f7
100
AcDbEntity
8
A-0
6
CONTINUOUS
62
6
100
AcDbLine
10
343.032464849648
20
220.248594000000
30
0.0
11
343.032464849648
21
249.766004000000
31
0.0
0
LINE
5
6f8
100
AcDbEntity
8
A-0
6
CONTINUOUS
62
6
100
AcDbLine
10
282.032464849648
20
133.984897000000
30
0.0
11
282.032464849648
21
176.082589000000
31
0.0
0
LINE
5
6f9
100
AcDbEntity
8
A-0
6
CONTINUOUS
62
6
100
AcDbLine
10
281.032464849648
20
133.984897000000
30
0.0
11
281.032464849648
21
176.082589000000
31
0.0
0
LINE
5
6fa
100
AcDbEntity
8
A-0
6
CONTINUOUS
62
6
100
AcDbLine
10
280.032464849648
20
133.984897000000
30
0.0
11
280.032464849648
21
176.082589000000
31
0.0
0
LINE
5
6fb
100
AcDbEntity
8
A-0
6
CONTINUOUS
62
6
100
AcDbLine
10
279.032464849648
20
133.984897000000
30
0.0
11
279.032464849648
21
176.082589000000
31
0.0
0
LINE
5
6fc
100
AcDbEntity
8
A-0
6
CONTINUOUS
62
6
100
AcDbLine
10
278.032464849648
20
133.984897000000
30
0.0
11
278.032464849648
21
176.082589000000
31
0.0
0
LINE
5
6fd
100
AcDbEntity
8
A-0
6
CONTINUOUS
62
6
100
AcDbLine
10
277.032464849648
20
133.984897000000
30
0.0
11
277.032464849648
21
176.082589000000
31
0.0
0
LINE
5
6fe
100
AcDbEntity
8
A-0
6
CONTINUOUS
62
6
100
AcDbLine
10
276.032464849648
20
133.984897000000
30
0.0
11
276.032464849648
21
176.082589000000
31
0.0
0
LINE
5
6ff
100
AcDbEntity
8
A-0
6
CONTINUOUS
62
6
100
AcDbLine
10
275.032464849648
20
133.984897000000
30
0.0
11
275.032464849648
21
176.082589000000
31
0.0
0
LINE
5
700
100
AcDbEntity
8
A-0
6
CONTINUOUS
62
6
100
AcDbLine
10
274.032464849648
20
133.984897000000
30
0.0
11
274.032464849648
21
176.082589000000
31
0.0
0
LINE
5
701
100
AcDbEntity
8
A-0
6
CONTINUOUS
62
6
100
AcDbLine
10
273.032464849648
20
133.984897000000
30
0.0
11
273.032464849648
21
176.082589000000
31
0.0
0
LINE
5
702
100
AcDbEntity
8
A-0
6
CONTINUOUS
62
6
100
AcDbLine
10
272.032464849648
20
133.984897000000
30
0.0
11
272.032464849648
21
176.082589000000
31
0.0
0
LINE
5
703
100
AcDbEntity
8
A-0
6
CONTINUOUS
62
6
100
AcDbLine
10
271.032464849648
20
133.984897000000
30
0.0
11
271.032464849648
21
176.082589000000
31
0.0
0
LINE
5
704
100
AcDbEntity
8
A-0
6
CONTINUOUS
62
6
100
AcDbLine
10
270.032464849648
20
133.984897000000
30
0.0
11
270.032464849648
21
176.082589000000
31
0.0
0
LINE
5
705
100
AcDbEntity
8
A-0
6
CONTINUOUS
62
6
100
AcDbLine
10
269.032464849648
20
133.984897000000
30
0.0
11
269.032464849648
21
176.082589000000
31
0.0
0
LINE
5
706
100
AcDbEntity
8
A-0
6
CONTINUOUS
62
6
100
AcDbLine
10
268.032464849648
20
133.984897000000
30
0.0
11
268.032464849648
21
176.082589000000
31
0.0
0
LINE
5
707
100
AcDbEntity
8
A-0
6
CONTINUOUS
62
6
100
AcDbLine
10
267.032464849648
20
133.984897000000
30
0.0
11
267.032464849648
21
176.082589000000
31
0.0
0
LINE
5
708
100
AcDbEntity
8
A-0
6
CONTINUOUS
62
6
100
AcDbLine
10
266.032464849648
20
133.984897000000
30
0.0
11
266.032464849648
21
176.082589000000
31
0.0
0
LINE
5
709
100
AcDbEntity
8
A-0
6
CONTINUOUS
62
6
100
AcDbLine
10
265.032464849648
20
133.984897000000
30
0.0
11
265.032464849648
21
176.082589000000
31
0.0
0
LINE
5
70a
100
AcDbEntity
8
A-0
6
CONTINUOUS
62
6
100
AcDbLine
10
264.032464849648
20
133.984897000000
30
0.0
11
264.032464849648
21
176.082589000000
31
0.0
0
LINE
5
70b
100
AcDbEntity
8
A-0
6
CONTINUOUS
62
6
100
AcDbLine
10
263.032464849648
20
133.984897000000
30
0.0
11
263.032464849648
21
176.082589000000
31
0.0
0
LINE
5
70c
100
AcDbEntity
8
A-0
6
CONTINUOUS
62
6
100
AcDbLine
10
262.032464849648
20
133.984897000000
30
0.0
11
262.032464849648
21
176.082589000000
31
0.0
0
LINE
5
70d
100
AcDbEntity
8
A-0
6
CONTINUOUS
62
6
100
AcDbLine
10
261.032464849648
20
133.984897000000
30
0.0
11
261.032464849648
21
176.082589000000
31
0.0
0
LINE
5
70e
100
AcDbEntity
8
A-0
6
CONTINUOUS
62
6
100
AcDbLine
10
260.032464849648
20
133.984897000000
30
0.0
11
260.032464849648
21
176.082589000000
31
0.0
0
LINE
5
70f
100
AcDbEntity
8
A-0
6
CONTINUOUS
62
6
100
AcDbLine
10
259.032464849648
20
133.984897000000
30
0.0
11
259.032464849648
21
176.082589000000
31
0.0
0
LINE
5
710
100
AcDbEntity
8
A-0
6
CONTINUOUS
62
6
100
AcDbLine
10
258.032464849648
20
133.984897000000
30
0.0
11
258.032464849648
21
176.082589000000
31
0.0
0
LINE
5
711
100
AcDbEntity
8
A-0
6
CONTINUOUS
62
6
100
AcDbLine
10
257.032464849648
20
133.984897000000
30
0.0
11
257.032464849648
21
176.082589000000
31
0.0
0
LINE
5
712
100
AcDbEntity
8
A-0
6
CONTINUOUS
62
6
100
AcDbLine
10
256.032464849648
20
133.984897000000
30
0.0
11
256.032464849648
21
176.082589000000
31
0.0
0
LINE
5
713
100
AcDbEntity
8
A-0
6
CONTINUOUS
62
6
100
AcDbLine
10
255.032464849648
20
133.984897000000
30
0.0
11
255.032464849648
21
176.082589000000
31
0.0
0
LINE
5
714
100
AcDbEntity
8
A-0
6
CONTINUOUS
62
6
100
AcDbLine
10
254.032464849648
20
133.984897000000
30
0.0
11
254.032464849648
21
176.082589000000
31
0.0
0
LINE
5
715
100
AcDbEntity
8
A-0
6
CONTINUOUS
62
6
100
AcDbLine
10
253.032464849648
20
133.984897000000
30
0.0
11
253.032464849648
21
176.082589000000
31
0.0
0
LINE
5
716
100
AcDbEntity
8
A-0
6
CONTINUOUS
62
6
100
AcDbLine
10
252.032464849648
20
133.984897000000
30
0.0
11
252.032464849648
21
176.082589000000
31
0.0
0
LINE
5
717
100
AcDbEntity
8
A-0
6
CONTINUOUS
62
6
100
AcDbLine
10
251.032464849648
20
133.984897000000
30
0.0
11
251.032464849648
21
176.082589000000
31
0.0
0
LINE
5
718
100
AcDbEntity
8
A-0
6
CONTINUOUS
62
6
100
AcDbLine
10
250.032464849648
20
133.984897000000
30
0.0
11
250.032464849648
21
176.082589000000
31
0.0
0
LINE
5
719
100
AcDbEntity
8
A-0
6
CONTINUOUS
62
6
100
AcDbLine
10
249.032464849648
20
133.984897000000
30
0.0
11
249.032464849648
21
176.082589000000
31
0.0
0
LINE
5
71a
100
AcDbEntity
8
A-0
6
CONTINUOUS
62
6
100
AcDbLine
10
248.032464849648
20
133.984897000000
30
0.0
11
248.032464849648
21
176.082589000000
31
0.0
0
LINE
5
71b
100
AcDbEntity
8
A-0
6
CONTINUOUS
62
6
100
AcDbLine
10
247.032464849648
20
133.984897000000
30
0.0
11
247.032464849648
21
176.082589000000
31
0.0
0
LINE
5
71c
100
AcDbEntity
8
A-0
6
CONTINUOUS
62
6
100
AcDbLine
10
246.032464849648
20
133.984897000000
30
0.0
11
246.032464849648
21
176.082589000000
31
0.0
0
LINE
5
71d
100
AcDbEntity
8
A-0
6
CONTINUOUS
62
6
100
AcDbLine
10
245.032464849648
20
133.984897000000
30
0.0
11
245.032464849648
21
176.082589000000
31
0.0
0
LINE
5
71e
100
AcDbEntity
8
A-0
6
CONTINUOUS
62
6
100
AcDbLine
10
244.032464849648
20
133.984897000000
30
0.0
11
244.032464849648
21
176.082589000000
31
0.0
0
LINE
5
71f
100
AcDbEntity
8
A-0
6
CONTINUOUS
62
6
100
AcDbLine
10
243.032464849648
20
133.984897000000
30
0.0
11
243.032464849648
21
176.082589000000
31
0.0
0
LINE
5
720
100
AcDbEntity
8
A-0
6
CONTINUOUS
62
6
100
AcDbLine
10
242.032464849648
20
133.984897000000
30
0.0
11
242.032464849648
21
176.082589000000
31
0.0
0
LINE
5
721
100
AcDbEntity
8
A-0
6
CONTINUOUS
62
6
100
AcDbLine
10
241.032464849648
20
133.984897000000
30
0.0
11
241.032464849648
21
176.082589000000
31
0.0
0
LINE
5
722
100
AcDbEntity
8
A-0
6
CONTINUOUS
62
6
100
AcDbLine
10
264.029939849648
20
206.853923000000
30
0.0
11
207.128356849648
21
132.765738000000
31
0.0
0
LINE
5
723
100
AcDbEntity
8
A-0
6
CONTINUOUS
62
6
100
AcDbLine
10
207.128356849648
20
132.765738000000
30
0.0
11
201.554323849648
21
130.443225000000
31
0.0
0
LINE
5
724
100
AcDbEntity
8
A-0
6
CONTINUOUS
62
6
100
AcDbLine
10
201.554323849648
20
130.443225000000
30
0.0
11
196.444793849648
21
128.585214000000
31
0.0
0
LINE
5
725
100
AcDbEntity
8
A-0
6
CONTINUOUS
62
6
100
AcDbLine
10
196.444793849648
20
128.585214000000
30
0.0
11
193.657777849648
21
131.139979000000
31
0.0
0
LINE
5
726
100
AcDbEntity
8
A-0
6
CONTINUOUS
62
6
100
AcDbLine
10
193.657777849648
20
131.139979000000
30
0.0
11
191.335263849648
21
134.391498000000
31
0.0
0
LINE
5
727
100
AcDbEntity
8
A-0
6
CONTINUOUS
62
6
100
AcDbLine
10
191.335263849648
20
134.391498000000
30
0.0
11
189.477252849648
21
140.662285000000
31
0.0
0
LINE
5
728
100
AcDbEntity
8
A-0
6
CONTINUOUS
62
6
100
AcDbLine
10
189.477252849648
20
140.662285000000
30
0.0
11
191.335263849648
21
146.468569000000
31
0.0
0
LINE
5
729
100
AcDbEntity
8
A-0
6
CONTINUOUS
62
6
100
AcDbLine
10
191.335263849648
20
146.468569000000
30
0.0
11
198.302804849648
21
156.455377000000
31
0.0
0
LINE
5
72a
100
AcDbEntity
8
A-0
6
CONTINUOUS
62
6
100
AcDbLine
10
198.302804849648
20
156.455377000000
30
0.0
11
250.791612849648
21
227.524294000000
31
0.0
0
LINE
5
72b
100
AcDbEntity
8
A-0
6
CONTINUOUS
62
6
100
AcDbLine
10
250.791612849648
20
227.524294000000
30
0.0
11
250.791612849648
21
232.633824000000
31
0.0
0
LINE
5
72c
100
AcDbEntity
8
A-0
6
CONTINUOUS
62
6
100
AcDbLine
10
250.791612849648
20
232.633824000000
30
0.0
11
252.185120849648
21
235.885343000000
31
0.0
0
LINE
5
72d
100
AcDbEntity
8
A-0
6
CONTINUOUS
62
6
100
AcDbLine
10
252.185120849648
20
235.885343000000
30
0.0
11
255.901142849648
21
240.065868000000
31
0.0
0
LINE
5
72e
100
AcDbEntity
8
A-0
6
CONTINUOUS
62
6
100
AcDbLine
10
255.901142849648
20
240.065868000000
30
0.0
11
257.062399849648
21
241.227125000000
31
0.0
0
LINE
5
72f
100
AcDbEntity
8
A-0
6
CONTINUOUS
62
6
100
AcDbLine
10
257.062399849648
20
241.227125000000
30
0.0
11
259.152661849648
21
244.246392000000
31
0.0
0
LINE
5
730
100
AcDbEntity
8
A-0
6
CONTINUOUS
62
6
100
AcDbLine
10
259.152661849648
20
244.246392000000
30
0.0
11
262.636431849648
21
244.710895000000
31
0.0
0
LINE
5
731
100
AcDbEntity
8
A-0
6
CONTINUOUS
62
6
100
AcDbLine
10
262.636431849648
20
244.710895000000
30
0.0
11
268.674967849648
21
245.872152000000
31
0.0
0
LINE
5
732
100
AcDbEntity
8
A-0
6
CONTINUOUS
62
6
100
AcDbLine
10
268.674967849648
20
245.872152000000
30
0.0
11
270.997480849648
21
245.639901000000
31
0.0
0
LINE
5
733
100
AcDbEntity
8
A-0
6
CONTINUOUS
62
6
100
AcDbLine
10
270.997480849648
20
245.639901000000
30
0.0
11
275.874759849648
21
244.014141000000
31
0.0
0
LINE
5
734
100
AcDbEntity
8
A-0
6
CONTINUOUS
62
6
100
AcDbLine
10
275.874759849648
20
244.014141000000
30
0.0
11
277.732770849648
21
241.691628000000
31
0.0
0
LINE
5
735
100
AcDbEntity
8
A-0
6
CONTINUOUS
62
6
100
AcDbLine
10
277.732770849648
20
241.691628000000
30
0.0
11
282.842300849648
21
234.956338000000
31
0.0
0
LINE
5
736
100
AcDbEntity
8
A-0
6
CONTINUOUS
62
6
100
AcDbLine
10
282.842300849648
20
234.956338000000
30
0.0
11
298.635393849648
21
208.711934000000
31
0.0
0
LINE
5
737
100
AcDbEntity
8
A-0
6
CONTINUOUS
62
6
100
AcDbLine
10
309.824021849648
20
189.810507000000
30
0.0
11
332.302737849648
21
151.006963000000
31
0.0
0
LINE
5
738
100
AcDbEntity
8
A-0
6
CONTINUOUS
62
6
100
AcDbLine
10
332.302737849648
20
151.006963000000
30
0.0
11
334.458280849648
21
145.464140000000
31
0.0
0
LINE
5
739
100
AcDbEntity
8
A-0
6
CONTINUOUS
62
6
100
AcDbLine
10
334.458280849648
20
145.464140000000
30
0.0
11
333.534476849648
21
142.692729000000
31
0.0
0
LINE
5
73a
100
AcDbEntity
8
A-0
6
CONTINUOUS
62
6
100
AcDbLine
10
333.534476849648
20
142.692729000000
30
0.0
11
330.763064849648
21
138.843546000000
31
0.0
0
LINE
5
73b
100
AcDbEntity
8
A-0
6
CONTINUOUS
62
6
100
AcDbLine
10
330.763064849648
20
138.843546000000
30
0.0
11
319.985353849648
21
135.610232000000
31
0.0
0
LINE
5
73c
100
AcDbEntity
8
A-0
6
CONTINUOUS
62
6
100
AcDbLine
10
319.985353849648
20
135.610232000000
30
0.0
11
313.518726849648
21
133.300723000000
31
0.0
0
LINE
5
73d
100
AcDbEntity
8
A-0
6
CONTINUOUS
62
6
100
AcDbLine
10
313.518726849648
20
133.300723000000
30
0.0
11
307.821935849648
21
135.610232000000
31
0.0
0
LINE
5
73e
100
AcDbEntity
8
A-0
6
CONTINUOUS
62
6
100
AcDbLine
10
307.821935849648
20
135.610232000000
30
0.0
11
299.045799849648
21
145.002238000000
31
0.0
0
LINE
5
73f
100
AcDbEntity
8
A-0
6
CONTINUOUS
62
6
100
AcDbLine
10
299.045799849648
20
145.002238000000
30
0.0
11
298.737864849648
21
150.083159000000
31
0.0
0
LINE
5
740
100
AcDbEntity
8
A-0
6
CONTINUOUS
62
6
100
AcDbLine
10
298.737864849648
20
150.083159000000
30
0.0
11
264.029939849648
21
206.853923000000
31
0.0
0
LINE
5
741
100
AcDbEntity
8
A-0
6
CONTINUOUS
62
6
100
AcDbLine
10
329.682535849648
20
138.519387000000
30
0.0
11
332.708018849648
21
141.544870000000
31
0.0
0
LINE
5
742
100
AcDbEntity
8
A-0
6
CONTINUOUS
62
6
100
AcDbLine
10
325.641924849648
20
137.307204000000
30
0.0
11
334.273642849648
21
145.938922000000
31
0.0
0
LINE
5
743
100
AcDbEntity
8
A-0
6
CONTINUOUS
62
6
100
AcDbLine
10
321.601314849648
20
136.095021000000
30
0.0
11
333.481683849648
21
147.975389000000
31
0.0
0
LINE
5
744
100
AcDbEntity
8
A-0
6
CONTINUOUS
62
6
100
AcDbLine
10
317.345180849648
20
134.667313000000
30
0.0
11
332.689723849648
21
150.011857000000
31
0.0
0
LINE
5
745
100
AcDbEntity
8
A-0
6
CONTINUOUS
62
6
100
AcDbLine
10
313.256478849648
20
133.407039000000
30
0.0
11
331.772213849648
21
151.922773000000
31
0.0
0
LINE
5
746
100
AcDbEntity
8
A-0
6
CONTINUOUS
62
6
100
AcDbLine
10
311.243944849648
20
134.222932000000
30
0.0
11
330.734728849648
21
153.713716000000
31
0.0
0
LINE
5
747
100
AcDbEntity
8
A-0
6
CONTINUOUS
62
6
100
AcDbLine
10
309.231409849648
20
135.038824000000
30
0.0
11
329.697243849648
21
155.504658000000
31
0.0
0
LINE
5
748
100
AcDbEntity
8
A-0
6
CONTINUOUS
62
6
100
AcDbLine
10
307.412528849648
20
136.048370000000
30
0.0
11
328.659758849648
21
157.295600000000
31
0.0
0
LINE
5
749
100
AcDbEntity
8
A-0
6
CONTINUOUS
62
6
100
AcDbLine
10
306.046254849648
20
137.510523000000
30
0.0
11
327.622274849648
21
159.086543000000
31
0.0
0
LINE
5
74a
100
AcDbEntity
8
A-0
6
CONTINUOUS
62
6
100
AcDbLine
10
304.679980849648
20
138.972676000000
30
0.0
11
326.584789849648
21
160.877485000000
31
0.0
0
LINE
5
74b
100
AcDbEntity
8
A-0
6
CONTINUOUS
62
6
100
AcDbLine
10
303.313706849648
20
140.434829000000
30
0.0
11
325.547304849648
21
162.668428000000
31
0.0
0
LINE
5
74c
100
AcDbEntity
8
A-0
6
CONTINUOUS
62
6
100
AcDbLine
10
301.947431849648
20
141.896982000000
30
0.0
11
324.509819849648
21
164.459370000000
31
0.0
0
LINE
5
74d
100
AcDbEntity
8
A-0
6
CONTINUOUS
62
6
100
AcDbLine
10
300.581157849648
20
143.359135000000
30
0.0
11
323.472334849648
21
166.250312000000
31
0.0
0
LINE
5
74e
100
AcDbEntity
8
A-0
6
CONTINUOUS
62
6
100
AcDbLine
10
299.214883849648
20
144.821288000000
30
0.0
11
322.434850849648
21
168.041255000000
31
0.0
0
LINE
5
74f
100
AcDbEntity
8
A-0
6
CONTINUOUS
62
6
100
AcDbLine
10
298.904176849648
20
147.339008000000
30
0.0
11
321.397365849648
21
169.832197000000
31
0.0
0
LINE
5
750
100
AcDbEntity
8
A-0
6
CONTINUOUS
62
6
100
AcDbLine
10
298.742552849648
20
150.005811000000
30
0.0
11
320.359880849648
21
171.623139000000
31
0.0
0
LINE
5
751
100
AcDbEntity
8
A-0
6
CONTINUOUS
62
6
100
AcDbLine
10
297.695856849648
20
151.787542000000
30
0.0
11
319.322395849648
21
173.414082000000
31
0.0
0
LINE
5
752
100
AcDbEntity
8
A-0
6
CONTINUOUS
62
6
100
AcDbLine
10
296.622723849648
20
153.542836000000
30
0.0
11
318.284911849648
21
175.205024000000
31
0.0
0
LINE
5
753
100
AcDbEntity
8
A-0
6
CONTINUOUS
62
6
100
AcDbLine
10
295.549589849648
20
155.298130000000
30
0.0
11
317.247426849648
21
176.995966000000
31
0.0
0
LINE
5
754
100
AcDbEntity
8
A-0
6
CONTINUOUS
62
6
100
AcDbLine
10
294.476456849648
20
157.053423000000
30
0.0
11
316.209941849648
21
178.786909000000
31
0.0
0
LINE
5
755
100
AcDbEntity
8
A-0
6
CONTINUOUS
62
6
100
AcDbLine
10
293.403322849648
20
158.808717000000
30
0.0
11
315.172456849648
21
180.577851000000
31
0.0
0
LINE
5
756
100
AcDbEntity
8
A-0
6
CONTINUOUS
62
6
100
AcDbLine
10
292.330189849648
20
160.564011000000
30
0.0
11
314.134971849648
21
182.368793000000
31
0.0
0
LINE
5
757
100
AcDbEntity
8
A-0
6
CONTINUOUS
62
6
100
AcDbLine
10
291.257056849648
20
162.319305000000
30
0.0
11
313.097487849648
21
184.159736000000
31
0.0
0
LINE
5
758
100
AcDbEntity
8
A-0
6
CONTINUOUS
62
6
100
AcDbLine
10
290.183922849648
20
164.074598000000
30
0.0
11
312.060002849648
21
185.950678000000
31
0.0
0
LINE
5
759
100
AcDbEntity
8
A-0
6
CONTINUOUS
62
6
100
AcDbLine
10
289.110789849648
20
165.829892000000
30
0.0
11
311.022517849648
21
187.741620000000
31
0.0
0
LINE
5
75a
100
AcDbEntity
8
A-0
6
CONTINUOUS
62
6
100
AcDbLine
10
288.037655849648
20
167.585186000000
30
0.0
11
309.985032849648
21
189.532563000000
31
0.0
0
LINE
5
75b
100
AcDbEntity
8
A-0
6
CONTINUOUS
62
6
100
AcDbLine
10
286.964522849648
20
169.340480000000
30
0.0
11
307.434549849648
21
189.810507000000
31
0.0
0
LINE
5
75c
100
AcDbEntity
8
A-0
6
CONTINUOUS
62
6
100
AcDbLine
10
285.891389849648
20
171.095773000000
30
0.0
11
304.606122849648
21
189.810507000000
31
0.0
0
LINE
5
75d
100
AcDbEntity
8
A-0
6
CONTINUOUS
62
6
100
AcDbLine
10
284.818255849648
20
172.851067000000
30
0.0
11
301.777695849648
21
189.810507000000
31
0.0
0
LINE
5
75e
100
AcDbEntity
8
A-0
6
CONTINUOUS
62
6
100
AcDbLine
10
283.745122849648
20
174.606361000000
30
0.0
11
298.949268849648
21
189.810507000000
31
0.0
0
LINE
5
75f
100
AcDbEntity
8
A-0
6
CONTINUOUS
62
6
100
AcDbLine
10
282.671988849648
20
176.361654000000
30
0.0
11
296.120841849648
21
189.810507000000
31
0.0
0
LINE
5
760
100
AcDbEntity
8
A-0
6
CONTINUOUS
62
6
100
AcDbLine
10
281.598855849648
20
178.116948000000
30
0.0
11
293.292414849648
21
189.810507000000
31
0.0
0
LINE
5
761
100
AcDbEntity
8
A-0
6
CONTINUOUS
62
6
100
AcDbLine
10
280.525722849648
20
179.872242000000
30
0.0
11
290.463987849648
21
189.810507000000
31
0.0
0
LINE
5
762
100
AcDbEntity
8
A-0
6
CONTINUOUS
62
6
100
AcDbLine
10
279.452588849648
20
181.627536000000
30
0.0
11
287.841614849648
21
190.016562000000
31
0.0
0
LINE
5
763
100
AcDbEntity
8
A-0
6
CONTINUOUS
62
6
100
AcDbLine
10
278.379455849648
20
183.382829000000
30
0.0
11
291.705318849648
21
196.708692000000
31
0.0
0
LINE
5
764
100
AcDbEntity
8
A-0
6
CONTINUOUS
62
6
100
AcDbLine
10
277.306321849648
20
185.138123000000
30
0.0
11
295.569021849648
21
203.400823000000
31
0.0
0
LINE
5
765
100
AcDbEntity
8
A-0
6
CONTINUOUS
62
6
100
AcDbLine
10
276.233188849648
20
186.893417000000
30
0.0
11
298.416107849648
21
209.076335000000
31
0.0
0
LINE
5
766
100
AcDbEntity
8
A-0
6
CONTINUOUS
62
6
100
AcDbLine
10
275.160055849648
20
188.648711000000
30
0.0
11
297.353493849648
21
210.842149000000
31
0.0
0
LINE
5
767
100
AcDbEntity
8
A-0
6
CONTINUOUS
62
6
100
AcDbLine
10
274.086921849648
20
190.404004000000
30
0.0
11
296.290880849648
21
212.607963000000
31
0.0
0
LINE
5
768
100
AcDbEntity
8
A-0
6
CONTINUOUS
62
6
100
AcDbLine
10
273.013788849648
20
192.159298000000
30
0.0
11
295.228266849648
21
214.373776000000
31
0.0
0
LINE
5
769
100
AcDbEntity
8
A-0
6
CONTINUOUS
62
6
100
AcDbLine
10
271.940654849648
20
193.914592000000
30
0.0
11
294.165653849648
21
216.139590000000
31
0.0
0
LINE
5
76a
100
AcDbEntity
8
A-0
6
CONTINUOUS
62
6
100
AcDbLine
10
270.867521849648
20
195.669886000000
30
0.0
11
293.103039849648
21
217.905404000000
31
0.0
0
LINE
5
76b
100
AcDbEntity
8
A-0
6
CONTINUOUS
62
6
100
AcDbLine
10
203.711083849648
20
131.341875000000
30
0.0
11
213.728155849648
21
141.358946000000
31
0.0
0
LINE
5
76c
100
AcDbEntity
8
A-0
6
CONTINUOUS
62
6
100
AcDbLine
10
269.794388849648
20
197.425179000000
30
0.0
11
292.040426849648
21
219.671217000000
31
0.0
0
LINE
5
76d
100
AcDbEntity
8
A-0
6
CONTINUOUS
62
6
100
AcDbLine
10
199.086682849648
20
129.545901000000
30
0.0
11
223.092542849648
21
153.551761000000
31
0.0
0
LINE
5
76e
100
AcDbEntity
8
A-0
6
CONTINUOUS
62
6
100
AcDbLine
10
268.721254849648
20
199.180473000000
30
0.0
11
290.977812849648
21
221.437031000000
31
0.0
0
LINE
5
76f
100
AcDbEntity
8
A-0
6
CONTINUOUS
62
6
100
AcDbLine
10
195.846241849648
20
129.133887000000
30
0.0
11
232.456929849648
21
165.744575000000
31
0.0
0
LINE
5
770
100
AcDbEntity
8
A-0
6
CONTINUOUS
62
6
100
AcDbLine
10
267.648121849648
20
200.935767000000
30
0.0
11
289.915199849648
21
223.202844000000
31
0.0
0
LINE
5
771
100
AcDbEntity
8
A-0
6
CONTINUOUS
62
6
100
AcDbLine
10
194.370540849648
20
130.486613000000
30
0.0
11
241.821316849648
21
177.937389000000
31
0.0
0
LINE
5
772
100
AcDbEntity
8
A-0
6
CONTINUOUS
62
6
100
AcDbLine
10
266.574988849648
20
202.691060000000
30
0.0
11
288.852585849648
21
224.968658000000
31
0.0
0
LINE
5
773
100
AcDbEntity
8
A-0
6
CONTINUOUS
62
6
100
AcDbLine
10
193.048486849648
20
131.992986000000
30
0.0
11
251.185703849648
21
190.130203000000
31
0.0
0
LINE
5
774
100
AcDbEntity
8
A-0
6
CONTINUOUS
62
6
100
AcDbLine
10
265.501854849648
20
204.446354000000
30
0.0
11
287.789972849648
21
226.734472000000
31
0.0
0
LINE
5
775
100
AcDbEntity
8
A-0
6
CONTINUOUS
62
6
100
AcDbLine
10
191.869974849648
20
133.642902000000
30
0.0
11
260.550090849648
21
202.323018000000
31
0.0
0
LINE
5
776
100
AcDbEntity
8
A-0
6
CONTINUOUS
62
6
100
AcDbLine
10
264.428721849648
20
206.201648000000
30
0.0
11
286.727358849648
21
228.500285000000
31
0.0
0
LINE
5
777
100
AcDbEntity
8
A-0
6
CONTINUOUS
62
6
100
AcDbLine
10
190.982093849648
20
135.583447000000
30
0.0
11
285.664745849648
21
230.266099000000
31
0.0
0
LINE
5
778
100
AcDbEntity
8
A-0
6
CONTINUOUS
62
6
100
AcDbLine
10
190.335595849648
20
137.765377000000
30
0.0
11
284.602131849648
21
232.031913000000
31
0.0
0
LINE
5
779
100
AcDbEntity
8
A-0
6
CONTINUOUS
62
6
100
AcDbLine
10
189.689097849648
20
139.947306000000
30
0.0
11
283.539518849648
21
233.797726000000
31
0.0
0
LINE
5
77a
100
AcDbEntity
8
A-0
6
CONTINUOUS
62
6
100
AcDbLine
10
190.372124849648
20
143.458760000000
30
0.0
11
282.422748849648
21
235.509384000000
31
0.0
0
LINE
5
77b
100
AcDbEntity
8
A-0
6
CONTINUOUS
62
6
100
AcDbLine
10
193.139317849648
20
149.054380000000
30
0.0
11
281.202642849648
21
237.117705000000
31
0.0
0
LINE
5
77c
100
AcDbEntity
8
A-0
6
CONTINUOUS
62
6
100
AcDbLine
10
199.972142849648
20
158.715632000000
30
0.0
11
279.982536849648
21
238.726026000000
31
0.0
0
LINE
5
77d
100
AcDbEntity
8
A-0
6
CONTINUOUS
62
6
100
AcDbLine
10
207.962449849648
20
169.534366000000
30
0.0
11
278.762431849648
21
240.334348000000
31
0.0
0
LINE
5
77e
100
AcDbEntity
8
A-0
6
CONTINUOUS
62
6
100
AcDbLine
10
215.952756849648
20
180.353100000000
30
0.0
11
277.536554849648
21
241.936898000000
31
0.0
0
LINE
5
77f
100
AcDbEntity
8
A-0
6
CONTINUOUS
62
6
100
AcDbLine
10
223.943062849648
20
191.171834000000
30
0.0
11
276.279475849648
21
243.508246000000
31
0.0
0
LINE
5
780
100
AcDbEntity
8
A-0
6
CONTINUOUS
62
6
100
AcDbLine
10
231.933369849648
20
201.990567000000
30
0.0
11
274.436397849648
21
244.493595000000
31
0.0
0
LINE
5
781
100
AcDbEntity
8
A-0
6
CONTINUOUS
62
6
100
AcDbLine
10
239.923676849648
20
212.809301000000
30
0.0
11
272.315076849648
21
245.200702000000
31
0.0
0
LINE
5
782
100
AcDbEntity
8
A-0
6
CONTINUOUS
62
6
100
AcDbLine
10
247.913982849648
20
223.628035000000
30
0.0
11
270.023269849648
21
245.737322000000
31
0.0
0
LINE
5
783
100
AcDbEntity
8
A-0
6
CONTINUOUS
62
6
100
AcDbLine
10
250.791612849648
20
229.334092000000
30
0.0
11
267.009364849648
21
245.551844000000
31
0.0
0
LINE
5
784
100
AcDbEntity
8
A-0
6
CONTINUOUS
62
6
100
AcDbLine
10
250.791612849648
20
232.162519000000
30
0.0
11
263.507502849648
21
244.878409000000
31
0.0
0
LINE
5
785
100
AcDbEntity
8
A-0
6
CONTINUOUS
62
6
100
AcDbLine
10
257.140266849648
20
241.339600000000
30
0.0
11
260.184658849648
21
244.383992000000
31
0.0
0
LINE
5
786
100
AcDbEntity
8
A-0
6
CONTINUOUS
62
6
100
AcDbLine
10
191.255191849648
20
134.661741000000
30
0.0
11
197.095205849648
21
128.821727000000
31
0.0
0
LINE
5
787
100
AcDbEntity
8
A-0
6
CONTINUOUS
62
6
100
AcDbLine
10
190.064274849648
20
138.681085000000
30
0.0
11
199.169385849648
21
129.575974000000
31
0.0
0
LINE
5
788
100
AcDbEntity
8
A-0
6
CONTINUOUS
62
6
100
AcDbLine
10
189.824949849648
20
141.748838000000
30
0.0
11
201.243565849648
21
130.330222000000
31
0.0
0
LINE
5
789
100
AcDbEntity
8
A-0
6
CONTINUOUS
62
6
100
AcDbLine
10
190.510628849648
20
143.891585000000
30
0.0
11
203.251734849648
21
131.150479000000
31
0.0
0
LINE
5
78a
100
AcDbEntity
8
A-0
6
CONTINUOUS
62
6
100
AcDbLine
10
191.196308849648
20
146.034333000000
30
0.0
11
205.248271849648
21
131.982370000000
31
0.0
0
LINE
5
78b
100
AcDbEntity
8
A-0
6
CONTINUOUS
62
6
100
AcDbLine
10
192.262072849648
20
147.796996000000
30
0.0
11
207.200020849648
21
132.859048000000
31
0.0
0
LINE
5
78c
100
AcDbEntity
8
A-0
6
CONTINUOUS
62
6
100
AcDbLine
10
193.424440849648
20
149.463055000000
30
0.0
11
208.428680849648
21
134.458814000000
31
0.0
0
LINE
5
78d
100
AcDbEntity
8
A-0
6
CONTINUOUS
62
6
100
AcDbLine
10
194.586807849648
20
151.129115000000
30
0.0
11
209.657341849648
21
136.058581000000
31
0.0
0
LINE
5
78e
100
AcDbEntity
8
A-0
6
CONTINUOUS
62
6
100
AcDbLine
10
195.749174849648
20
152.795175000000
30
0.0
11
210.886002849648
21
137.658347000000
31
0.0
0
LINE
5
78f
100
AcDbEntity
8
A-0
6
CONTINUOUS
62
6
100
AcDbLine
10
196.911542849648
20
154.461235000000
30
0.0
11
212.114663849648
21
139.258114000000
31
0.0
0
LINE
5
790
100
AcDbEntity
8
A-0
6
CONTINUOUS
62
6
100
AcDbLine
10
198.073909849648
20
156.127295000000
30
0.0
11
213.343323849648
21
140.857880000000
31
0.0
0
LINE
5
791
100
AcDbEntity
8
A-0
6
CONTINUOUS
62
6
100
AcDbLine
10
199.267743849648
20
157.761888000000
30
0.0
11
214.571984849648
21
142.457646000000
31
0.0
0
LINE
5
792
100
AcDbEntity
8
A-0
6
CONTINUOUS
62
6
100
AcDbLine
10
200.469293849648
20
159.388765000000
30
0.0
11
215.800645849648
21
144.057413000000
31
0.0
0
LINE
5
793
100
AcDbEntity
8
A-0
6
CONTINUOUS
62
6
100
AcDbLine
10
201.670843849648
20
161.015642000000
30
0.0
11
217.029306849648
21
145.657179000000
31
0.0
0
LINE
5
794
100
AcDbEntity
8
A-0
6
CONTINUOUS
62
6
100
AcDbLine
10
202.872392849648
20
162.642520000000
30
0.0
11
218.257966849648
21
147.256946000000
31
0.0
0
LINE
5
795
100
AcDbEntity
8
A-0
6
CONTINUOUS
62
6
100
AcDbLine
10
204.073942849648
20
164.269397000000
30
0.0
11
219.486627849648
21
148.856712000000
31
0.0
0
LINE
5
796
100
AcDbEntity
8
A-0
6
CONTINUOUS
62
6
100
AcDbLine
10
205.275492849648
20
165.896274000000
30
0.0
11
220.715288849648
21
150.456479000000
31
0.0
0
LINE
5
797
100
AcDbEntity
8
A-0
6
CONTINUOUS
62
6
100
AcDbLine
10
206.477042849648
20
167.523151000000
30
0.0
11
221.943948849648
21
152.056245000000
31
0.0
0
LINE
5
798
100
AcDbEntity
8
A-0
6
CONTINUOUS
62
6
100
AcDbLine
10
207.678592849648
20
169.150029000000
30
0.0
11
223.172609849648
21
153.656011000000
31
0.0
0
LINE
5
799
100
AcDbEntity
8
A-0
6
CONTINUOUS
62
6
100
AcDbLine
10
208.880142849648
20
170.776906000000
30
0.0
11
224.401270849648
21
155.255778000000
31
0.0
0
LINE
5
79a
100
AcDbEntity
8
A-0
6
CONTINUOUS
62
6
100
AcDbLine
10
210.081692849648
20
172.403783000000
30
0.0
11
225.629931849648
21
156.855544000000
31
0.0
0
LINE
5
79b
100
AcDbEntity
8
A-0
6
CONTINUOUS
62
6
100
AcDbLine
10
211.283242849648
20
174.030660000000
30
0.0
11
226.858591849648
21
158.455311000000
31
0.0
0
LINE
5
79c
100
AcDbEntity
8
A-0
6
CONTINUOUS
62
6
100
AcDbLine
10
212.484791849648
20
175.657538000000
30
0.0
11
228.087252849648
21
160.055077000000
31
0.0
0
LINE
5
79d
100
AcDbEntity
8
A-0
6
CONTINUOUS
62
6
100
AcDbLine
10
213.686341849648
20
177.284415000000
30
0.0
11
229.315913849648
21
161.654843000000
31
0.0
0
LINE
5
79e
100
AcDbEntity
8
A-0
6
CONTINUOUS
62
6
100
AcDbLine
10
214.887891849648
20
178.911292000000
30
0.0
11
230.544573849648
21
163.254610000000
31
0.0
0
LINE
5
79f
100
AcDbEntity
8
A-0
6
CONTINUOUS
62
6
100
AcDbLine
10
216.089441849648
20
180.538169000000
30
0.0
11
231.773234849648
21
164.854376000000
31
0.0
0
LINE
5
7a0
100
AcDbEntity
8
A-0
6
CONTINUOUS
62
6
100
AcDbLine
10
217.290991849648
20
182.165047000000
30
0.0
11
233.001895849648
21
166.454143000000
31
0.0
0
LINE
5
7a1
100
AcDbEntity
8
A-0
6
CONTINUOUS
62
6
100
AcDbLine
10
218.492541849648
20
183.791924000000
30
0.0
11
234.230556849648
21
168.053909000000
31
0.0
0
LINE
5
7a2
100
AcDbEntity
8
A-0
6
CONTINUOUS
62
6
100
AcDbLine
10
219.694091849648
20
185.418801000000
30
0.0
11
235.459216849648
21
169.653675000000
31
0.0
0
LINE
5
7a3
100
AcDbEntity
8
A-0
6
CONTINUOUS
62
6
100
AcDbLine
10
220.895640849648
20
187.045678000000
30
0.0
11
236.687877849648
21
171.253442000000
31
0.0
0
LINE
5
7a4
100
AcDbEntity
8
A-0
6
CONTINUOUS
62
6
100
AcDbLine
10
222.097190849648
20
188.672556000000
30
0.0
11
237.916538849648
21
172.853208000000
31
0.0
0
LINE
5
7a5
100
AcDbEntity
8
A-0
6
CONTINUOUS
62
6
100
AcDbLine
10
223.298740849648
20
190.299433000000
30
0.0
11
239.145198849648
21
174.452975000000
31
0.0
0
LINE
5
7a6
100
AcDbEntity
8
A-0
6
CONTINUOUS
62
6
100
AcDbLine
10
224.500290849648
20
191.926310000000
30
0.0
11
240.373859849648
21
176.052741000000
31
0.0
0
LINE
5
7a7
100
AcDbEntity
8
A-0
6
CONTINUOUS
62
6
100
AcDbLine
10
225.701840849648
20
193.553187000000
30
0.0
11
241.602520849648
21
177.652507000000
31
0.0
0
LINE
5
7a8
100
AcDbEntity
8
A-0
6
CONTINUOUS
62
6
100
AcDbLine
10
226.903390849648
20
195.180065000000
30
0.0
11
242.831181849648
21
179.252274000000
31
0.0
0
LINE
5
7a9
100
AcDbEntity
8
A-0
6
CONTINUOUS
62
6
100
AcDbLine
10
228.104940849648
20
196.806942000000
30
0.0
11
244.059841849648
21
180.852040000000
31
0.0
0
LINE
5
7aa
100
AcDbEntity
8
A-0
6
CONTINUOUS
62
6
100
AcDbLine
10
229.306490849648
20
198.433819000000
30
0.0
11
245.288502849648
21
182.451807000000
31
0.0
0
LINE
5
7ab
100
AcDbEntity
8
A-0
6
CONTINUOUS
62
6
100
AcDbLine
10
230.508039849648
20
200.060696000000
30
0.0
11
246.517163849648
21
184.051573000000
31
0.0
0
LINE
5
7ac
100
AcDbEntity
8
A-0
6
CONTINUOUS
62
6
100
AcDbLine
10
231.709589849648
20
201.687574000000
30
0.0
11
247.745823849648
21
185.651339000000
31
0.0
0
LINE
5
7ad
100
AcDbEntity
8
A-0
6
CONTINUOUS
62
6
100
AcDbLine
10
232.911139849648
20
203.314451000000
30
0.0
11
248.974484849648
21
187.251106000000
31
0.0
0
LINE
5
7ae
100
AcDbEntity
8
A-0
6
CONTINUOUS
62
6
100
AcDbLine
10
234.112689849648
20
204.941328000000
30
0.0
11
250.203145849648
21
188.850872000000
31
0.0
0
LINE
5
7af
100
AcDbEntity
8
A-0
6
CONTINUOUS
62
6
100
AcDbLine
10
235.314239849648
20
206.568205000000
30
0.0
11
251.431806849648
21
190.450639000000
31
0.0
0
LINE
5
7b0
100
AcDbEntity
8
A-0
6
CONTINUOUS
62
6
100
AcDbLine
10
236.515789849648
20
208.195083000000
30
0.0
11
252.660466849648
21
192.050405000000
31
0.0
0
LINE
5
7b1
100
AcDbEntity
8
A-0
6
CONTINUOUS
62
6
100
AcDbLine
10
299.003035849648
20
145.707836000000
30
0.0
11
309.972483849648
21
134.738389000000
31
0.0
0
LINE
5
7b2
100
AcDbEntity
8
A-0
6
CONTINUOUS
62
6
100
AcDbLine
10
237.717339849648
20
209.821960000000
30
0.0
11
253.889127849648
21
193.650171000000
31
0.0
0
LINE
5
7b3
100
AcDbEntity
8
A-0
6
CONTINUOUS
62
6
100
AcDbLine
10
298.820556849648
20
148.718743000000
30
0.0
11
314.049142849648
21
133.490157000000
31
0.0
0
LINE
5
7b4
100
AcDbEntity
8
A-0
6
CONTINUOUS
62
6
100
AcDbLine
10
238.918888849648
20
211.448837000000
30
0.0
11
255.117788849648
21
195.249938000000
31
0.0
0
LINE
5
7b5
100
AcDbEntity
8
A-0
6
CONTINUOUS
62
6
100
AcDbLine
10
296.304685849648
20
154.063040000000
30
0.0
11
316.133246849648
21
134.234480000000
31
0.0
0
LINE
5
7b6
100
AcDbEntity
8
A-0
6
CONTINUOUS
62
6
100
AcDbLine
10
240.120438849648
20
213.075714000000
30
0.0
11
256.346449849648
21
196.849704000000
31
0.0
0
LINE
5
7b7
100
AcDbEntity
8
A-0
6
CONTINUOUS
62
6
100
AcDbLine
10
291.855175849648
20
161.340978000000
30
0.0
11
318.217350849648
21
134.978803000000
31
0.0
0
LINE
5
7b8
100
AcDbEntity
8
A-0
6
CONTINUOUS
62
6
100
AcDbLine
10
241.321988849648
20
214.702592000000
30
0.0
11
257.575109849648
21
198.449471000000
31
0.0
0
LINE
5
7b9
100
AcDbEntity
8
A-0
6
CONTINUOUS
62
6
100
AcDbLine
10
287.405664849648
20
168.618916000000
30
0.0
11
320.315349849648
21
135.709231000000
31
0.0
0
LINE
5
7ba
100
AcDbEntity
8
A-0
6
CONTINUOUS
62
6
100
AcDbLine
10
242.523538849648
20
216.329469000000
30
0.0
11
258.803770849648
21
200.049237000000
31
0.0
0
LINE
5
7bb
100
AcDbEntity
8
A-0
6
CONTINUOUS
62
6
100
AcDbLine
10
282.956154849648
20
175.896853000000
30
0.0
11
322.491062849648
21
136.361945000000
31
0.0
0
LINE
5
7bc
100
AcDbEntity
8
A-0
6
CONTINUOUS
62
6
100
AcDbLine
10
243.725088849648
20
217.956346000000
30
0.0
11
260.032431849648
21
201.649003000000
31
0.0
0
LINE
5
7bd
100
AcDbEntity
8
A-0
6
CONTINUOUS
62
6
100
AcDbLine
10
278.506643849648
20
183.174791000000
30
0.0
11
324.666775849648
21
137.014659000000
31
0.0
0
LINE
5
7be
100
AcDbEntity
8
A-0
6
CONTINUOUS
62
6
100
AcDbLine
10
244.926638849648
20
219.583223000000
30
0.0
11
261.261091849648
21
203.248770000000
31
0.0
0
LINE
5
7bf
100
AcDbEntity
8
A-0
6
CONTINUOUS
62
6
100
AcDbLine
10
274.057133849648
20
190.452728000000
30
0.0
11
326.842488849648
21
137.667373000000
31
0.0
0
LINE
5
7c0
100
AcDbEntity
8
A-0
6
CONTINUOUS
62
6
100
AcDbLine
10
246.128188849648
20
221.210101000000
30
0.0
11
262.489752849648
21
204.848536000000
31
0.0
0
LINE
5
7c1
100
AcDbEntity
8
A-0
6
CONTINUOUS
62
6
100
AcDbLine
10
269.607622849648
20
197.730666000000
30
0.0
11
329.018201849648
21
138.320087000000
31
0.0
0
LINE
5
7c2
100
AcDbEntity
8
A-0
6
CONTINUOUS
62
6
100
AcDbLine
10
247.329738849648
20
222.836978000000
30
0.0
11
263.718413849648
21
206.448303000000
31
0.0
0
LINE
5
7c3
100
AcDbEntity
8
A-0
6
CONTINUOUS
62
6
100
AcDbLine
10
265.158112849648
20
205.008604000000
30
0.0
11
330.997527849648
21
139.169189000000
31
0.0
0
LINE
5
7c4
100
AcDbEntity
8
A-0
6
CONTINUOUS
62
6
100
AcDbLine
10
248.531287849648
20
224.463855000000
30
0.0
11
332.181520849648
21
140.813623000000
31
0.0
0
LINE
5
7c5
100
AcDbEntity
8
A-0
6
CONTINUOUS
62
6
100
AcDbLine
10
249.732837849648
20
226.090732000000
30
0.0
11
333.365513849648
21
142.458057000000
31
0.0
0
LINE
5
7c6
100
AcDbEntity
8
A-0
6
CONTINUOUS
62
6
100
AcDbLine
10
250.791612849648
20
227.860385000000
30
0.0
11
288.132173849648
21
190.519824000000
31
0.0
0
LINE
5
7c7
100
AcDbEntity
8
A-0
6
CONTINUOUS
62
6
100
AcDbLine
10
288.841490849648
20
189.810507000000
30
0.0
11
334.140674849648
21
144.511323000000
31
0.0
0
LINE
5
7c8
100
AcDbEntity
8
A-0
6
CONTINUOUS
62
6
100
AcDbLine
10
250.791612849648
20
230.688812000000
30
0.0
11
289.167449849648
21
192.312975000000
31
0.0
0
LINE
5
7c9
100
AcDbEntity
8
A-0
6
CONTINUOUS
62
6
100
AcDbLine
10
291.669917849648
20
189.810507000000
30
0.0
11
333.466822849648
21
148.013602000000
31
0.0
0
LINE
5
7ca
100
AcDbEntity
8
A-0
6
CONTINUOUS
62
6
100
AcDbLine
10
251.056636849648
20
233.252215000000
30
0.0
11
290.202725849648
21
194.106126000000
31
0.0
0
LINE
5
7cb
100
AcDbEntity
8
A-0
6
CONTINUOUS
62
6
100
AcDbLine
10
294.498344849648
20
189.810507000000
30
0.0
11
330.926942849648
21
153.381909000000
31
0.0
0
LINE
5
7cc
100
AcDbEntity
8
A-0
6
CONTINUOUS
62
6
100
AcDbLine
10
251.905164849648
20
235.232114000000
30
0.0
11
291.238001849648
21
195.899277000000
31
0.0
0
LINE
5
7cd
100
AcDbEntity
8
A-0
6
CONTINUOUS
62
6
100
AcDbLine
10
297.326771849648
20
189.810507000000
30
0.0
11
327.032296849648
21
160.104982000000
31
0.0
0
LINE
5
7ce
100
AcDbEntity
8
A-0
6
CONTINUOUS
62
6
100
AcDbLine
10
253.076999849648
20
236.888707000000
30
0.0
11
292.273278849648
21
197.692428000000
31
0.0
0
LINE
5
7cf
100
AcDbEntity
8
A-0
6
CONTINUOUS
62
6
100
AcDbLine
10
300.155199849648
20
189.810507000000
30
0.0
11
323.137651849648
21
166.828054000000
31
0.0
0
LINE
5
7d0
100
AcDbEntity
8
A-0
6
CONTINUOUS
62
6
100
AcDbLine
10
254.408023849648
20
238.386109000000
30
0.0
11
293.308554849648
21
199.485579000000
31
0.0
0
LINE
5
7d1
100
AcDbEntity
8
A-0
6
CONTINUOUS
62
6
100
AcDbLine
10
302.983626849648
20
189.810507000000
30
0.0
11
319.243006849648
21
173.551127000000
31
0.0
0
LINE
5
7d2
100
AcDbEntity
8
A-0
6
CONTINUOUS
62
6
100
AcDbLine
10
255.739048849648
20
239.883512000000
30
0.0
11
294.343830849648
21
201.278730000000
31
0.0
0
LINE
5
7d3
100
AcDbEntity
8
A-0
6
CONTINUOUS
62
6
100
AcDbLine
10
305.812053849648
20
189.810507000000
30
0.0
11
315.348360849648
21
180.274200000000
31
0.0
0
LINE
5
7d4
100
AcDbEntity
8
A-0
6
CONTINUOUS
62
6
100
AcDbLine
10
257.128452849648
20
241.322535000000
30
0.0
11
295.379106849648
21
203.071881000000
31
0.0
0
LINE
5
7d5
100
AcDbEntity
8
A-0
6
CONTINUOUS
62
6
100
AcDbLine
10
308.640480849648
20
189.810507000000
30
0.0
11
311.453715849648
21
186.997272000000
31
0.0
0
LINE
5
7d6
100
AcDbEntity
8
A-0
6
CONTINUOUS
62
6
100
AcDbLine
10
258.285536849648
20
242.993878000000
30
0.0
11
296.414382849648
21
204.865032000000
31
0.0
0
LINE
5
7d7
100
AcDbEntity
8
A-0
6
CONTINUOUS
62
6
100
AcDbLine
10
259.778062849648
20
244.329779000000
30
0.0
11
297.449659849648
21
206.658182000000
31
0.0
0
LINE
5
7d8
100
AcDbEntity
8
A-0
6
CONTINUOUS
62
6
100
AcDbLine
10
262.273733849648
20
244.662535000000
30
0.0
11
298.484935849648
21
208.451333000000
31
0.0
0
LINE
5
7d9
100
AcDbEntity
8
A-0
6
CONTINUOUS
62
6
100
AcDbLine
10
264.663902849648
20
245.100793000000
30
0.0
11
294.982480849648
21
214.782216000000
31
0.0
0
LINE
5
7da
100
AcDbEntity
8
A-0
6
CONTINUOUS
62
6
100
AcDbLine
10
267.036131849648
20
245.556991000000
30
0.0
11
290.708412849648
21
221.884710000000
31
0.0
0
LINE
5
7db
100
AcDbEntity
8
A-0
6
CONTINUOUS
62
6
100
AcDbLine
10
269.646556849648
20
245.774993000000
30
0.0
11
286.434344849648
21
228.987205000000
31
0.0
0
LINE
5
7dc
100
AcDbEntity
8
A-0
6
CONTINUOUS
62
6
100
AcDbLine
10
273.416374849648
20
244.833603000000
30
0.0
11
281.423806849648
21
236.826170000000
31
0.0
0
LINE
5
7dd
100
AcDbEntity
8
A-0
6
CONTINUOUS
62
6
100
AcDbLine
10
341.032464849648
20
220.387181000000
30
0.0
11
341.032464849648
21
249.627417000000
31
0.0
0
LINE
5
7de
100
AcDbEntity
8
A-0
6
CONTINUOUS
62
6
100
AcDbLine
10
339.032464849648
20
220.806019000000
30
0.0
11
339.032464849648
21
249.208579000000
31
0.0
0
LINE
5
7df
100
AcDbEntity
8
A-0
6
CONTINUOUS
62
6
100
AcDbLine
10
337.032464849648
20
221.531216000000
30
0.0
11
337.032464849648
21
248.483382000000
31
0.0
0
LINE
5
7e0
100
AcDbEntity
8
A-0
6
CONTINUOUS
62
6
100
AcDbLine
10
335.032464849648
20
222.616443000000
30
0.0
11
335.032464849648
21
247.398155000000
31
0.0
0
LINE
5
7e1
100
AcDbEntity
8
A-0
6
CONTINUOUS
62
6
100
AcDbLine
10
333.032464849648
20
224.169320000000
30
0.0
11
333.032464849648
21
245.845278000000
31
0.0
0
LINE
5
7e2
100
AcDbEntity
8
A-0
6
CONTINUOUS
62
6
100
AcDbLine
10
331.032464849648
20
226.440487000000
30
0.0
11
331.032464849648
21
243.574111000000
31
0.0
0
LINE
5
7e3
100
AcDbEntity
8
A-0
6
CONTINUOUS
62
6
100
AcDbLine
10
329.032464849648
20
230.390075000000
30
0.0
11
329.032464849648
21
239.624523000000
31
0.0
0
LINE
5
7e4
100
AcDbEntity
8
A-0
6
CONTINUOUS
62
6
100
AcDbLine
10
287.942053849648
20
190.190526000000
30
0.0
11
330.503244849648
21
190.190526000000
31
0.0
0
LINE
5
7e5
100
AcDbEntity
8
A-0
6
CONTINUOUS
62
6
100
AcDbLine
10
289.096753849648
20
192.190526000000
30
0.0
11
329.348544849648
21
192.190526000000
31
0.0
0
LINE
5
7e6
100
AcDbEntity
8
A-0
6
CONTINUOUS
62
6
100
AcDbLine
10
290.251454849648
20
194.190526000000
30
0.0
11
328.193843849648
21
194.190526000000
31
0.0
0
LINE
5
7e7
100
AcDbEntity
8
A-0
6
CONTINUOUS
62
6
100
AcDbLine
10
291.406154849648
20
196.190526000000
30
0.0
11
327.039143849648
21
196.190526000000
31
0.0
0
LINE
5
7e8
100
AcDbEntity
8
A-0
6
CONTINUOUS
62
6
100
AcDbLine
10
292.560855849648
20
198.190526000000
30
0.0
11
325.884442849648
21
198.190526000000
31
0.0
0
LINE
5
7e9
100
AcDbEntity
8
A-0
6
CONTINUOUS
62
6
100
AcDbLine
10
293.715556849648
20
200.190526000000
30
0.0
11
324.729741849648
21
200.190526000000
31
0.0
0
LINE
5
7ea
100
AcDbEntity
8
A-0
6
CONTINUOUS
62
6
100
AcDbLine
10
294.870256849648
20
202.190526000000
30
0.0
11
323.575041849648
21
202.190526000000
31
0.0
0
LINE
5
7eb
100
AcDbEntity
8
A-0
6
CONTINUOUS
62
6
100
AcDbLine
10
296.024957849648
20
204.190526000000
30
0.0
11
322.420340849648
21
204.190526000000
31
0.0
0
LINE
5
7ec
100
AcDbEntity
8
A-0
6
CONTINUOUS
62
6
100
AcDbLine
10
297.179657849648
20
206.190526000000
30
0.0
11
321.265640849648
21
206.190526000000
31
0.0
0
LINE
5
7ed
100
AcDbEntity
8
A-0
6
CONTINUOUS
62
6
100
AcDbLine
10
298.334358849648
20
208.190526000000
30
0.0
11
320.110939849648
21
208.190526000000
31
0.0
0
LINE
5
7ee
100
AcDbEntity
8
A-0
6
CONTINUOUS
62
6
100
AcDbLine
10
299.489058849648
20
210.190526000000
30
0.0
11
318.956239849648
21
210.190526000000
31
0.0
0
LINE
5
7ef
100
AcDbEntity
8
A-0
6
CONTINUOUS
62
6
100
AcDbLine
10
300.643759849648
20
212.190526000000
30
0.0
11
317.801538849648
21
212.190526000000
31
0.0
0
LINE
5
7f0
100
AcDbEntity
8
A-0
6
CONTINUOUS
62
6
100
AcDbLine
10
301.798459849648
20
214.190526000000
30
0.0
11
316.646838849648
21
214.190526000000
31
0.0
0
LINE
5
7f1
100
AcDbEntity
8
A-0
6
CONTINUOUS
62
6
100
AcDbLine
10
302.953160849648
20
216.190526000000
30
0.0
11
315.492137849648
21
216.190526000000
31
0.0
0
LINE
5
7f2
100
AcDbEntity
8
A-0
6
CONTINUOUS
62
6
100
AcDbLine
10
304.107860849648
20
218.190526000000
30
0.0
11
314.337437849648
21
218.190526000000
31
0.0
0
LINE
5
7f3
100
AcDbEntity
8
A-0
6
CONTINUOUS
62
6
100
AcDbLine
10
305.262561849648
20
220.190526000000
30
0.0
11
313.182736849648
21
220.190526000000
31
0.0
0
LINE
5
7f4
100
AcDbEntity
8
A-0
6
CONTINUOUS
62
6
100
AcDbLine
10
306.417261849648
20
222.190526000000
30
0.0
11
312.028036849648
21
222.190526000000
31
0.0
0
LINE
5
7f5
100
AcDbEntity
8
A-0
6
CONTINUOUS
62
6
100
AcDbLine
10
307.571962849648
20
224.190526000000
30
0.0
11
310.873335849648
21
224.190526000000
31
0.0
0
LINE
5
7f6
100
AcDbEntity
8
A-0
6
CONTINUOUS
62
6
100
AcDbLine
10
308.726663849648
20
226.190526000000
30
0.0
11
309.718634849648
21
226.190526000000
31
0.0
0
LINE
5
7f7
100
AcDbEntity
8
A-0
6
CONTINUOUS
62
6
100
AcDbLine
10
329.032464849648
20
189.810507000000
30
0.0
11
329.032464849648
21
192.737992000000
31
0.0
0
LINE
5
7f8
100
AcDbEntity
8
A-0
6
CONTINUOUS
62
6
100
AcDbLine
10
327.032464849648
20
189.810507000000
30
0.0
11
327.032464849648
21
196.202094000000
31
0.0
0
LINE
5
7f9
100
AcDbEntity
8
A-0
6
CONTINUOUS
62
6
100
AcDbLine
10
325.032464849648
20
189.810507000000
30
0.0
11
325.032464849648
21
199.666196000000
31
0.0
0
LINE
5
7fa
100
AcDbEntity
8
A-0
6
CONTINUOUS
62
6
100
AcDbLine
10
323.032464849648
20
189.810507000000
30
0.0
11
323.032464849648
21
203.130297000000
31
0.0
0
LINE
5
7fb
100
AcDbEntity
8
A-0
6
CONTINUOUS
62
6
100
AcDbLine
10
321.032464849648
20
189.810507000000
30
0.0
11
321.032464849648
21
206.594399000000
31
0.0
0
LINE
5
7fc
100
AcDbEntity
8
A-0
6
CONTINUOUS
62
6
100
AcDbLine
10
319.032464849648
20
189.810507000000
30
0.0
11
319.032464849648
21
210.058500000000
31
0.0
0
LINE
5
7fd
100
AcDbEntity
8
A-0
6
CONTINUOUS
62
6
100
AcDbLine
10
317.032464849648
20
189.810507000000
30
0.0
11
317.032464849648
21
213.522602000000
31
0.0
0
LINE
5
7fe
100
AcDbEntity
8
A-0
6
CONTINUOUS
62
6
100
AcDbLine
10
315.032464849648
20
189.810507000000
30
0.0
11
315.032464849648
21
216.986704000000
31
0.0
0
LINE
5
7ff
100
AcDbEntity
8
A-0
6
CONTINUOUS
62
6
100
AcDbLine
10
313.032464849648
20
189.810507000000
30
0.0
11
313.032464849648
21
220.450805000000
31
0.0
0
LINE
5
800
100
AcDbEntity
8
A-0
6
CONTINUOUS
62
6
100
AcDbLine
10
311.032464849648
20
189.810507000000
30
0.0
11
311.032464849648
21
223.914907000000
31
0.0
0
LINE
5
801
100
AcDbEntity
8
A-0
6
CONTINUOUS
62
6
100
AcDbLine
10
309.032464849648
20
189.810507000000
30
0.0
11
309.032464849648
21
226.720190000000
31
0.0
0
LINE
5
802
100
AcDbEntity
8
A-0
6
CONTINUOUS
62
6
100
AcDbLine
10
307.032464849648
20
189.810507000000
30
0.0
11
307.032464849648
21
223.256088000000
31
0.0
0
LINE
5
803
100
AcDbEntity
8
A-0
6
CONTINUOUS
62
6
100
AcDbLine
10
305.032464849648
20
189.810507000000
30
0.0
11
305.032464849648
21
219.791987000000
31
0.0
0
LINE
5
804
100
AcDbEntity
8
A-0
6
CONTINUOUS
62
6
100
AcDbLine
10
303.032464849648
20
189.810507000000
30
0.0
11
303.032464849648
21
216.327885000000
31
0.0
0
LINE
5
805
100
AcDbEntity
8
A-0
6
CONTINUOUS
62
6
100
AcDbLine
10
301.032464849648
20
189.810507000000
30
0.0
11
301.032464849648
21
212.863784000000
31
0.0
0
LINE
5
806
100
AcDbEntity
8
A-0
6
CONTINUOUS
62
6
100
AcDbLine
10
299.032464849648
20
189.810507000000
30
0.0
11
299.032464849648
21
209.399682000000
31
0.0
0
LINE
5
807
100
AcDbEntity
8
A-0
6
CONTINUOUS
62
6
100
AcDbLine
10
297.032464849648
20
189.810507000000
30
0.0
11
297.032464849648
21
205.935580000000
31
0.0
0
LINE
5
808
100
AcDbEntity
8
A-0
6
CONTINUOUS
62
6
100
AcDbLine
10
295.032464849648
20
189.810507000000
30
0.0
11
295.032464849648
21
202.471479000000
31
0.0
0
LINE
5
809
100
AcDbEntity
8
A-0
6
CONTINUOUS
62
6
100
AcDbLine
10
293.032464849648
20
189.810507000000
30
0.0
11
293.032464849648
21
199.007377000000
31
0.0
0
LINE
5
80a
100
AcDbEntity
8
A-0
6
CONTINUOUS
62
6
100
AcDbLine
10
291.032464849648
20
189.810507000000
30
0.0
11
291.032464849648
21
195.543275000000
31
0.0
0
LINE
5
80b
100
AcDbEntity
8
A-0
6
CONTINUOUS
62
6
100
AcDbLine
10
289.032464849648
20
189.810507000000
30
0.0
11
289.032464849648
21
192.079174000000
31
0.0
0
LINE
5
80c
100
AcDbEntity
8
B-0
6
CONTINUOUS
62
6
100
AcDbLine
10
1599.042087849648
20
211.675609000000
30
0.0
11
1599.042087849648
21
99.175609000000
31
0.0
0
LINE
5
80d
100
AcDbEntity
8
B-0
6
CONTINUOUS
62
6
100
AcDbLine
10
1749.042087849648
20
211.675609000000
30
0.0
11
1749.042087849648
21
99.175609000000
31
0.0
0
LINE
5
80e
100
AcDbEntity
8
B-0
6
CONTINUOUS
62
6
100
AcDbLine
10
2049.042087849648
20
181.675609000000
30
0.0
11
1399.042087849648
21
181.675609000000
31
0.0
0
LINE
5
80f
100
AcDbEntity
8
B-0
6
CONTINUOUS
62
6
100
AcDbLine
10
1849.042087849648
20
279.175609000000
30
0.0
11
1849.042087849648
21
99.175609000000
31
0.0
0
LINE
5
810
100
AcDbEntity
8
B-0
6
CONTINUOUS
62
6
100
AcDbLine
10
1949.042087849648
20
279.175609000000
30
0.0
11
1949.042087849648
21
99.175609000000
31
0.0
0
LINE
5
811
100
AcDbEntity
8
B-0
6
CONTINUOUS
62
6
100
AcDbLine
10
2049.042087849648
20
245.425609000000
30
0.0
11
1949.042087849648
21
245.425609000000
31
0.0
0
LINE
5
812
100
AcDbEntity
8
B-0
6
CONTINUOUS
62
6
100
AcDbLine
10
2049.042087849648
20
211.675609000000
30
0.0
11
1399.042087849648
21
211.675609000000
31
0.0
0
CIRCLE
5
813
100
AcDbEntity
8
3-0
6
CONTINUOUS
62
2
100
AcDbCircle
10
1874.042087849648
20
245.425609000000
30
0.0
40
20.000000000000
0
CIRCLE
5
814
100
AcDbEntity
8
3-0
6
CONTINUOUS
62
2
100
AcDbCircle
10
1874.042087849648
20
245.425609000000
30
0.0
40
10.000000000000
0
LINE
5
815
100
AcDbEntity
8
D-0
6
CENTER2
62
16
100
AcDbLine
10
1874.042087849648
20
270.425609000000
30
0.0
11
1874.042087849648
21
220.425609000000
31
0.0
0
LINE
5
816
100
AcDbEntity
8
3-0
6
CONTINUOUS
62
2
100
AcDbLine
10
1904.042087849648
20
255.425609000000
30
0.0
11
1939.042087849648
21
265.425609000000
31
0.0
0
LINE
5
817
100
AcDbEntity
8
3-0
6
CONTINUOUS
62
2
100
AcDbLine
10
1939.042087849648
20
265.425609000000
30
0.0
11
1939.042087849648
21
225.425609000000
31
0.0
0
LINE
5
818
100
AcDbEntity
8
3-0
6
CONTINUOUS
62
2
100
AcDbLine
10
1904.042087849648
20
235.425609000000
30
0.0
11
1939.042087849648
21
225.425609000000
31
0.0
0
LINE
5
819
100
AcDbEntity
8
3-0
6
CONTINUOUS
62
2
100
AcDbLine
10
1904.042087849648
20
255.425609000000
30
0.0
11
1904.042087849648
21
235.425609000000
31
0.0
0
LINE
5
81a
100
AcDbEntity
8
D-0
6
CENTER2
62
16
100
AcDbLine
10
1849.042087849648
20
245.425609000000
30
0.0
11
1944.042087849648
21
245.425609000000
31
0.0
0
LINE
5
81b
100
AcDbEntity
8
B-0
6
CONTINUOUS
62
6
100
AcDbLine
10
1399.042087849648
20
189.175609000000
30
0.0
11
724.576518849648
21
189.175609000000
31
0.0
0
LINE
5
81c
100
AcDbEntity
8
B-0
6
CONTINUOUS
62
6
100
AcDbLine
10
724.576518849648
20
99.175609000000
30
0.0
11
724.576518849648
21
279.175609000000
31
0.0
0
TEXT
5
81d
100
AcDbEntity
8
E-0
62
4
100
AcDbText
10
734.577
20
252.477
30
0.0
40
25.600
1
品番
41
1.000
50
0.000
100
AcDbText
0
TEXT
5
81e
100
AcDbEntity
8
E-0
62
4
100
AcDbText
10
734.577
20
162.516
30
0.0
40
25.600
1
名称
41
1.000
50
0.000
100
AcDbText
0
TEXT
5
81f
100
AcDbEntity
8
E-0
62
4
100
AcDbText
10
1877.449
20
183.593
30
0.0
40
25.600
1
検図
41
1.000
50
0.000
100
AcDbText
0
LINE
5
820
100
AcDbEntity
8
B-0
6
CONTINUOUS
62
6
100
AcDbLine
10
124.576518849648
20
279.175609000000
30
0.0
11
124.576518849648
21
99.175609000000
31
0.0
0
TEXT
5
821
100
AcDbEntity
8
E-0
62
4
100
AcDbText
10
1977.709
20
249.741
30
0.0
40
25.600
1
単位
41
1.000
50
0.000
100
AcDbText
0
TEXT
5
822
100
AcDbEntity
8
E-0
62
4
100
AcDbText
10
1970.471
20
219.324
30
0.0
40
25.600
1
mm
41
1.000
50
0.000
100
AcDbText
0
TEXT
5
823
100
AcDbEntity
8
E-0
62
4
100
AcDbText
10
1611.566
20
127.866
30
0.0
40
25.600
1
S=1：10
41
1.000
50
0.000
100
AcDbText
0
TEXT
5
824
100
AcDbEntity
8
E-0
62
4
100
AcDbText
10
1431.423
20
127.866
30
0.0
40
25.600
1
13.10.09
41
1.000
50
0.000
100
AcDbText
0
TEXT
5
825
100
AcDbEntity
8
E-0
62
4
100
AcDbText
10
1778.375
20
127.866
30
0.0
40
25.600
1
竹内
41
1.000
50
0.000
100
AcDbText
0
TEXT
5
826
100
AcDbEntity
8
E-0
62
4
100
AcDbText
10
1476.375
20
184.116
30
0.0
40
25.600
1
日付
41
1.000
50
0.000
100
AcDbText
0
TEXT
5
827
100
AcDbEntity
8
E-0
62
4
100
AcDbText
10
1628.328
20
184.116
30
0.0
40
25.600
1
SCALE
41
1.000
50
0.000
100
AcDbText
0
TEXT
5
828
100
AcDbEntity
8
E-0
62
4
100
AcDbText
10
1778.375
20
184.116
30
0.0
40
25.600
1
製図
41
1.000
50
0.000
100
AcDbText
0
TEXT
5
829
100
AcDbEntity
8
E-0
62
4
100
AcDbText
10
871.714
20
119.056
30
0.0
40
51.200
1
NARL ROUND
41
1.000
50
0.000
100
AcDbText
0
LINE
5
82a
100
AcDbEntity
8
E-0
6
CONTINUOUS
62
4
100
AcDbLine
10
602.853615849648
20
1958.130426000000
30
0.0
11
802.853615849648
21
1958.130426000000
31
0.0
0
LINE
5
82b
100
AcDbEntity
8
E-0
6
CONTINUOUS
62
4
100
AcDbLine
10
802.853615849648
20
1958.130426000000
30
0.0
11
802.853615849648
21
2008.130426000000
31
0.0
0
LINE
5
82c
100
AcDbEntity
8
E-0
6
CONTINUOUS
62
4
100
AcDbLine
10
802.853615849648
20
2008.130426000000
30
0.0
11
602.853615849648
21
2008.130426000000
31
0.0
0
LINE
5
82d
100
AcDbEntity
8
E-0
6
CONTINUOUS
62
4
100
AcDbLine
10
602.853615849648
20
2008.130426000000
30
0.0
11
602.853615849648
21
1958.130426000000
31
0.0
0
TEXT
5
82e
100
AcDbEntity
8
E-0
62
4
100
AcDbText
10
652.854
20
1964.290
30
0.0
40
38.400
1
平面図
41
1.000
50
0.000
100
AcDbText
0
LINE
5
82f
100
AcDbEntity
8
E-0
6
CONTINUOUS
62
4
100
AcDbLine
10
602.853615849648
20
897.475486000000
30
0.0
11
802.853615849648
21
897.475486000000
31
0.0
0
LINE
5
830
100
AcDbEntity
8
E-0
6
CONTINUOUS
62
4
100
AcDbLine
10
802.853615849648
20
897.475486000000
30
0.0
11
802.853615849648
21
947.475486000000
31
0.0
0
LINE
5
831
100
AcDbEntity
8
E-0
6
CONTINUOUS
62
4
100
AcDbLine
10
802.853615849648
20
947.475486000000
30
0.0
11
602.853615849648
21
947.475486000000
31
0.0
0
LINE
5
832
100
AcDbEntity
8
E-0
6
CONTINUOUS
62
4
100
AcDbLine
10
602.853615849648
20
947.475486000000
30
0.0
11
602.853615849648
21
897.475486000000
31
0.0
0
TEXT
5
833
100
AcDbEntity
8
E-0
62
4
100
AcDbText
10
652.854
20
903.635
30
0.0
40
38.400
1
立面図
41
1.000
50
0.000
100
AcDbText
0
LINE
5
834
100
AcDbEntity
8
E-0
6
CONTINUOUS
62
4
100
AcDbLine
10
1428.173848849648
20
897.475486000000
30
0.0
11
1628.173848849648
21
897.475486000000
31
0.0
0
LINE
5
835
100
AcDbEntity
8
E-0
6
CONTINUOUS
62
4
100
AcDbLine
10
1628.173848849648
20
897.475486000000
30
0.0
11
1628.173848849648
21
947.475486000000
31
0.0
0
LINE
5
836
100
AcDbEntity
8
E-0
6
CONTINUOUS
62
4
100
AcDbLine
10
1628.173848849648
20
947.475486000000
30
0.0
11
1428.173848849648
21
947.475486000000
31
0.0
0
LINE
5
837
100
AcDbEntity
8
E-0
6
CONTINUOUS
62
4
100
AcDbLine
10
1428.173848849648
20
947.475486000000
30
0.0
11
1428.173848849648
21
897.475486000000
31
0.0
0
TEXT
5
838
100
AcDbEntity
8
E-0
62
4
100
AcDbText
10
1478.174
20
903.635
30
0.0
40
38.400
1
立面図
41
1.000
50
0.000
100
AcDbText
0
TEXT
5
839
100
AcDbEntity
8
E-0
62
4
100
AcDbText
10
164.760
20
417.395
30
0.0
40
25.600
1
タイプ：置き型
41
1.000
50
0.000
100
AcDbText
0
TEXT
5
83a
100
AcDbEntity
8
E-0
62
4
100
AcDbText
10
163.798
20
312.951
30
0.0
40
25.600
1
※製造工程により±5mm程度寸法誤差が生じます。
41
1.000
50
0.000
100
AcDbText
0
LINE
5
83b
100
AcDbEntity
8
E-0
6
CONTINUOUS
62
4
100
AcDbLine
10
1370.727759849648
20
1958.130426000000
30
0.0
11
1717.762967849648
21
1958.130426000000
31
0.0
0
LINE
5
83c
100
AcDbEntity
8
E-0
6
CONTINUOUS
62
4
100
AcDbLine
10
1717.762967849648
20
1958.130426000000
30
0.0
11
1717.762967849648
21
2008.130426000000
31
0.0
0
LINE
5
83d
100
AcDbEntity
8
E-0
6
CONTINUOUS
62
4
100
AcDbLine
10
1717.762967849648
20
2008.130426000000
30
0.0
11
1370.727759849648
21
2008.130426000000
31
0.0
0
LINE
5
83e
100
AcDbEntity
8
E-0
6
CONTINUOUS
62
4
100
AcDbLine
10
1370.727759849648
20
2008.130426000000
30
0.0
11
1370.727759849648
21
1958.130426000000
31
0.0
0
TEXT
5
83f
100
AcDbEntity
8
E-0
62
4
100
AcDbText
10
1384.196
20
1964.290
30
0.0
40
38.400
1
カウンター開口寸法
41
1.000
50
0.000
100
AcDbText
0
TEXT
5
840
100
AcDbEntity
8
E-0
62
4
100
AcDbText
10
163.797
20
339.311
30
0.0
40
25.600
1
オーバーフロー：無 ※固定タイプ排水栓RP-147.555.5＋スペーサーRP47.100.0をご使用下さい。蛇口付属排水栓はご使用できません。
41
1.000
50
0.000
100
AcDbText
0
LINE
5
841
100
AcDbEntity
8
D-0
6
CENTER2
62
16
100
AcDbLine
10
1544.245363849648
20
2498.382699000000
30
0.0
11
1544.245363849648
21
2184.685839000000
31
0.0
0
LINE
5
842
100
AcDbEntity
8
D-0
6
CENTER2
62
16
100
AcDbLine
10
1387.396933849648
20
2341.534269000000
30
0.0
11
1701.093793849648
21
2341.534269000000
31
0.0
0
CIRCLE
5
843
100
AcDbEntity
8
2-0
6
CONTINUOUS
62
5
100
AcDbCircle
10
1544.245363849648
20
2341.534269000000
30
0.0
40
60.000000000000
0
LINE
5
844
100
AcDbEntity
8
C-0
6
CONTINUOUS
62
0
100
AcDbLine
10
1471.855721150352
20
2296.983852000000
30
0.0
11
1450.564650150352
21
2283.880788000000
31
0.0
0
LINE
5
845
100
AcDbEntity
8
C-0
6
CONTINUOUS
62
0
100
AcDbLine
10
1616.635006150352
20
2386.084686000000
30
0.0
11
1748.880916150352
21
2467.472164000000
31
0.0
0
LINE
5
846
100
AcDbEntity
8
C-0
6
CONTINUOUS
62
0
100
AcDbLine
10
1493.146792150352
20
2310.086916000000
30
0.0
11
1595.343935150352
21
2372.981622000000
31
0.0
0
LINE
5
847
100
AcDbEntity
8
C-0
6
BYLAYER
62
0
100
AcDbLine
10
1468.344768441998
20
2302.688773203833
30
0.0
11
1493.146792618674
21
2310.086915765666
31
0.0
0
LINE
5
848
100
AcDbEntity
8
C-0
6
BYLAYER
62
0
100
AcDbLine
10
1493.146792618674
20
2310.086915765666
30
0.0
11
1475.366674143715
21
2291.278930662470
31
0.0
0
LINE
5
849
100
AcDbEntity
8
C-0
6
BYLAYER
62
0
100
AcDbLine
10
1493.146792618674
20
2310.086915765666
30
0.0
11
1471.855721292857
21
2296.983851933152
31
0.0
0
LINE
5
84a
100
AcDbEntity
8
C-0
6
BYLAYER
62
0
100
AcDbLine
10
1620.145959159311
20
2380.379764723638
30
0.0
11
1595.343934982710
21
2372.981622161552
31
0.0
0
LINE
5
84b
100
AcDbEntity
8
C-0
6
BYLAYER
62
0
100
AcDbLine
10
1595.343934982710
20
2372.981622161552
30
0.0
11
1613.124053457477
21
2391.789607264929
31
0.0
0
LINE
5
84c
100
AcDbEntity
8
C-0
6
BYLAYER
62
0
100
AcDbLine
10
1595.343934982710
20
2372.981622161552
30
0.0
11
1616.635006308394
21
2386.084685994284
31
0.0
0
TEXT
5
84d
100
AcDbEntity
8
C-0
62
0
100
AcDbText
10
1667.563
20
2421.302
30
0.0
40
32.000
1
φ120
41
1.000
50
31.609
100
AcDbText
0
LINE
5
84e
100
AcDbEntity
8
2-0
6
CONTINUOUS
62
5
100
AcDbLine
10
812.853615359031
20
2516.534268963611
30
0.0
11
592.853615358970
21
2516.534268963607
31
0.0
0
LINE
5
84f
100
AcDbEntity
8
2-0
6
CONTINUOUS
62
5
100
AcDbLine
10
812.731480429344
20
2503.534268963611
30
0.0
11
592.853615358970
21
2503.534268963607
31
0.0
0
LINE
5
850
100
AcDbEntity
8
2-0
6
CONTINUOUS
62
5
100
AcDbLine
10
592.853615358977
20
2166.534268963613
30
0.0
11
812.853615359043
21
2166.534268963605
31
0.0
0
LINE
5
851
100
AcDbEntity
8
2-0
6
CONTINUOUS
62
5
100
AcDbLine
10
592.975750288665
20
2179.534268963613
30
0.0
11
812.731480429356
21
2179.534268963605
31
0.0
0
LINE
5
852
100
AcDbEntity
8
D-0
6
CENTER2
62
16
100
AcDbLine
10
415.353615849648
20
2341.534269000000
30
0.0
11
990.353615849648
21
2341.534269000000
31
0.0
0
LINE
5
853
100
AcDbEntity
8
D-0
6
CENTER2
62
16
100
AcDbLine
10
702.853615849648
20
2141.534269000000
30
0.0
11
702.853615849648
21
2541.534269000000
31
0.0
0
LINE
5
854
100
AcDbEntity
8
C-0
6
CONTINUOUS
62
0
100
AcDbLine
10
425.353615150352
20
2361.534269000000
30
0.0
11
425.353615150352
21
2626.797137000000
31
0.0
0
LINE
5
855
100
AcDbEntity
8
C-0
6
CONTINUOUS
62
0
100
AcDbLine
10
980.353615150352
20
2361.534269000000
30
0.0
11
980.353615150352
21
2626.797137000000
31
0.0
0
TEXT
5
856
100
AcDbEntity
8
C-0
62
0
100
AcDbText
10
678.854
20
2630.097
30
0.0
40
32.000
1
555
41
1.000
50
0.000
100
AcDbText
0
LINE
5
857
100
AcDbEntity
8
C-0
6
CONTINUOUS
62
0
100
AcDbLine
10
980.353615359011
20
2626.797136807543
30
0.0
11
425.353615359012
21
2626.797136807543
31
0.0
0
POINT
5
858
100
AcDbEntity
8
C-0
62
0
100
AcDbPoint
10
980.353615359011
20
2626.797136807543
30
0.0
0
POINT
5
859
100
AcDbEntity
8
C-0
62
0
100
AcDbPoint
10
425.353615359012
20
2626.797136807543
30
0.0
0
ARC
5
85a
100
AcDbEntity
8
2-0
6
CONTINUOUS
62
5
100
AcDbCircle
10
615.525159849648
20
2341.534269000000
30
0.0
40
190.171544000000
100
AcDbArc
50
129.233000000000
51
230.767000000000
0
ARC
5
85b
100
AcDbEntity
8
2-0
6
CONTINUOUS
62
5
100
AcDbCircle
10
615.774218849648
20
2341.534269000000
30
0.0
40
177.420604000000
100
AcDbArc
50
129.789000000000
51
230.211000000000
0
ARC
5
85c
100
AcDbEntity
8
2-0
6
CONTINUOUS
62
5
100
AcDbCircle
10
596.527006849648
20
2317.749021000000
30
0.0
40
198.819185000000
100
AcDbArc
50
91.059000000000
51
120.624000000000
0
ARC
5
85d
100
AcDbEntity
8
2-0
6
CONTINUOUS
62
5
100
AcDbCircle
10
596.527006849648
20
2317.749021000000
30
0.0
40
185.819185000000
100
AcDbArc
50
91.059000000000
51
120.495000000000
0
ARC
5
85e
100
AcDbEntity
8
2-0
6
CONTINUOUS
62
5
100
AcDbCircle
10
596.527006849648
20
2365.319516000000
30
0.0
40
198.819185000000
100
AcDbArc
50
239.376000000000
51
268.941000000000
0
ARC
5
85f
100
AcDbEntity
8
2-0
6
CONTINUOUS
62
5
100
AcDbCircle
10
596.527006849648
20
2365.319516000000
30
0.0
40
185.819185000000
100
AcDbArc
50
239.505000000000
51
268.905000000000
0
ARC
5
860
100
AcDbEntity
8
2-0
6
CONTINUOUS
62
5
100
AcDbCircle
10
790.182070849648
20
2341.534269000000
30
0.0
40
190.171544000000
100
AcDbArc
50
309.233000000000
51
50.767000000000
0
ARC
5
861
100
AcDbEntity
8
2-0
6
CONTINUOUS
62
5
100
AcDbCircle
10
789.933011849648
20
2341.534269000000
30
0.0
40
177.420604000000
100
AcDbArc
50
309.789000000000
51
50.211000000000
0
ARC
5
862
100
AcDbEntity
8
2-0
6
CONTINUOUS
62
5
100
AcDbCircle
10
809.180223849648
20
2317.749021000000
30
0.0
40
198.819185000000
100
AcDbArc
50
59.376000000000
51
88.941000000000
0
ARC
5
863
100
AcDbEntity
8
2-0
6
CONTINUOUS
62
5
100
AcDbCircle
10
809.180223849648
20
2317.749021000000
30
0.0
40
185.819185000000
100
AcDbArc
50
59.505000000000
51
88.905000000000
0
ARC
5
864
100
AcDbEntity
8
2-0
6
CONTINUOUS
62
5
100
AcDbCircle
10
809.180223849648
20
2365.319516000000
30
0.0
40
198.819185000000
100
AcDbArc
50
271.059000000000
51
300.624000000000
0
ARC
5
865
100
AcDbEntity
8
2-0
6
CONTINUOUS
62
5
100
AcDbCircle
10
809.180223849648
20
2365.319516000000
30
0.0
40
185.819185000000
100
AcDbArc
50
271.095000000000
51
300.495000000000
0
LINE
5
866
100
AcDbEntity
8
C-0
6
CONTINUOUS
62
0
100
AcDbLine
10
832.853615150352
20
2516.534269000000
30
0.0
11
1123.890681150352
21
2516.534269000000
31
0.0
0
LINE
5
867
100
AcDbEntity
8
C-0
6
CONTINUOUS
62
0
100
AcDbLine
10
832.853615150352
20
2166.534269000000
30
0.0
11
1123.890681150352
21
2166.534269000000
31
0.0
0
TEXT
5
868
100
AcDbEntity
8
C-0
62
0
100
AcDbText
10
1120.591
20
2317.534
30
0.0
40
32.000
1
350
41
1.000
50
90.000
100
AcDbText
0
LINE
5
869
100
AcDbEntity
8
C-0
6
CONTINUOUS
62
0
100
AcDbLine
10
1123.890681099241
20
2166.534268963605
30
0.0
11
1123.890681099241
21
2516.534268963611
31
0.0
0
POINT
5
86a
100
AcDbEntity
8
C-0
62
0
100
AcDbPoint
10
1123.890681099241
20
2166.534268963605
30
0.0
0
POINT
5
86b
100
AcDbEntity
8
C-0
62
0
100
AcDbPoint
10
1123.890681099241
20
2516.534268963611
30
0.0
0
CIRCLE
5
86c
100
AcDbEntity
8
2-0
6
CONTINUOUS
62
5
100
AcDbCircle
10
702.853615849648
20
2341.534269000000
30
0.0
40
22.500000000000
0
CIRCLE
5
86d
100
AcDbEntity
8
2-0
6
CONTINUOUS
62
5
100
AcDbCircle
10
702.853615849648
20
2341.534269000000
30
0.0
40
35.000000000000
0
LINE
5
86e
100
AcDbEntity
8
C-0
6
CONTINUOUS
62
0
100
AcDbLine
10
661.635888150352
20
2317.926029000000
30
0.0
11
639.942348150352
21
2305.500639000000
31
0.0
0
LINE
5
86f
100
AcDbEntity
8
C-0
6
CONTINUOUS
62
0
100
AcDbLine
10
744.071342150352
20
2365.142509000000
30
0.0
11
837.870079150352
21
2418.867527000000
31
0.0
0
LINE
5
870
100
AcDbEntity
8
C-0
6
CONTINUOUS
62
0
100
AcDbLine
10
683.329429150352
20
2330.351418000000
30
0.0
11
722.377802150352
21
2352.717120000000
31
0.0
0
LINE
5
871
100
AcDbEntity
8
C-0
6
BYLAYER
62
0
100
AcDbLine
10
658.306517891257
20
2323.738791340782
30
0.0
11
683.329428993214
21
2330.351418398854
31
0.0
0
LINE
5
872
100
AcDbEntity
8
C-0
6
BYLAYER
62
0
100
AcDbLine
10
683.329428993214
20
2330.351418398854
30
0.0
11
664.965259282333
21
2312.113266424063
31
0.0
0
LINE
5
873
100
AcDbEntity
8
C-0
6
BYLAYER
62
0
100
AcDbLine
10
683.329428993214
20
2330.351418398854
30
0.0
11
661.635888586795
21
2317.926028882423
31
0.0
0
LINE
5
874
100
AcDbEntity
8
C-0
6
BYLAYER
62
0
100
AcDbLine
10
747.400712826698
20
2359.329746586692
30
0.0
11
722.377801724808
21
2352.717119528364
31
0.0
0
LINE
5
875
100
AcDbEntity
8
C-0
6
BYLAYER
62
0
100
AcDbLine
10
722.377801724808
20
2352.717119528364
30
0.0
11
740.741971435502
21
2370.955271503343
31
0.0
0
LINE
5
876
100
AcDbEntity
8
C-0
6
BYLAYER
62
0
100
AcDbLine
10
722.377801724808
20
2352.717119528364
30
0.0
11
744.071342131100
21
2365.142509045017
31
0.0
0
TEXT
5
877
100
AcDbEntity
8
C-0
62
0
100
AcDbText
10
772.410
20
2385.177
30
0.0
40
32.000
1
φ45
41
1.000
50
29.803
100
AcDbText
0
LINE
5
878
100
AcDbEntity
8
2-0
6
CONTINUOUS
62
5
100
AcDbLine
10
430.353615849648
20
1387.316088000000
30
0.0
11
975.353615849648
21
1387.316088000000
31
0.0
0
ARC
5
879
100
AcDbEntity
8
2-0
6
CONTINUOUS
62
5
100
AcDbCircle
10
430.353615849648
20
1382.316088000000
30
0.0
40
5.000000000000
100
AcDbArc
50
90.000000000000
51
183.603000000000
0
LINE
5
87a
100
AcDbEntity
8
2-0
6
CONTINUOUS
62
5
100
AcDbLine
10
438.558582849648
20
1242.316088000000
30
0.0
11
967.083398849648
21
1242.316088000000
31
0.0
0
ARC
5
87b
100
AcDbEntity
8
2-0
6
CONTINUOUS
62
5
100
AcDbCircle
10
438.558582849648
20
1247.316088000000
30
0.0
40
5.000000000000
100
AcDbArc
50
183.603000000000
51
270.000000000000
0
LINE
5
87c
100
AcDbEntity
8
D-0
6
CENTER2
62
16
100
AcDbLine
10
702.853615849648
20
1487.316088000000
30
0.0
11
702.853615849648
21
1142.316088000000
31
0.0
0
LINE
5
87d
100
AcDbEntity
8
2-0
6
CONTINUOUS
62
5
100
AcDbLine
10
425.363496849648
20
1382.001896000000
30
0.0
11
433.568464849648
21
1247.001896000000
31
0.0
0
LINE
5
87e
100
AcDbEntity
8
2-0
6
CONTINUOUS
62
5
100
AcDbLine
10
972.077579849648
20
1247.074942000000
30
0.0
11
980.347796849648
21
1382.074942000000
31
0.0
0
ARC
5
87f
100
AcDbEntity
8
2-0
6
CONTINUOUS
62
5
100
AcDbCircle
10
967.083398849648
20
1247.316088000000
30
0.0
40
5.000000000000
100
AcDbArc
50
270.000000000000
51
357.236000000000
0
ARC
5
880
100
AcDbEntity
8
2-0
6
CONTINUOUS
62
5
100
AcDbCircle
10
975.353615849648
20
1382.316088000000
30
0.0
40
5.000000000000
100
AcDbArc
50
357.236000000000
51
90.000000000000
0
LINE
5
881
100
AcDbEntity
8
C-0
6
CONTINUOUS
62
0
100
AcDbLine
10
425.353615150352
20
1402.316088000000
30
0.0
11
425.353615150352
21
1540.423828000000
31
0.0
0
LINE
5
882
100
AcDbEntity
8
C-0
6
CONTINUOUS
62
0
100
AcDbLine
10
980.353615150352
20
1402.316088000000
30
0.0
11
980.353615150352
21
1540.423828000000
31
0.0
0
TEXT
5
883
100
AcDbEntity
8
C-0
62
0
100
AcDbText
10
678.854
20
1543.724
30
0.0
40
32.000
1
555
41
1.000
50
0.000
100
AcDbText
0
LINE
5
884
100
AcDbEntity
8
C-0
6
CONTINUOUS
62
0
100
AcDbLine
10
980.353615359011
20
1540.423827965707
30
0.0
11
425.353615359011
21
1540.423827965707
31
0.0
0
POINT
5
885
100
AcDbEntity
8
C-0
62
0
100
AcDbPoint
10
980.353615359011
20
1540.423827965707
30
0.0
0
POINT
5
886
100
AcDbEntity
8
C-0
62
0
100
AcDbPoint
10
425.353615359011
20
1540.423827965707
30
0.0
0
LINE
5
887
100
AcDbEntity
8
C-0
6
CONTINUOUS
62
0
100
AcDbLine
10
987.083399150352
20
1242.316088000000
30
0.0
11
1085.346561150352
21
1242.316088000000
31
0.0
0
LINE
5
888
100
AcDbEntity
8
C-0
6
CONTINUOUS
62
0
100
AcDbLine
10
995.353615150352
20
1387.316088000000
30
0.0
11
1085.346561150352
21
1387.316088000000
31
0.0
0
TEXT
5
889
100
AcDbEntity
8
C-0
62
0
100
AcDbText
10
1082.047
20
1290.816
30
0.0
40
32.000
1
145
41
1.000
50
90.000
100
AcDbText
0
LINE
5
88a
100
AcDbEntity
8
C-0
6
CONTINUOUS
62
0
100
AcDbLine
10
1085.346560786462
20
1387.316088267247
30
0.0
11
1085.346560786462
21
1242.316088267247
31
0.0
0
POINT
5
88b
100
AcDbEntity
8
C-0
62
0
100
AcDbPoint
10
1085.346560786462
20
1387.316088267247
30
0.0
0
POINT
5
88c
100
AcDbEntity
8
C-0
62
0
100
AcDbPoint
10
1085.346560786462
20
1242.316088267247
30
0.0
0
LINE
5
88d
100
AcDbEntity
8
2-0
6
CONTINUOUS
62
5
100
AcDbLine
10
1358.173848849648
20
1387.316088000000
30
0.0
11
1698.179666849648
21
1387.316088000000
31
0.0
0
ARC
5
88e
100
AcDbEntity
8
2-0
6
CONTINUOUS
62
5
100
AcDbCircle
10
1358.173848849648
20
1382.316088000000
30
0.0
40
5.000000000000
100
AcDbArc
50
90.000000000000
51
183.603000000000
0
LINE
5
88f
100
AcDbEntity
8
2-0
6
CONTINUOUS
62
5
100
AcDbLine
10
1363.163966849648
20
1242.316088000000
30
0.0
11
1693.179666849648
21
1242.316088000000
31
0.0
0
ARC
5
890
100
AcDbEntity
8
2-0
6
CONTINUOUS
62
5
100
AcDbCircle
10
1363.163966849648
20
1247.316088000000
30
0.0
40
5.000000000000
100
AcDbArc
50
183.603000000000
51
270.000000000000
0
LINE
5
891
100
AcDbEntity
8
D-0
6
CENTER2
62
16
100
AcDbLine
10
1528.173848849648
20
1487.316088000000
30
0.0
11
1528.173848849648
21
1142.316088000000
31
0.0
0
LINE
5
892
100
AcDbEntity
8
2-0
6
CONTINUOUS
62
5
100
AcDbLine
10
1353.183729849648
20
1382.001896000000
30
0.0
11
1358.173848849648
21
1247.001896000000
31
0.0
0
LINE
5
893
100
AcDbEntity
8
2-0
6
CONTINUOUS
62
5
100
AcDbLine
10
1698.173848849648
20
1247.074942000000
30
0.0
11
1703.173848849648
21
1382.074942000000
31
0.0
0
ARC
5
894
100
AcDbEntity
8
2-0
6
CONTINUOUS
62
5
100
AcDbCircle
10
1693.179666849648
20
1247.316088000000
30
0.0
40
5.000000000000
100
AcDbArc
50
270.000000000000
51
357.236000000000
0
ARC
5
895
100
AcDbEntity
8
2-0
6
CONTINUOUS
62
5
100
AcDbCircle
10
1698.179666849648
20
1382.316088000000
30
0.0
40
5.000000000000
100
AcDbArc
50
357.236000000000
51
90.000000000000
0
LINE
5
896
100
AcDbEntity
8
C-0
6
CONTINUOUS
62
0
100
AcDbLine
10
1353.173848150352
20
1402.316088000000
30
0.0
11
1353.173848150352
21
1540.423828000000
31
0.0
0
LINE
5
897
100
AcDbEntity
8
C-0
6
CONTINUOUS
62
0
100
AcDbLine
10
1703.179667150352
20
1402.316088000000
30
0.0
11
1703.179667150352
21
1540.423828000000
31
0.0
0
TEXT
5
898
100
AcDbEntity
8
C-0
62
0
100
AcDbText
10
1504.177
20
1543.724
30
0.0
40
32.000
1
350
41
1.000
50
0.000
100
AcDbText
0
LINE
5
899
100
AcDbEntity
8
C-0
6
CONTINUOUS
62
0
100
AcDbLine
10
1703.179667133017
20
1540.423827965709
30
0.0
11
1353.173848598846
21
1540.423827965709
31
0.0
0
POINT
5
89a
100
AcDbEntity
8
C-0
62
0
100
AcDbPoint
10
1703.179667133017
20
1540.423827965709
30
0.0
0
POINT
5
89b
100
AcDbEntity
8
C-0
62
0
100
AcDbPoint
10
1353.173848598846
20
1540.423827965709
30
0.0
0
LINE
5
89c
100
AcDbEntity
8
C-0
6
CONTINUOUS
62
0
100
AcDbLine
10
1713.426625150352
20
1242.322191000000
30
0.0
11
1808.172612150352
21
1242.322191000000
31
0.0
0
LINE
5
89d
100
AcDbEntity
8
C-0
6
CONTINUOUS
62
0
100
AcDbLine
10
1718.179667150352
20
1387.316088000000
30
0.0
11
1808.172612150352
21
1387.316088000000
31
0.0
0
TEXT
5
89e
100
AcDbEntity
8
C-0
62
0
100
AcDbText
10
1804.873
20
1290.819
30
0.0
40
32.000
1
145
41
1.000
50
90.000
100
AcDbText
0
LINE
5
89f
100
AcDbEntity
8
C-0
6
CONTINUOUS
62
0
100
AcDbLine
10
1808.172612560468
20
1387.316088267248
30
0.0
11
1808.172612560468
21
1242.322190816804
31
0.0
0
POINT
5
8a0
100
AcDbEntity
8
C-0
62
0
100
AcDbPoint
10
1808.172612560468
20
1387.316088267248
30
0.0
0
POINT
5
8a1
100
AcDbEntity
8
C-0
62
0
100
AcDbPoint
10
1808.172612560468
20
1242.322190816804
30
0.0
0
LINE
5
8a2
100
AcDbEntity
8
C-0
6
CONTINUOUS
62
0
100
AcDbLine
10
425.353615150352
20
2361.534269000000
30
0.0
11
425.353615150352
21
2581.037755000000
31
0.0
0
LINE
5
8a3
100
AcDbEntity
8
C-0
6
CONTINUOUS
62
0
100
AcDbLine
10
702.853615150352
20
2561.534269000000
30
0.0
11
702.853615150352
21
2581.037755000000
31
0.0
0
TEXT
5
8a4
100
AcDbEntity
8
C-0
62
0
100
AcDbText
10
524.104
20
2584.338
30
0.0
40
32.000
1
277.5
41
1.000
50
0.000
100
AcDbText
0
LINE
5
8a5
100
AcDbEntity
8
C-0
6
CONTINUOUS
62
0
100
AcDbLine
10
702.853615359011
20
2581.037755291556
30
0.0
11
425.353615359012
21
2581.037755291556
31
0.0
0
POINT
5
8a6
100
AcDbEntity
8
C-0
62
0
100
AcDbPoint
10
702.853615359011
20
2581.037755291556
30
0.0
0
POINT
5
8a7
100
AcDbEntity
8
C-0
62
0
100
AcDbPoint
10
425.353615359012
20
2581.037755291556
30
0.0
0
LINE
5
8a8
100
AcDbEntity
8
C-0
6
CONTINUOUS
62
0
100
AcDbLine
10
702.853615150352
20
2561.534269000000
30
0.0
11
702.853615150352
21
2581.037755000000
31
0.0
0
LINE
5
8a9
100
AcDbEntity
8
C-0
6
CONTINUOUS
62
0
100
AcDbLine
10
980.353615150352
20
2361.534269000000
30
0.0
11
980.353615150352
21
2581.037755000000
31
0.0
0
TEXT
5
8aa
100
AcDbEntity
8
C-0
62
0
100
AcDbText
10
801.604
20
2584.338
30
0.0
40
32.000
1
277.5
41
1.000
50
0.000
100
AcDbText
0
LINE
5
8ab
100
AcDbEntity
8
C-0
6
CONTINUOUS
62
0
100
AcDbLine
10
980.353615359011
20
2581.037755291556
30
0.0
11
702.853615359011
21
2581.037755291556
31
0.0
0
POINT
5
8ac
100
AcDbEntity
8
C-0
62
0
100
AcDbPoint
10
980.353615359011
20
2581.037755291556
30
0.0
0
POINT
5
8ad
100
AcDbEntity
8
C-0
62
0
100
AcDbPoint
10
702.853615359011
20
2581.037755291556
30
0.0
0
LINE
5
8ae
100
AcDbEntity
8
C-0
6
CONTINUOUS
62
0
100
AcDbLine
10
832.853615150352
20
2516.534269000000
30
0.0
11
1048.939199150352
21
2516.534269000000
31
0.0
0
LINE
5
8af
100
AcDbEntity
8
C-0
6
CONTINUOUS
62
0
100
AcDbLine
10
1010.353615150352
20
2341.534269000000
30
0.0
11
1048.939199150352
21
2341.534269000000
31
0.0
0
TEXT
5
8b0
100
AcDbEntity
8
C-0
62
0
100
AcDbText
10
1045.639
20
2405.034
30
0.0
40
32.000
1
175
41
1.000
50
90.000
100
AcDbText
0
LINE
5
8b1
100
AcDbEntity
8
C-0
6
CONTINUOUS
62
0
100
AcDbLine
10
1048.939198824908
20
2341.534268963609
30
0.0
11
1048.939198824908
21
2516.534268963611
31
0.0
0
POINT
5
8b2
100
AcDbEntity
8
C-0
62
0
100
AcDbPoint
10
1048.939198824908
20
2341.534268963609
30
0.0
0
POINT
5
8b3
100
AcDbEntity
8
C-0
62
0
100
AcDbPoint
10
1048.939198824908
20
2516.534268963611
30
0.0
0
LINE
5
8b4
100
AcDbEntity
8
C-0
6
CONTINUOUS
62
0
100
AcDbLine
10
1010.353615150352
20
2341.534269000000
30
0.0
11
1048.939199150352
21
2341.534269000000
31
0.0
0
LINE
5
8b5
100
AcDbEntity
8
C-0
6
CONTINUOUS
62
0
100
AcDbLine
10
983.372148150352
20
2166.534269000000
30
0.0
11
1048.939199150352
21
2166.534269000000
31
0.0
0
TEXT
5
8b6
100
AcDbEntity
8
C-0
62
0
100
AcDbText
10
1045.639
20
2230.034
30
0.0
40
32.000
1
175
41
1.000
50
90.000
100
AcDbText
0
LINE
5
8b7
100
AcDbEntity
8
C-0
6
CONTINUOUS
62
0
100
AcDbLine
10
1048.939198824908
20
2166.534268963605
30
0.0
11
1048.939198824908
21
2341.534268963609
31
0.0
0
POINT
5
8b8
100
AcDbEntity
8
C-0
62
0
100
AcDbPoint
10
1048.939198824908
20
2166.534268963605
30
0.0
0
POINT
5
8b9
100
AcDbEntity
8
C-0
62
0
100
AcDbPoint
10
1048.939198824908
20
2341.534268963609
30
0.0
0
TEXT
5
8ba
100
AcDbEntity
8
E-0
62
4
100
AcDbText
10
853.238
20
209.056
30
0.0
40
51.200
1
GIF-853-555
41
1.000
50
0.000
100
AcDbText
0
TEXT
5
8bb
100
AcDbEntity
8
E-0
62
4
100
AcDbText
10
165.508
20
391.403
30
0.0
40
25.600
1
重量：10ｋｇ
41
1.000
50
0.000
100
AcDbText
0
TEXT
5
8bc
100
AcDbEntity
8
E-0
62
4
100
AcDbText
10
164.784
20
366.392
30
0.0
40
25.600
1
容量：1.5L
41
1.000
50
0.000
100
AcDbText
0
ENDSEC
0
EOF
