  0
SECTION
  2
HEADER
  9
$ACADVER
  1
AC1009
  9
$INSBASE
 10
0.0
 20
0.0
 30
0.0
  9
$EXTMIN
 10
940.01377569982105
 20
2361.3305582570079
 30
0.0
  9
$EXTMAX
 10
1217.178653917209
 20
2553.7771152079499
 30
0.0
  9
$LIMMIN
 10
0.0
 20
0.0
  9
$LIMMAX
 10
2970.0
 20
2100.0
  9
$ORTHOMODE
 70
     0
  9
$REGENMODE
 70
     1
  9
$FILLMODE
 70
     1
  9
$QTEXTMODE
 70
     0
  9
$MIRRTEXT
 70
     0
  9
$DRAGMODE
 70
     2
  9
$LTSCALE
 40
0.5
  9
$OSMODE
 70
   447
  9
$ATTMODE
 70
     1
  9
$TEXTSIZE
 40
2.5
  9
$TRACEWID
 40
1.0
  9
$TEXTSTYLE
  7
JAPANESE
  9
$CLAYER
  8
中心線
  9
$CELTYPE
  6
BYLAYER
  9
$CECOLOR
 62
   256
  9
$DIMSCALE
 40
10.0
  9
$DIMASZ
 40
0.3
  9
$DIMEXO
 40
0.2
  9
$DIMDLI
 40
7.0
  9
$DIMRND
 40
0.0
  9
$DIMDLE
 40
0.0
  9
$DIMEXE
 40
0.0
  9
$DIMTP
 40
0.0
  9
$DIMTM
 40
0.0
  9
$DIMTXT
 40
0.3
  9
$DIMCEN
 40
2.5
  9
$DIMTSZ
 40
0.0
  9
$DIMTOL
 70
     0
  9
$DIMLIM
 70
     0
  9
$DIMTIH
 70
     0
  9
$DIMTOH
 70
     0
  9
$DIMSE1
 70
     0
  9
$DIMSE2
 70
     0
  9
$DIMTAD
 70
     1
  9
$DIMZIN
 70
     8
  9
$DIMBLK
  1
OPEN30
  9
$DIMASO
 70
     1
  9
$DIMSHO
 70
     1
  9
$DIMPOST
  1

  9
$DIMAPOST
  1

  9
$DIMALT
 70
     0
  9
$DIMALTD
 70
     3
  9
$DIMALTF
 40
0.03937007874016
  9
$DIMLFAC
 40
1.0
  9
$DIMTOFL
 70
     1
  9
$DIMTVP
 40
0.0
  9
$DIMTIX
 70
     0
  9
$DIMSOXD
 70
     0
  9
$DIMSAH
 70
     0
  9
$DIMBLK1
  1

  9
$DIMBLK2
  1

  9
$DIMSTYLE
  2
KIHON
  9
$DIMCLRD
 70
     0
  9
$DIMCLRE
 70
     0
  9
$DIMCLRT
 70
     0
  9
$DIMTFAC
 40
1.0
  9
$DIMGAP
 40
0.1
  9
$LUNITS
 70
     2
  9
$LUPREC
 70
     4
  9
$SKETCHINC
 40
1.0
  9
$FILLETRAD
 40
3.0
  9
$AUNITS
 70
     0
  9
$AUPREC
 70
     0
  9
$MENU
  1
.
  9
$ELEVATION
 40
0.0
  9
$PELEVATION
 40
0.0
  9
$THICKNESS
 40
0.0
  9
$LIMCHECK
 70
     0
  9
$BLIPMODE
 70
     0
  9
$CHAMFERA
 40
0.0
  9
$CHAMFERB
 40
0.0
  9
$SKPOLY
 70
     0
  9
$TDCREATE
 40
2454007.9090794101
  9
$TDUPDATE
 40
2455205.5810971991
  9
$TDINDWG
 40
0.163814375
  9
$TDUSRTIMER
 40
0.1638115972
  9
$USRTIMER
 70
     1
  9
$ANGBASE
 50
0.0
  9
$ANGDIR
 70
     0
  9
$PDMODE
 70
     0
  9
$PDSIZE
 40
0.0
  9
$PLINEWID
 40
0.0
  9
$COORDS
 70
     2
  9
$SPLFRAME
 70
     0
  9
$SPLINETYPE
 70
     6
  9
$SPLINESEGS
 70
     8
  9
$ATTDIA
 70
     0
  9
$ATTREQ
 70
     1
  9
$HANDLING
 70
     1
  9
$HANDSEED
  5
420F
  9
$SURFTAB1
 70
     6
  9
$SURFTAB2
 70
     6
  9
$SURFTYPE
 70
     6
  9
$SURFU
 70
     6
  9
$SURFV
 70
     6
  9
$UCSNAME
  2

  9
$UCSORG
 10
0.0
 20
0.0
 30
0.0
  9
$UCSXDIR
 10
1.0
 20
0.0
 30
0.0
  9
$UCSYDIR
 10
0.0
 20
1.0
 30
0.0
  9
$PUCSNAME
  2

  9
$PUCSORG
 10
0.0
 20
0.0
 30
0.0
  9
$PUCSXDIR
 10
1.0
 20
0.0
 30
0.0
  9
$PUCSYDIR
 10
0.0
 20
1.0
 30
0.0
  9
$USERI1
 70
     0
  9
$USERI2
 70
     0
  9
$USERI3
 70
     0
  9
$USERI4
 70
     0
  9
$USERI5
 70
     0
  9
$USERR1
 40
0.0
  9
$USERR2
 40
0.0
  9
$USERR3
 40
0.0
  9
$USERR4
 40
0.0
  9
$USERR5
 40
0.0
  9
$WORLDVIEW
 70
     1
  9
$SHADEDGE
 70
     3
  9
$SHADEDIF
 70
    70
  9
$TILEMODE
 70
     1
  9
$MAXACTVP
 70
    64
  9
$PLIMCHECK
 70
     0
  9
$PEXTMIN
 10
-3.7637478234225901
 20
-3.7407583326315712
 30
0.0
  9
$PEXTMAX
 10
291.97198960287778
 20
205.65113592673021
 30
0.0
  9
$PLIMMIN
 10
-3.17498779296875
 20
-3.1749999523162842
  9
$PLIMMAX
 10
293.82501220703119
 20
206.82500004768369
  9
$UNITMODE
 70
     0
  9
$VISRETAIN
 70
     1
  9
$PLINEGEN
 70
     0
  9
$PSLTSCALE
 70
     1
  0
ENDSEC
  0
SECTION
  2
TABLES
  0
TABLE
  2
VPORT
 70
     1
  0
VPORT
  2
*ACTIVE
 70
     0
 10
0.0
 20
0.0
 11
1.0
 21
1.0
 12
1083.850851847523
 22
2534.8186461313808
 13
0.0
 23
0.0
 14
10.0
 24
10.0
 15
10.0
 25
10.0
 16
0.0
 26
0.0
 36
1.0
 17
0.0
 27
0.0
 37
0.0
 40
368.00693384480468
 41
1.6552631578947361
 42
50.0
 43
0.0
 44
0.0
 50
0.0
 51
0.0
 71
     0
 72
  1000
 73
     1
 74
     3
 75
     0
 76
     0
 77
     0
 78
     0
  0
ENDTAB
  0
TABLE
  2
LTYPE
 70
     7
  0
LTYPE
  2
CONTINUOUS
 70
     0
  3
Solid line
 72
    65
 73
     0
 40
0.0
  0
LTYPE
  2
CENTER
 70
     0
  3
Center ____ _ ____ _ ____ _ ____ _ ____ _ ____
 72
    65
 73
     4
 40
50.799999999999997
 49
31.75
 49
-6.3499999999999979
 49
6.3499999999999979
 49
-6.3499999999999979
  0
LTYPE
  2
HIDDEN
 70
     0
  3
Hidden __ __ __ __ __ __ __ __ __ __ __ __ __ __
 72
    65
 73
     2
 40
9.5249999999999968
 49
6.3499999999999979
 49
-3.174999999999998
  0
LTYPE
  2
DASHED1
 70
     0
  3
--  --  --  --  --  --  --  --  
 72
    65
 73
     2
 40
2.5
 49
1.25
 49
-1.25
  0
LTYPE
  2
DASHED3
 70
     0
  3
------  ------  ------  ------  
 72
    65
 73
     2
 40
5.0
 49
3.75
 49
-1.25
  0
LTYPE
  2
CENTER1
 70
     0
  3
----- - ----- - ----- - ----- - 
 72
    65
 73
     4
 40
10.0
 49
6.25
 49
-1.25
 49
1.25
 49
-1.25
  0
LTYPE
  2
DOT
 70
     0
  3
-   -   -   -   -   -   -   -   
 72
    65
 73
     2
 40
2.5
 49
0.625
 49
-1.875
  0
ENDTAB
  0
TABLE
  2
LAYER
 70
    16
  0
LAYER
  2
0
 70
     0
 62
     7
  6
CONTINUOUS
  0
LAYER
  2
太線
 70
     0
 62
     7
  6
CONTINUOUS
  0
LAYER
  2
中心線
 70
     0
 62
     1
  6
CENTER
  0
LAYER
  2
寸法線
 70
     0
 62
     3
  6
CONTINUOUS
  0
LAYER
  2
補助線
 70
     0
 62
    77
  6
CONTINUOUS
  0
LAYER
  2
DEFPOINTS
 70
     0
 62
     7
  6
CONTINUOUS
  0
LAYER
  2
_0-0_
 70
     0
 62
     7
  6
CONTINUOUS
  0
ENDTAB
  0
TABLE
  2
STYLE
 70
     3
  0
STYLE
  2
STANDARD
 70
     0
 40
0.0
 41
1.0
 50
0.0
 71
     0
 42
2.5
  3
txt
  4

  0
STYLE
  2

 70
     1
 40
0.0
 41
1.0
 50
0.0
 71
     0
 42
2.5
  3
ltypeshp.shx
  4

  0
STYLE
  2
JAPANESE
 70
     0
 40
0.0
 41
1.0
 50
0.0
 71
     0
 42
2.5
  3
romans.shx
  4
bigfont.shx
  0
ENDTAB
  0
TABLE
  2
VIEW
 70
     2
  0
VIEW
  2
ZUMEN
 70
     0
 40
1898.2130301431091
 10
1496.0406271226029
 20
1058.157827942159
 41
2725.340415885034
 11
0.0
 21
0.0
 31
1.0
 12
0.0
 22
0.0
 32
0.0
 42
50.0
 43
0.0
 44
0.0
 50
0.0
 71
     0
  0
ENDTAB
  0
TABLE
  2
UCS
 70
     0
  0
ENDTAB
  0
TABLE
  2
APPID
 70
     5
  0
APPID
  2
ACAD
 70
     0
  0
APPID
  2
ACAD_PSEXT
 70
     0
  0
APPID
  2
ACAECLAYERSTANDARD
 70
     0
  0
APPID
  2
ACAD_DSTYLE_DIMJOGGED_JOGA
 70
     0
  0
APPID
  2
ACAD_EXEMPT_FROM_CAD_STANDARDS
 70
     0
  0
ENDTAB
  0
TABLE
  2
DIMSTYLE
 70
     3
  0
DIMSTYLE
  2
ISO-25
 70
     0
  3

  4

  5

  6

  7

 40
1.0
 41
2.5
 42
0.625
 43
3.75
 44
1.25
 45
0.0
 46
0.0
 47
0.0
 48
0.0
140
2.5
141
2.5
142
0.0
143
0.03937007874016
144
1.0
145
0.0
146
1.0
147
0.625
 71
     0
 72
     0
 73
     0
 74
     0
 75
     0
 76
     0
 77
     1
 78
     8
170
     0
171
     3
172
     1
173
     0
174
     0
175
     0
176
     0
177
     0
178
     0
  0
DIMSTYLE
  2
KIHON
 70
     0
  3

  4

  5
OPEN30
  6

  7

 40
10.0
 41
0.3
 42
0.2
 43
7.0
 44
0.0
 45
0.0
 46
0.0
 47
0.0
 48
0.0
140
0.3
141
2.5
142
0.0
143
0.03937007874016
144
1.0
145
0.0
146
1.0
147
0.1
 71
     0
 72
     0
 73
     0
 74
     0
 75
     0
 76
     0
 77
     1
 78
     8
170
     0
171
     3
172
     1
173
     0
174
     0
175
     0
176
     0
177
     0
178
     0
  0
DIMSTYLE
  2
STANDARD
 70
     0
  3

  4

  5

  6

  7

 40
1.0
 41
0.18
 42
0.0625
 43
0.38
 44
0.18
 45
0.0
 46
0.0
 47
0.0
 48
0.0
140
0.18
141
0.09
142
0.0
143
25.399999999999999
144
1.0
145
0.0
146
1.0
147
0.09
 71
     0
 72
     0
 73
     1
 74
     1
 75
     0
 76
     0
 77
     0
 78
     0
170
     0
171
     2
172
     0
173
     0
174
     0
175
     0
176
     0
177
     0
178
     0
  0
ENDTAB
  0
ENDSEC
  0
SECTION
  2
BLOCKS
  0
BLOCK
  8
0
  2
$MODEL_SPACE
 70
     0
 10
0.0
 20
0.0
 30
0.0
  3
$MODEL_SPACE
  1

  0
ENDBLK
  5
39
  8
0
  0
BLOCK
 67
     1
  8
0
  2
$PAPER_SPACE
 70
     0
 10
0.0
 20
0.0
 30
0.0
  3
$PAPER_SPACE
  1

  0
ENDBLK
  5
35
 67
     1
  8
0
  0
BLOCK
  8
0
  2
_OPEN30
 70
     0
 10
0.0
 20
0.0
 30
0.0
  3
_OPEN30
  1

  0
LINE
  5
1316
  8
0
  6
BYBLOCK
 62
     0
 10
-1.0
 20
0.26794919
 30
0.0
 11
0.0
 21
0.0
 31
0.0
  0
LINE
  5
1317
  8
0
  6
BYBLOCK
 62
     0
 10
0.0
 20
0.0
 30
0.0
 11
-1.0
 21
-0.26794919
 31
0.0
  0
LINE
  5
1318
  8
0
  6
BYBLOCK
 62
     0
 10
0.0
 20
0.0
 30
0.0
 11
-1.0
 21
0.0
 31
0.0
  0
ENDBLK
  5
1319
  8
0
  0
BLOCK
  8
0
  2
*D2
 70
     1
 10
0.0
 20
0.0
 30
0.0
  3
*D2
  1

  0
LINE
  5
3E5F
  8
寸法線
 62
     0
 10
952.03542421368729
 20
2523.1336288297748
 30
0.0
 11
952.03542421368729
 21
2539.6675577896972
 31
0.0
  0
LINE
  5
3E60
  8
寸法線
 62
     0
 10
1067.0354242136871
 20
2523.1336288297748
 30
0.0
 11
1067.0354242136871
 21
2539.6675577896972
 31
0.0
  0
LINE
  5
3E61
  8
寸法線
 62
     0
 10
955.03542421368718
 20
2539.6675577896972
 30
0.0
 11
1064.0354242136871
 21
2539.6675577896972
 31
0.0
  0
INSERT
  5
3E62
  8
寸法線
 62
     0
  2
_OPEN30
 10
952.03542421368729
 20
2539.6675577896972
 30
0.0
 41
3.0
 42
3.0
 43
3.0
 50
180.0
  0
INSERT
  5
3E63
  8
寸法線
 62
     0
  2
_OPEN30
 10
1067.0354242136871
 20
2539.6675577896972
 30
0.0
 41
3.0
 42
3.0
 43
3.0
  0
INSERT
  5
3E64
  8
中心線
  2
*U16
 10
0.0
 20
0.0
 30
0.0
  0
POINT
  5
3E65
  8
DEFPOINTS
 62
     0
 10
952.03542421368729
 20
2521.1336288297762
 30
0.0
  0
POINT
  5
3E66
  8
DEFPOINTS
 62
     0
 10
1067.0354242136871
 20
2521.1336288297762
 30
0.0
  0
POINT
  5
3E67
  8
DEFPOINTS
 62
     0
 10
1067.0354242136871
 20
2539.6675577896972
 30
0.0
  0
ENDBLK
  5
3C58
  8
0
  0
BLOCK
  8
0
  2
*D3
 70
     1
 10
0.0
 20
0.0
 30
0.0
  3
*D3
  1

  0
LINE
  5
3F25
  8
寸法線
 62
     0
 10
1155.2658929042329
 20
2497.3486908447539
 30
0.0
 11
1155.2658929042329
 21
2539.024297932538
 31
0.0
  0
LINE
  5
3F26
  8
寸法線
 62
     0
 10
1192.2658929042341
 20
2497.3486908447539
 30
0.0
 11
1192.2658929042341
 21
2539.024297932538
 31
0.0
  0
LINE
  5
3F27
  8
寸法線
 62
     0
 10
1158.2658929042329
 20
2539.024297932538
 30
0.0
 11
1189.2658929042329
 21
2539.024297932538
 31
0.0
  0
INSERT
  5
3F28
  8
寸法線
 62
     0
  2
_OPEN30
 10
1155.2658929042329
 20
2539.024297932538
 30
0.0
 41
3.0
 42
3.0
 43
3.0
 50
180.0
  0
INSERT
  5
3F29
  8
寸法線
 62
     0
  2
_OPEN30
 10
1192.2658929042341
 20
2539.024297932538
 30
0.0
 41
3.0
 42
3.0
 43
3.0
  0
INSERT
  5
3F2A
  8
中心線
  2
*U18
 10
0.0
 20
0.0
 30
0.0
  0
POINT
  5
3F2B
  8
DEFPOINTS
 62
     0
 10
1155.2658929042329
 20
2495.3486908447539
 30
0.0
  0
POINT
  5
3F2C
  8
DEFPOINTS
 62
     0
 10
1192.2658929042341
 20
2495.3486908447539
 30
0.0
  0
POINT
  5
3F2D
  8
DEFPOINTS
 62
     0
 10
1192.2658929042341
 20
2539.024297932538
 30
0.0
  0
ENDBLK
  5
3C85
  8
0
  0
BLOCK
  8
0
  2
*D4
 70
     1
 10
0.0
 20
0.0
 30
0.0
  3
*D4
  1

  0
LINE
  5
3F86
  8
寸法線
 62
     0
 10
996.2574459237876
 20
2443.8683828788589
 30
0.0
 11
996.2574459237876
 21
2462.7252698675902
 31
0.0
  0
LINE
  5
3F87
  8
寸法線
 62
     0
 10
1015.257445923787
 20
2443.8683828788589
 30
0.0
 11
1015.257445923787
 21
2462.7252698675902
 31
0.0
  0
LINE
  5
3F88
  8
寸法線
 62
     0
 10
999.25744592378749
 20
2462.7252698675902
 30
0.0
 11
1012.257445923787
 21
2462.7252698675902
 31
0.0
  0
INSERT
  5
3F89
  8
寸法線
 62
     0
  2
_OPEN30
 10
996.2574459237876
 20
2462.7252698675902
 30
0.0
 41
3.0
 42
3.0
 43
3.0
 50
180.0
  0
INSERT
  5
3F8A
  8
寸法線
 62
     0
  2
_OPEN30
 10
1015.257445923787
 20
2462.7252698675902
 30
0.0
 41
3.0
 42
3.0
 43
3.0
  0
INSERT
  5
3F8B
  8
中心線
  2
*U24
 10
0.0
 20
0.0
 30
0.0
  0
POINT
  5
3F8C
  8
DEFPOINTS
 62
     0
 10
996.2574459237876
 20
2441.8683828788589
 30
0.0
  0
POINT
  5
3F8D
  8
DEFPOINTS
 62
     0
 10
1015.257445923787
 20
2441.8683828788589
 30
0.0
  0
POINT
  5
3F8E
  8
DEFPOINTS
 62
     0
 10
1015.257445923787
 20
2462.7252698675902
 30
0.0
  0
ENDBLK
  5
3CD2
  8
0
  0
BLOCK
  8
0
  2
*D5
 70
     1
 10
0.0
 20
0.0
 30
0.0
  3
*D5
  1

  0
LINE
  5
3F8F
  8
寸法線
 62
     0
 10
1003.757445923787
 20
2433.641141542907
 30
0.0
 11
971.79009104398938
 21
2433.641141542907
 31
0.0
  0
LINE
  5
3F90
  8
寸法線
 62
     0
 10
1003.757445923787
 20
2450.0956242148109
 30
0.0
 11
971.79009104398938
 21
2450.0956242148109
 31
0.0
  0
LINE
  5
3F91
  8
寸法線
 62
     0
 10
971.79009104398938
 20
2436.641141542907
 30
0.0
 11
971.79009104398938
 21
2447.0956242148109
 31
0.0
  0
INSERT
  5
3F92
  8
寸法線
 62
     0
  2
_OPEN30
 10
971.79009104398938
 20
2433.641141542907
 30
0.0
 41
3.0
 42
3.0
 43
3.0
 50
270.0
  0
INSERT
  5
3F93
  8
寸法線
 62
     0
  2
_OPEN30
 10
971.79009104398938
 20
2450.0956242148109
 30
0.0
 41
3.0
 42
3.0
 43
3.0
 50
90.0
  0
INSERT
  5
3F94
  8
中心線
  2
*U25
 10
0.0
 20
0.0
 30
0.0
  0
POINT
  5
3F95
  8
DEFPOINTS
 62
     0
 10
1005.757445923787
 20
2433.641141542907
 30
0.0
  0
POINT
  5
3F96
  8
DEFPOINTS
 62
     0
 10
1005.757445923787
 20
2450.0956242148109
 30
0.0
  0
POINT
  5
3F97
  8
DEFPOINTS
 62
     0
 10
971.79009104398938
 20
2450.0956242148109
 30
0.0
  0
ENDBLK
  5
3CEA
  8
0
  0
BLOCK
  8
0
  2
*D6
 70
     1
 10
0.0
 20
0.0
 30
0.0
  3
*D6
  1

  0
LINE
  5
3F2E
  8
寸法線
 62
     0
 10
1182.2658929042341
 20
2454.1287829096691
 30
0.0
 11
1205.7337421218649
 21
2454.1287829096691
 31
0.0
  0
LINE
  5
3F2F
  8
寸法線
 62
     0
 10
1194.2658929042329
 20
2439.1287829096691
 30
0.0
 11
1205.7337421218649
 21
2439.1287829096691
 31
0.0
  0
LINE
  5
3F30
  8
寸法線
 62
     0
 10
1205.7337421218649
 20
2451.1287829096691
 30
0.0
 11
1205.7337421218649
 21
2442.1287829096691
 31
0.0
  0
INSERT
  5
3F31
  8
寸法線
 62
     0
  2
_OPEN30
 10
1205.7337421218649
 20
2454.1287829096691
 30
0.0
 41
3.0
 42
3.0
 43
3.0
 50
90.0
  0
INSERT
  5
3F32
  8
寸法線
 62
     0
  2
_OPEN30
 10
1205.7337421218649
 20
2439.1287829096691
 30
0.0
 41
3.0
 42
3.0
 43
3.0
 50
270.0
  0
INSERT
  5
3F33
  8
中心線
  2
*U19
 10
0.0
 20
0.0
 30
0.0
  0
POINT
  5
3F34
  8
DEFPOINTS
 62
     0
 10
1180.2658929042329
 20
2454.1287829096691
 30
0.0
  0
POINT
  5
3F35
  8
DEFPOINTS
 62
     0
 10
1192.2658929042341
 20
2439.1287829096691
 30
0.0
  0
POINT
  5
3F36
  8
DEFPOINTS
 62
     0
 10
1205.7337421218649
 20
2439.1287829096691
 30
0.0
  0
ENDBLK
  5
3D21
  8
0
  0
BLOCK
  8
0
  2
*D7
 70
     1
 10
0.0
 20
0.0
 30
0.0
  3
*D7
  1

  0
LINE
  5
3F3B
  8
寸法線
 62
     0
 10
1096.314856850845
 20
2497.3486908447539
 30
0.0
 11
1096.314856850845
 21
2533.6231789468902
 31
0.0
  0
LINE
  5
3F3C
  8
寸法線
 62
     0
 10
1131.314856850845
 20
2497.3486908447539
 30
0.0
 11
1131.314856850845
 21
2533.6231789468902
 31
0.0
  0
LINE
  5
3F3D
  8
寸法線
 62
     0
 10
1099.314856850845
 20
2533.6231789468902
 30
0.0
 11
1128.314856850845
 21
2533.6231789468902
 31
0.0
  0
INSERT
  5
3F3E
  8
寸法線
 62
     0
  2
_OPEN30
 10
1096.314856850845
 20
2533.6231789468902
 30
0.0
 41
3.0
 42
3.0
 43
3.0
 50
180.0
  0
INSERT
  5
3F3F
  8
寸法線
 62
     0
  2
_OPEN30
 10
1131.314856850845
 20
2533.6231789468902
 30
0.0
 41
3.0
 42
3.0
 43
3.0
  0
INSERT
  5
3F40
  8
中心線
  2
*U20
 10
0.0
 20
0.0
 30
0.0
  0
POINT
  5
3F41
  8
DEFPOINTS
 62
     0
 10
1096.314856850845
 20
2495.3486908447539
 30
0.0
  0
POINT
  5
3F42
  8
DEFPOINTS
 62
     0
 10
1131.314856850845
 20
2495.3486908447539
 30
0.0
  0
POINT
  5
3F43
  8
DEFPOINTS
 62
     0
 10
1131.314856850845
 20
2533.6231789468902
 30
0.0
  0
ENDBLK
  5
3D42
  8
0
  0
BLOCK
  8
0
  2
*D8
 70
     1
 10
0.0
 20
0.0
 30
0.0
  3
*D8
  1

  0
LINE
  5
3F74
  8
寸法線
 62
     0
 10
1005.812445278276
 20
2486.1950141762181
 30
0.0
 11
985.70505975137883
 21
2486.1950141762181
 31
0.0
  0
LINE
  5
3F75
  8
寸法線
 62
     0
 10
1005.812445278276
 20
2476.1950141762181
 30
0.0
 11
985.70505975137883
 21
2476.1950141762181
 31
0.0
  0
LINE
  5
3F76
  8
寸法線
 62
     0
 10
985.70505975137883
 20
2483.1950141762181
 30
0.0
 11
985.70505975137883
 21
2479.1950141762181
 31
0.0
  0
INSERT
  5
3F77
  8
寸法線
 62
     0
  2
_OPEN30
 10
985.70505975137883
 20
2486.1950141762181
 30
0.0
 41
3.0
 42
3.0
 43
3.0
 50
90.0
  0
INSERT
  5
3F78
  8
寸法線
 62
     0
  2
_OPEN30
 10
985.70505975137883
 20
2476.1950141762181
 30
0.0
 41
3.0
 42
3.0
 43
3.0
 50
270.0
  0
INSERT
  5
3F79
  8
中心線
  2
*U22
 10
0.0
 20
0.0
 30
0.0
  0
POINT
  5
3F7A
  8
DEFPOINTS
 62
     0
 10
1007.812445278275
 20
2486.1950141762181
 30
0.0
  0
POINT
  5
3F7B
  8
DEFPOINTS
 62
     0
 10
1007.812445278275
 20
2476.1950141762181
 30
0.0
  0
POINT
  5
3F7C
  8
DEFPOINTS
 62
     0
 10
985.70505975137883
 20
2476.1950141762181
 30
0.0
  0
ENDBLK
  5
3E0B
  8
0
  0
BLOCK
  8
0
  2
*D9
 70
     1
 10
0.0
 20
0.0
 30
0.0
  3
*D9
  1

  0
LINE
  5
3F7D
  8
寸法線
 62
     0
 10
1002.812445278277
 20
2486.6950141762181
 30
0.0
 11
1002.812445278277
 21
2501.8926662540598
 31
0.0
  0
LINE
  5
3F7E
  8
寸法線
 62
     0
 10
1062.812445278277
 20
2492.6950141762181
 30
0.0
 11
1062.812445278277
 21
2501.8926662540598
 31
0.0
  0
LINE
  5
3F7F
  8
寸法線
 62
     0
 10
1005.812445278277
 20
2501.8926662540598
 30
0.0
 11
1059.8124452782779
 21
2501.8926662540598
 31
0.0
  0
INSERT
  5
3F80
  8
寸法線
 62
     0
  2
_OPEN30
 10
1002.812445278277
 20
2501.8926662540598
 30
0.0
 41
3.0
 42
3.0
 43
3.0
 50
180.0
  0
INSERT
  5
3F81
  8
寸法線
 62
     0
  2
_OPEN30
 10
1062.812445278277
 20
2501.8926662540598
 30
0.0
 41
3.0
 42
3.0
 43
3.0
  0
INSERT
  5
3F82
  8
中心線
  2
*U23
 10
0.0
 20
0.0
 30
0.0
  0
POINT
  5
3F83
  8
DEFPOINTS
 62
     0
 10
1002.812445278277
 20
2484.6950141762181
 30
0.0
  0
POINT
  5
3F84
  8
DEFPOINTS
 62
     0
 10
1062.812445278277
 20
2490.6950141762181
 30
0.0
  0
POINT
  5
3F85
  8
DEFPOINTS
 62
     0
 10
1062.812445278277
 20
2501.8926662540598
 30
0.0
  0
ENDBLK
  5
3E7D
  8
0
  0
BLOCK
  8
0
  2
*D10
 70
     1
 10
0.0
 20
0.0
 30
0.0
  3
*D10
  1

  0
LINE
  5
3EB3
  8
寸法線
 62
     0
 10
957.03542421368695
 20
2525.6336288297748
 30
0.0
 11
949.14804245176481
 21
2525.6336288297748
 31
0.0
  0
LINE
  5
3EB4
  8
寸法線
 62
     0
 10
957.0354242136907
 20
2516.6336288297748
 30
0.0
 11
949.14804245176481
 21
2516.6336288297748
 31
0.0
  0
LINE
  5
3EB5
  8
寸法線
 62
     0
 10
949.14804245176481
 20
2522.6336288297748
 30
0.0
 11
949.14804245176481
 21
2519.6336288297748
 31
0.0
  0
INSERT
  5
3EB6
  8
寸法線
 62
     0
  2
_OPEN30
 10
949.14804245176481
 20
2525.6336288297748
 30
0.0
 41
3.0
 42
3.0
 43
3.0
 50
90.0
  0
INSERT
  5
3EB7
  8
寸法線
 62
     0
  2
_OPEN30
 10
949.14804245176481
 20
2516.6336288297748
 30
0.0
 41
3.0
 42
3.0
 43
3.0
 50
270.0
  0
INSERT
  5
3EB8
  8
中心線
  2
*U17
 10
0.0
 20
0.0
 30
0.0
  0
POINT
  5
3EB9
  8
DEFPOINTS
 62
     0
 10
959.03542421368695
 20
2525.6336288297748
 30
0.0
  0
POINT
  5
3EBA
  8
DEFPOINTS
 62
     0
 10
959.0354242136907
 20
2516.6336288297748
 30
0.0
  0
POINT
  5
3EBB
  8
DEFPOINTS
 62
     0
 10
949.14804245176481
 20
2516.6336288297748
 30
0.0
  0
ENDBLK
  5
3E9E
  8
0
  0
BLOCK
  8
0
  2
*D11
 70
     1
 10
0.0
 20
0.0
 30
0.0
  3
*D11
  1

  0
LINE
  5
3F69
  8
寸法線
 62
     0
 10
1133.314856850845
 20
2439.1287829096691
 30
0.0
 11
1141.3991606014599
 21
2439.1287829096691
 31
0.0
  0
LINE
  5
3F6A
  8
寸法線
 62
     0
 10
1133.314856850845
 20
2441.1287829096691
 30
0.0
 11
1141.3991606014599
 21
2441.1287829096691
 31
0.0
  0
LINE
  5
3F6B
  8
寸法線
 62
     0
 10
1141.3991606014599
 20
2436.12878290967
 30
0.0
 11
1141.3991606014599
 21
2433.1287829096691
 31
0.0
  0
LINE
  5
3F6C
  8
寸法線
 62
     0
 10
1141.3991606014599
 20
2444.1287829096691
 30
0.0
 11
1141.3991606014599
 21
2451.1287829096691
 31
0.0
  0
LINE
  5
3F6D
  8
寸法線
 62
     0
 10
1141.3991606014599
 20
2439.1287829096691
 30
0.0
 11
1141.3991606014599
 21
2441.1287829096691
 31
0.0
  0
INSERT
  5
3F6E
  8
寸法線
 62
     0
  2
_OPEN30
 10
1141.3991606014599
 20
2439.1287829096691
 30
0.0
 41
3.0
 42
3.0
 43
3.0
 50
90.0
  0
INSERT
  5
3F6F
  8
寸法線
 62
     0
  2
_OPEN30
 10
1141.3991606014599
 20
2441.1287829096691
 30
0.0
 41
3.0
 42
3.0
 43
3.0
 50
270.0
  0
INSERT
  5
3F70
  8
中心線
  2
*U21
 10
0.0
 20
0.0
 30
0.0
  0
POINT
  5
3F71
  8
DEFPOINTS
 62
     0
 10
1131.314856850845
 20
2439.1287829096691
 30
0.0
  0
POINT
  5
3F72
  8
DEFPOINTS
 62
     0
 10
1131.314856850845
 20
2441.1287829096691
 30
0.0
  0
POINT
  5
3F73
  8
DEFPOINTS
 62
     0
 10
1141.3991606014599
 20
2441.1287829096691
 30
0.0
  0
ENDBLK
  5
3EDF
  8
0
  0
BLOCK
  8
0
  2
*D13
 70
     1
 10
0.0
 20
0.0
 30
0.0
  3
*D13
  1

  0
LINE
  5
4086
  8
寸法線
 62
     0
 10
1108.314856850845
 20
2497.3486908447539
 30
0.0
 11
1108.314856850845
 21
2521.111632811756
 31
0.0
  0
LINE
  5
4087
  8
寸法線
 62
     0
 10
1119.314856850845
 20
2497.3486908447539
 30
0.0
 11
1119.314856850845
 21
2521.111632811756
 31
0.0
  0
LINE
  5
4088
  8
寸法線
 62
     0
 10
1111.314856850845
 20
2521.111632811756
 30
0.0
 11
1116.314856850845
 21
2521.111632811756
 31
0.0
  0
INSERT
  5
4089
  8
寸法線
 62
     0
  2
_OPEN30
 10
1108.314856850845
 20
2521.111632811756
 30
0.0
 41
3.0
 42
3.0
 43
3.0
 50
180.0
  0
INSERT
  5
408A
  8
寸法線
 62
     0
  2
_OPEN30
 10
1119.314856850845
 20
2521.111632811756
 30
0.0
 41
3.0
 42
3.0
 43
3.0
  0
INSERT
  5
408B
  8
中心線
  2
*U27
 10
0.0
 20
0.0
 30
0.0
  0
POINT
  5
408C
  8
DEFPOINTS
 62
     0
 10
1108.314856850845
 20
2495.3486908447539
 30
0.0
  0
POINT
  5
408D
  8
DEFPOINTS
 62
     0
 10
1119.314856850845
 20
2495.3486908447539
 30
0.0
  0
POINT
  5
408E
  8
DEFPOINTS
 62
     0
 10
1119.314856850845
 20
2521.111632811756
 30
0.0
  0
ENDBLK
  5
4062
  8
0
  0
BLOCK
  8
0
  2
*D14
 70
     1
 10
0.0
 20
0.0
 30
0.0
  3
*D14
  1

  0
LINE
  5
408F
  8
寸法線
 62
     0
 10
1168.7658929042329
 20
2497.3486908447539
 30
0.0
 11
1168.7658929042329
 21
2523.7392288307892
 31
0.0
  0
LINE
  5
4090
  8
寸法線
 62
     0
 10
1178.7658929042329
 20
2497.3486908447539
 30
0.0
 11
1178.7658929042329
 21
2523.7392288307892
 31
0.0
  0
LINE
  5
4091
  8
寸法線
 62
     0
 10
1171.7658929042329
 20
2523.7392288307892
 30
0.0
 11
1175.7658929042329
 21
2523.7392288307892
 31
0.0
  0
INSERT
  5
4092
  8
寸法線
 62
     0
  2
_OPEN30
 10
1168.7658929042329
 20
2523.7392288307892
 30
0.0
 41
3.0
 42
3.0
 43
3.0
 50
180.0
  0
INSERT
  5
4093
  8
寸法線
 62
     0
  2
_OPEN30
 10
1178.7658929042329
 20
2523.7392288307892
 30
0.0
 41
3.0
 42
3.0
 43
3.0
  0
INSERT
  5
4094
  8
中心線
  2
*U28
 10
0.0
 20
0.0
 30
0.0
  0
POINT
  5
4095
  8
DEFPOINTS
 62
     0
 10
1168.7658929042329
 20
2495.3486908447539
 30
0.0
  0
POINT
  5
4096
  8
DEFPOINTS
 62
     0
 10
1178.7658929042329
 20
2495.3486908447539
 30
0.0
  0
POINT
  5
4097
  8
DEFPOINTS
 62
     0
 10
1178.7658929042329
 20
2523.7392288307892
 30
0.0
  0
ENDBLK
  5
407A
  8
0
  0
BLOCK
  8
0
  2
*D15
 70
     1
 10
0.0
 20
0.0
 30
0.0
  3
*D15
  1

  0
LINE
  5
40D2
  8
寸法線
 62
     0
 10
952.03542421368729
 20
2523.1336288297748
 30
0.0
 11
952.03542421368729
 21
2533.2701660924199
 31
0.0
  0
LINE
  5
40D3
  8
寸法線
 62
     0
 10
1005.035424213687
 20
2523.1336288297748
 30
0.0
 11
1005.035424213687
 21
2533.2701660924199
 31
0.0
  0
LINE
  5
40D4
  8
寸法線
 62
     0
 10
955.03542421368718
 20
2533.2701660924199
 30
0.0
 11
1002.035424213687
 21
2533.2701660924199
 31
0.0
  0
INSERT
  5
40D5
  8
寸法線
 62
     0
  2
_OPEN30
 10
952.03542421368729
 20
2533.2701660924199
 30
0.0
 41
3.0
 42
3.0
 43
3.0
 50
180.0
  0
INSERT
  5
40D6
  8
寸法線
 62
     0
  2
_OPEN30
 10
1005.035424213687
 20
2533.2701660924199
 30
0.0
 41
3.0
 42
3.0
 43
3.0
  0
INSERT
  5
40D7
  8
中心線
  2
*U29
 10
0.0
 20
0.0
 30
0.0
  0
POINT
  5
40D8
  8
DEFPOINTS
 62
     0
 10
952.03542421368729
 20
2521.1336288297762
 30
0.0
  0
POINT
  5
40D9
  8
DEFPOINTS
 62
     0
 10
1005.035424213687
 20
2521.1336288297762
 30
0.0
  0
POINT
  5
40DA
  8
DEFPOINTS
 62
     0
 10
1005.035424213687
 20
2533.2701660924199
 30
0.0
  0
ENDBLK
  5
40BD
  8
0
  0
BLOCK
  8
0
  2
*U16
 70
     1
 10
0.0
 20
0.0
 30
0.0
  3
*U16
  1

  0
TEXT
  5
41D8
  8
寸法線
 62
     0
 10
1005.035424213687
 20
2540.6675577896972
 30
0.0
 40
3.0
  1
115
  7
JAPANESE
  0
ENDBLK
  5
41DA
  8
0
  0
BLOCK
  8
0
  2
*U17
 70
     1
 10
0.0
 20
0.0
 30
0.0
  3
*U17
  1

  0
TEXT
  5
41DC
  8
寸法線
 62
     0
 10
948.14804245176435
 20
2519.7764859726308
 30
0.0
 40
3.0
  1
9
 50
90.0
  7
JAPANESE
  0
ENDBLK
  5
41DE
  8
0
  0
BLOCK
  8
0
  2
*U18
 70
     1
 10
0.0
 20
0.0
 30
0.0
  3
*U18
  1

  0
TEXT
  5
41E0
  8
寸法線
 62
     0
 10
1170.908750047091
 20
2540.024297932538
 30
0.0
 40
3.0
  1
37
  7
JAPANESE
  0
ENDBLK
  5
41E2
  8
0
  0
BLOCK
  8
0
  2
*U19
 70
     1
 10
0.0
 20
0.0
 30
0.0
  3
*U19
  1

  0
TEXT
  5
41E4
  8
寸法線
 62
     0
 10
1204.7337421218649
 20
2443.5573543382411
 30
0.0
 40
3.0
  1
15
 50
90.0
  7
JAPANESE
  0
ENDBLK
  5
41E6
  8
0
  0
BLOCK
  8
0
  2
*U20
 70
     1
 10
0.0
 20
0.0
 30
0.0
  3
*U20
  1

  0
TEXT
  5
41E8
  8
寸法線
 62
     0
 10
1110.957713993703
 20
2534.6231789468902
 30
0.0
 40
3.0
  1
35
  7
JAPANESE
  0
ENDBLK
  5
41EA
  8
0
  0
BLOCK
  8
0
  2
*U21
 70
     1
 10
0.0
 20
0.0
 30
0.0
  3
*U21
  1

  0
TEXT
  5
41EC
  8
寸法線
 62
     0
 10
1140.3991606014599
 20
2447.700211481098
 30
0.0
 40
3.0
  1
2
 50
90.0
  7
JAPANESE
  0
ENDBLK
  5
41EE
  8
0
  0
BLOCK
  8
0
  2
*U22
 70
     1
 10
0.0
 20
0.0
 30
0.0
  3
*U22
  1

  0
TEXT
  5
41F0
  8
寸法線
 62
     0
 10
984.70505975137849
 20
2478.1235856047902
 30
0.0
 40
3.0
  1
10
 50
90.0
  7
JAPANESE
  0
ENDBLK
  5
41F2
  8
0
  0
BLOCK
  8
0
  2
*U23
 70
     1
 10
0.0
 20
0.0
 30
0.0
  3
*U23
  1

  0
TEXT
  5
41F4
  8
寸法線
 62
     0
 10
1029.8838738497061
 20
2502.8926662540598
 30
0.0
 40
3.0
  1
60
  7
JAPANESE
  0
ENDBLK
  5
41F6
  8
0
  0
BLOCK
  8
0
  2
*U24
 70
     1
 10
0.0
 20
0.0
 30
0.0
  3
*U24
  1

  0
TEXT
  5
41F8
  8
寸法線
 62
     0
 10
1002.757445923787
 20
2463.7252698675902
 30
0.0
 40
3.0
  1
19
  7
JAPANESE
  0
ENDBLK
  5
41FA
  8
0
  0
BLOCK
  8
0
  2
*U25
 70
     1
 10
0.0
 20
0.0
 30
0.0
  3
*U25
  1

  0
TEXT
  5
41FC
  8
寸法線
 62
     0
 10
970.79009104398892
 20
2435.2255257360021
 30
0.0
 40
3.0
  1
16.45
 50
90.0
  7
JAPANESE
  0
ENDBLK
  5
41FE
  8
0
  0
BLOCK
  8
0
  2
*U26
 70
     1
 10
0.0
 20
0.0
 30
0.0
  3
*U26
  1

  0
TEXT
  5
4200
  8
中心線
 62
     0
 10
975.67828135654429
 20
2533.9121010654471
 30
0.0
 40
3.0
  1
53
  7
JAPANESE
  0
ENDBLK
  5
4202
  8
0
  0
BLOCK
  8
0
  2
*U27
 70
     1
 10
0.0
 20
0.0
 30
0.0
  3
*U27
  1

  0
TEXT
  5
4204
  8
寸法線
 62
     0
 10
1111.1719997079881
 20
2522.111632811756
 30
0.0
 40
3.0
  1
11
  7
JAPANESE
  0
ENDBLK
  5
4206
  8
0
  0
BLOCK
  8
0
  2
*U28
 70
     1
 10
0.0
 20
0.0
 30
0.0
  3
*U28
  1

  0
TEXT
  5
4208
  8
寸法線
 62
     0
 10
1170.694464332805
 20
2524.7392288307892
 30
0.0
 40
3.0
  1
10
  7
JAPANESE
  0
ENDBLK
  5
420A
  8
0
  0
BLOCK
  8
0
  2
*U29
 70
     1
 10
0.0
 20
0.0
 30
0.0
  3
*U29
  1

  0
TEXT
  5
420C
  8
寸法線
 62
     0
 10
975.67828135654429
 20
2534.2701660924199
 30
0.0
 40
3.0
  1
53
  7
JAPANESE
  0
ENDBLK
  5
420E
  8
0
  0
ENDSEC
  0
SECTION
  2
ENTITIES
  0
LINE
  5
30C8
  8
_0-0_
  6
CONTINUOUS
 62
     1
 10
1152.178653917209
 20
2379.330558255208
 30
0.0
 11
1152.178653917209
 21
2361.3305582570092
 31
0.0
  0
LINE
  5
30C9
  8
_0-0_
  6
CONTINUOUS
 62
     1
 10
940.01377569982105
 20
2553.7771152079499
 30
0.0
 11
1217.178653917209
 21
2553.7771152079499
 31
0.0
  0
LINE
  5
30CA
  8
_0-0_
  6
CONTINUOUS
 62
     1
 10
1217.178653917209
 20
2361.3305582570092
 30
0.0
 11
940.01377569982105
 21
2361.3305582570092
 31
0.0
  0
LINE
  5
30CB
  8
_0-0_
  6
CONTINUOUS
 62
     1
 10
940.01377569982105
 20
2361.3305582570092
 30
0.0
 11
940.01377569982105
 21
2553.7771152079499
 31
0.0
  0
LINE
  5
30CC
  8
_0-0_
  6
CONTINUOUS
 62
     1
 10
1217.178653917209
 20
2379.330558255208
 30
0.0
 11
1024.732096966268
 21
2379.330558255208
 31
0.0
  0
LINE
  5
30CD
  8
_0-0_
  6
CONTINUOUS
 62
     1
 10
1217.178653917209
 20
2361.3305582570092
 30
0.0
 11
1024.732096966268
 21
2361.3305582570092
 31
0.0
  0
LINE
  5
30CE
  8
_0-0_
  6
CONTINUOUS
 62
     7
 10
1036.3665380973109
 20
2364.8114870791578
 30
0.0
 11
1040.5703878995089
 21
2364.8114870791578
 31
0.0
  0
LINE
  5
30CF
  8
_0-0_
  6
CONTINUOUS
 62
     7
 10
1040.5703878995089
 20
2364.8114870791578
 30
0.0
 11
1040.5703878995089
 21
2369.0212562899001
 31
0.0
  0
LINE
  5
30D0
  8
_0-0_
  6
CONTINUOUS
 62
     7
 10
1036.3665380973109
 20
2369.0212562899001
 30
0.0
 11
1036.3665380973109
 21
2364.8114870791578
 31
0.0
  0
LINE
  5
30D1
  8
_0-0_
  6
CONTINUOUS
 62
     7
 10
1040.5703878995089
 20
2369.0212562899001
 30
0.0
 11
1036.3665380973109
 21
2369.0212562899001
 31
0.0
  0
LINE
  5
30D2
  8
_0-0_
  6
CONTINUOUS
 62
     7
 10
1041.046710061968
 20
2370.3940480530241
 30
0.0
 11
1043.1967100619679
 21
2374.117957289297
 31
0.0
  0
LINE
  5
30D3
  8
_0-0_
  6
CONTINUOUS
 62
     7
 10
1041.046710061968
 20
2370.3940480530241
 30
0.0
 11
1045.3467100619671
 21
2370.3940480530241
 31
0.0
  0
LINE
  5
30D4
  8
_0-0_
  6
CONTINUOUS
 62
     7
 10
1043.1967100619679
 20
2374.117957289297
 30
0.0
 11
1045.3467100619671
 21
2370.3940480530241
 31
0.0
  0
CIRCLE
  5
30D5
  8
_0-0_
  6
CONTINUOUS
 62
     7
 10
1046.579479522137
 20
2374.9137272673029
 30
0.0
 40
1.4758715835162379
  0
LINE
  5
30D6
  8
_0-0_
  6
CONTINUOUS
 62
     2
 10
1049.546275419588
 20
2367.007987241338
 30
0.0
 11
1051.358540388434
 21
2367.007987241338
 31
0.0
  0
LINE
  5
30D7
  8
_0-0_
  6
CONTINUOUS
 62
     2
 10
1051.8248480465891
 20
2366.007987241338
 30
0.0
 11
1052.43104800219
 21
2364.7079872413378
 31
0.0
  0
LINE
  5
30D8
  8
_0-0_
  6
CONTINUOUS
 62
     2
 10
1049.079967761433
 20
2366.007987241338
 30
0.0
 11
1048.473767805832
 21
2364.7079872413378
 31
0.0
  0
LINE
  5
30D9
  8
_0-0_
  6
CONTINUOUS
 62
     2
 10
1050.4524079040109
 20
2368.95119462508
 30
0.0
 11
1051.358540388434
 21
2367.007987241338
 31
0.0
  0
LINE
  5
30DA
  8
_0-0_
  6
CONTINUOUS
 62
     2
 10
1050.4524079040109
 20
2368.95119462508
 30
0.0
 11
1049.546275419588
 21
2367.007987241338
 31
0.0
  0
LINE
  5
30DB
  8
_0-0_
  6
CONTINUOUS
 62
     2
 10
1049.8574280878961
 20
2370.4631152885208
 30
0.0
 11
1047.1737678058321
 21
2364.7079872413378
 31
0.0
  0
LINE
  5
30DC
  8
_0-0_
  6
CONTINUOUS
 62
     2
 10
1057.7003008769909
 20
2369.4631152885208
 30
0.0
 11
1057.775114885244
 21
2369.4220585437611
 31
0.0
  0
LINE
  5
30DD
  8
_0-0_
  6
CONTINUOUS
 62
     2
 10
1057.775114885244
 20
2369.4220585437611
 30
0.0
 11
1057.9027113380421
 21
2369.3503290110129
 31
0.0
  0
LINE
  5
30DE
  8
_0-0_
  6
CONTINUOUS
 62
     2
 10
1057.9027113380421
 20
2369.3503290110129
 30
0.0
 11
1058.026437744717
 21
2369.2759826955321
 31
0.0
  0
LINE
  5
30DF
  8
_0-0_
  6
CONTINUOUS
 62
     2
 10
1058.026437744717
 20
2369.2759826955321
 30
0.0
 11
1058.1438447089879
 21
2369.1973634057181
 31
0.0
  0
LINE
  5
30E0
  8
_0-0_
  6
CONTINUOUS
 62
     2
 10
1058.1438447089879
 20
2369.1973634057181
 30
0.0
 11
1058.252482834574
 21
2369.1128149499641
 31
0.0
  0
LINE
  5
30E1
  8
_0-0_
  6
CONTINUOUS
 62
     2
 10
1058.252482834574
 20
2369.1128149499641
 30
0.0
 11
1058.3499027251951
 21
2369.0206811366702
 31
0.0
  0
LINE
  5
30E2
  8
_0-0_
  6
CONTINUOUS
 62
     2
 10
1058.3499027251951
 20
2369.0206811366702
 30
0.0
 11
1058.400300876991
 21
2368.9631152885208
 31
0.0
  0
LINE
  5
30E3
  8
_0-0_
  6
CONTINUOUS
 62
     2
 10
1058.400300876991
 20
2368.9631152885208
 30
0.0
 11
1058.4722495142239
 21
2368.8615807587471
 31
0.0
  0
LINE
  5
30E4
  8
_0-0_
  6
CONTINUOUS
 62
     2
 10
1058.4722495142239
 20
2368.8615807587471
 30
0.0
 11
1058.5677050849799
 21
2368.6674028092311
 31
0.0
  0
LINE
  5
30E5
  8
_0-0_
  6
CONTINUOUS
 62
     2
 10
1058.5677050849799
 20
2368.6674028092311
 30
0.0
 11
1058.6321418583641
 21
2368.45285015229
 31
0.0
  0
LINE
  5
30E6
  8
_0-0_
  6
CONTINUOUS
 62
     2
 10
1058.6321418583641
 20
2368.45285015229
 30
0.0
 11
1058.671578312242
 21
2368.2223714139991
 31
0.0
  0
LINE
  5
30E7
  8
_0-0_
  6
CONTINUOUS
 62
     2
 10
1058.671578312242
 20
2368.2223714139991
 30
0.0
 11
1058.6920329244761
 21
2367.9804152204342
 31
0.0
  0
LINE
  5
30E8
  8
_0-0_
  6
CONTINUOUS
 62
     2
 10
1058.6920329244761
 20
2367.9804152204342
 30
0.0
 11
1058.699524172931
 21
2367.7314301976689
 31
0.0
  0
LINE
  5
30E9
  8
_0-0_
  6
CONTINUOUS
 62
     2
 10
1058.699524172931
 20
2367.7314301976689
 30
0.0
 11
1058.7003008769909
 21
2367.58555126493
 31
0.0
  0
LINE
  5
30EA
  8
_0-0_
  6
CONTINUOUS
 62
     2
 10
1058.7003008769909
 20
2367.58555126493
 30
0.0
 11
1058.699524172931
 21
2367.4396723321888
 31
0.0
  0
LINE
  5
30EB
  8
_0-0_
  6
CONTINUOUS
 62
     2
 10
1058.699524172931
 20
2367.4396723321888
 30
0.0
 11
1058.6920329244761
 21
2367.1906873094249
 31
0.0
  0
LINE
  5
30EC
  8
_0-0_
  6
CONTINUOUS
 62
     2
 10
1058.6920329244761
 20
2367.1906873094249
 30
0.0
 11
1058.671578312242
 21
2366.94873111586
 31
0.0
  0
LINE
  5
30ED
  8
_0-0_
  6
CONTINUOUS
 62
     2
 10
1058.671578312242
 20
2366.94873111586
 30
0.0
 11
1058.6321418583641
 21
2366.7182523775691
 31
0.0
  0
LINE
  5
30EE
  8
_0-0_
  6
CONTINUOUS
 62
     2
 10
1058.6321418583641
 20
2366.7182523775691
 30
0.0
 11
1058.5677050849799
 21
2366.503699720628
 31
0.0
  0
LINE
  5
30EF
  8
_0-0_
  6
CONTINUOUS
 62
     2
 10
1058.5677050849799
 20
2366.503699720628
 30
0.0
 11
1058.4722495142239
 21
2366.309521771112
 31
0.0
  0
LINE
  5
30F0
  8
_0-0_
  6
CONTINUOUS
 62
     2
 10
1058.4722495142239
 20
2366.309521771112
 30
0.0
 11
1058.400300876991
 21
2366.2079872413378
 31
0.0
  0
LINE
  5
30F1
  8
_0-0_
  6
CONTINUOUS
 62
     2
 10
1058.400300876991
 20
2366.2079872413378
 30
0.0
 11
1058.3499027251951
 21
2366.150421393188
 31
0.0
  0
LINE
  5
30F2
  8
_0-0_
  6
CONTINUOUS
 62
     2
 10
1058.3499027251951
 20
2366.150421393188
 30
0.0
 11
1058.252482834574
 21
2366.058287579895
 31
0.0
  0
LINE
  5
30F3
  8
_0-0_
  6
CONTINUOUS
 62
     2
 10
1058.252482834574
 20
2366.058287579895
 30
0.0
 11
1058.1438447089879
 21
2365.973739124141
 31
0.0
  0
LINE
  5
30F4
  8
_0-0_
  6
CONTINUOUS
 62
     2
 10
1058.1438447089879
 20
2365.973739124141
 30
0.0
 11
1058.026437744717
 21
2365.8951198343261
 31
0.0
  0
LINE
  5
30F5
  8
_0-0_
  6
CONTINUOUS
 62
     2
 10
1058.026437744717
 20
2365.8951198343261
 30
0.0
 11
1057.9027113380421
 21
2365.8207735188448
 31
0.0
  0
LINE
  5
30F6
  8
_0-0_
  6
CONTINUOUS
 62
     2
 10
1057.9027113380421
 20
2365.8207735188448
 30
0.0
 11
1057.775114885244
 21
2365.7490439860971
 31
0.0
  0
LINE
  5
30F7
  8
_0-0_
  6
CONTINUOUS
 62
     2
 10
1057.775114885244
 20
2365.7490439860971
 30
0.0
 11
1057.7003008769909
 21
2365.7079872413378
 31
0.0
  0
LINE
  5
30F8
  8
_0-0_
  6
CONTINUOUS
 62
     2
 10
1057.7003008769909
 20
2364.7079872413378
 30
0.0
 11
1057.765789603515
 21
2364.7249410462919
 31
0.0
  0
LINE
  5
30F9
  8
_0-0_
  6
CONTINUOUS
 62
     2
 10
1057.765789603515
 20
2364.7249410462919
 30
0.0
 11
1057.878766968975
 21
2364.7544654669841
 31
0.0
  0
LINE
  5
30FA
  8
_0-0_
  6
CONTINUOUS
 62
     2
 10
1057.878766968975
 20
2364.7544654669841
 30
0.0
 11
1057.9919270233361
 21
2364.784805783489
 31
0.0
  0
LINE
  5
30FB
  8
_0-0_
  6
CONTINUOUS
 62
     2
 10
1057.9919270233361
 20
2364.784805783489
 30
0.0
 11
1058.105385392483
 21
2364.8164783855659
 31
0.0
  0
LINE
  5
30FC
  8
_0-0_
  6
CONTINUOUS
 62
     2
 10
1058.105385392483
 20
2364.8164783855659
 30
0.0
 11
1058.2192577023029
 21
2364.8499996629698
 31
0.0
  0
LINE
  5
30FD
  8
_0-0_
  6
CONTINUOUS
 62
     2
 10
1058.2192577023029
 20
2364.8499996629698
 30
0.0
 11
1058.333659578682
 21
2364.8858860054579
 31
0.0
  0
LINE
  5
30FE
  8
_0-0_
  6
CONTINUOUS
 62
     2
 10
1058.333659578682
 20
2364.8858860054579
 30
0.0
 11
1058.400300876991
 21
2364.9079872413381
 31
0.0
  0
LINE
  5
30FF
  8
_0-0_
  6
CONTINUOUS
 62
     2
 10
1058.400300876991
 20
2364.9079872413381
 30
0.0
 11
1058.5328051162851
 21
2364.9549699745189
 31
0.0
  0
LINE
  5
3100
  8
_0-0_
  6
CONTINUOUS
 62
     2
 10
1058.5328051162851
 20
2364.9549699745189
 30
0.0
 11
1058.7597077073819
 21
2365.0471105178108
 31
0.0
  0
LINE
  5
3101
  8
_0-0_
  6
CONTINUOUS
 62
     2
 10
1058.7597077073819
 20
2365.0471105178108
 30
0.0
 11
1058.9789576357671
 21
2365.1552727537478
 31
0.0
  0
LINE
  5
3102
  8
_0-0_
  6
CONTINUOUS
 62
     2
 10
1058.9789576357671
 20
2365.1552727537478
 30
0.0
 11
1059.1839422878829
 21
2365.281695873196
 31
0.0
  0
LINE
  5
3103
  8
_0-0_
  6
CONTINUOUS
 62
     2
 10
1059.1839422878829
 20
2365.281695873196
 30
0.0
 11
1059.368049050172
 21
2365.4286190670232
 31
0.0
  0
LINE
  5
3104
  8
_0-0_
  6
CONTINUOUS
 62
     2
 10
1059.368049050172
 20
2365.4286190670232
 30
0.0
 11
1059.5246653090751
 21
2365.5982815260982
 31
0.0
  0
LINE
  5
3105
  8
_0-0_
  6
CONTINUOUS
 62
     2
 10
1059.5246653090751
 20
2365.5982815260982
 30
0.0
 11
1059.600300876991
 21
2365.7079872413378
 31
0.0
  0
LINE
  5
3106
  8
_0-0_
  6
CONTINUOUS
 62
     2
 10
1059.600300876991
 20
2365.7079872413378
 30
0.0
 11
1059.625371377738
 21
2365.75117186436
 31
0.0
  0
LINE
  5
3107
  8
_0-0_
  6
CONTINUOUS
 62
     2
 10
1059.625371377738
 20
2365.75117186436
 30
0.0
 11
1059.664780674213
 21
2365.8282039726969
 31
0.0
  0
LINE
  5
3108
  8
_0-0_
  6
CONTINUOUS
 62
     2
 10
1059.664780674213
 20
2365.8282039726969
 30
0.0
 11
1059.6999087962231
 21
2365.9080152306528
 31
0.0
  0
LINE
  5
3109
  8
_0-0_
  6
CONTINUOUS
 62
     2
 10
1059.6999087962231
 20
2365.9080152306528
 30
0.0
 11
1059.7313939200781
 21
2365.9900458302382
 31
0.0
  0
LINE
  5
310A
  8
_0-0_
  6
CONTINUOUS
 62
     2
 10
1059.7313939200781
 20
2365.9900458302382
 30
0.0
 11
1059.7598742220889
 21
2366.0737359634659
 31
0.0
  0
LINE
  5
310B
  8
_0-0_
  6
CONTINUOUS
 62
     2
 10
1059.7598742220889
 20
2366.0737359634659
 30
0.0
 11
1059.7859878785659
 21
2366.1585258223481
 31
0.0
  0
LINE
  5
310C
  8
_0-0_
  6
CONTINUOUS
 62
     2
 10
1059.7859878785659
 20
2366.1585258223481
 30
0.0
 11
1059.8003008769911
 21
2366.2079872413378
 31
0.0
  0
LINE
  5
310D
  8
_0-0_
  6
CONTINUOUS
 62
     2
 10
1059.8003008769911
 20
2366.2079872413378
 30
0.0
 11
1059.8351160419311
 21
2366.3362145725032
 31
0.0
  0
LINE
  5
310E
  8
_0-0_
  6
CONTINUOUS
 62
     2
 10
1059.8351160419311
 20
2366.3362145725032
 30
0.0
 11
1059.887769255133
 21
2366.5582994778961
 31
0.0
  0
LINE
  5
310F
  8
_0-0_
  6
CONTINUOUS
 62
     2
 10
1059.887769255133
 20
2366.5582994778961
 30
0.0
 11
1059.9307827383161
 21
2366.7814536111632
 31
0.0
  0
LINE
  5
3110
  8
_0-0_
  6
CONTINUOUS
 62
     2
 10
1059.9307827383161
 20
2366.7814536111632
 30
0.0
 11
1059.963799627378
 21
2367.0054435164361
 31
0.0
  0
LINE
  5
3111
  8
_0-0_
  6
CONTINUOUS
 62
     2
 10
1059.963799627378
 20
2367.0054435164361
 30
0.0
 11
1059.9864630582219
 21
2367.2300357378472
 31
0.0
  0
LINE
  5
3112
  8
_0-0_
  6
CONTINUOUS
 62
     2
 10
1059.9864630582219
 20
2367.2300357378472
 30
0.0
 11
1059.998416166746
 21
2367.4549968195288
 31
0.0
  0
LINE
  5
3113
  8
_0-0_
  6
CONTINUOUS
 62
     2
 10
1059.998416166746
 20
2367.4549968195288
 30
0.0
 11
1060.0003008769911
 21
2367.58555126493
 31
0.0
  0
LINE
  5
3114
  8
_0-0_
  6
CONTINUOUS
 62
     2
 10
1060.0003008769911
 20
2367.58555126493
 30
0.0
 11
1059.998416166746
 21
2367.716105710329
 31
0.0
  0
LINE
  5
3115
  8
_0-0_
  6
CONTINUOUS
 62
     2
 10
1059.998416166746
 20
2367.716105710329
 30
0.0
 11
1059.9864630582219
 21
2367.941066792011
 31
0.0
  0
LINE
  5
3116
  8
_0-0_
  6
CONTINUOUS
 62
     2
 10
1059.9864630582219
 20
2367.941066792011
 30
0.0
 11
1059.963799627378
 21
2368.1656590134221
 31
0.0
  0
LINE
  5
3117
  8
_0-0_
  6
CONTINUOUS
 62
     2
 10
1059.963799627378
 20
2368.1656590134221
 30
0.0
 11
1059.9307827383161
 21
2368.3896489186959
 31
0.0
  0
LINE
  5
3118
  8
_0-0_
  6
CONTINUOUS
 62
     2
 10
1059.9307827383161
 20
2368.3896489186959
 30
0.0
 11
1059.887769255133
 21
2368.6128030519621
 31
0.0
  0
LINE
  5
3119
  8
_0-0_
  6
CONTINUOUS
 62
     2
 10
1059.887769255133
 20
2368.6128030519621
 30
0.0
 11
1059.8351160419311
 21
2368.8348879573559
 31
0.0
  0
LINE
  5
311A
  8
_0-0_
  6
CONTINUOUS
 62
     2
 10
1059.8351160419311
 20
2368.8348879573559
 30
0.0
 11
1059.8003008769911
 21
2368.9631152885208
 31
0.0
  0
LINE
  5
311B
  8
_0-0_
  6
CONTINUOUS
 62
     2
 10
1059.8003008769911
 20
2368.9631152885208
 30
0.0
 11
1059.7859878785659
 21
2369.012576707511
 31
0.0
  0
LINE
  5
311C
  8
_0-0_
  6
CONTINUOUS
 62
     2
 10
1059.7859878785659
 20
2369.012576707511
 30
0.0
 11
1059.7598742220889
 21
2369.0973665663928
 31
0.0
  0
LINE
  5
311D
  8
_0-0_
  6
CONTINUOUS
 62
     2
 10
1059.7598742220889
 20
2369.0973665663928
 30
0.0
 11
1059.7313939200781
 21
2369.181056699621
 31
0.0
  0
LINE
  5
311E
  8
_0-0_
  6
CONTINUOUS
 62
     2
 10
1059.7313939200781
 20
2369.181056699621
 30
0.0
 11
1059.6999087962231
 21
2369.2630872992058
 31
0.0
  0
LINE
  5
311F
  8
_0-0_
  6
CONTINUOUS
 62
     2
 10
1059.6999087962231
 20
2369.2630872992058
 30
0.0
 11
1059.664780674213
 21
2369.3428985571609
 31
0.0
  0
LINE
  5
3120
  8
_0-0_
  6
CONTINUOUS
 62
     2
 10
1059.664780674213
 20
2369.3428985571609
 30
0.0
 11
1059.625371377738
 21
2369.4199306654991
 31
0.0
  0
LINE
  5
3121
  8
_0-0_
  6
CONTINUOUS
 62
     2
 10
1059.625371377738
 20
2369.4199306654991
 30
0.0
 11
1059.600300876991
 21
2369.4631152885208
 31
0.0
  0
LINE
  5
3122
  8
_0-0_
  6
CONTINUOUS
 62
     2
 10
1059.600300876991
 20
2369.4631152885208
 30
0.0
 11
1059.5246653090751
 21
2369.572821003761
 31
0.0
  0
LINE
  5
3123
  8
_0-0_
  6
CONTINUOUS
 62
     2
 10
1059.5246653090751
 20
2369.572821003761
 30
0.0
 11
1059.368049050172
 21
2369.7424834628359
 31
0.0
  0
LINE
  5
3124
  8
_0-0_
  6
CONTINUOUS
 62
     2
 10
1059.368049050172
 20
2369.7424834628359
 30
0.0
 11
1059.1839422878829
 21
2369.8894066566631
 31
0.0
  0
LINE
  5
3125
  8
_0-0_
  6
CONTINUOUS
 62
     2
 10
1059.1839422878829
 20
2369.8894066566631
 30
0.0
 11
1058.9789576357671
 21
2370.0158297761109
 31
0.0
  0
LINE
  5
3126
  8
_0-0_
  6
CONTINUOUS
 62
     2
 10
1058.9789576357671
 20
2370.0158297761109
 30
0.0
 11
1058.7597077073819
 21
2370.1239920120479
 31
0.0
  0
LINE
  5
3127
  8
_0-0_
  6
CONTINUOUS
 62
     2
 10
1058.7597077073819
 20
2370.1239920120479
 30
0.0
 11
1058.5328051162851
 21
2370.2161325553402
 31
0.0
  0
LINE
  5
3128
  8
_0-0_
  6
CONTINUOUS
 62
     2
 10
1058.5328051162851
 20
2370.2161325553402
 30
0.0
 11
1058.400300876991
 21
2370.263115288521
 31
0.0
  0
LINE
  5
3129
  8
_0-0_
  6
CONTINUOUS
 62
     2
 10
1058.400300876991
 20
2370.263115288521
 30
0.0
 11
1058.333659578682
 21
2370.2852165244012
 31
0.0
  0
LINE
  5
312A
  8
_0-0_
  6
CONTINUOUS
 62
     2
 10
1058.333659578682
 20
2370.2852165244012
 30
0.0
 11
1058.2192577023029
 21
2370.3211028668879
 31
0.0
  0
LINE
  5
312B
  8
_0-0_
  6
CONTINUOUS
 62
     2
 10
1058.2192577023029
 20
2370.3211028668879
 30
0.0
 11
1058.105385392483
 21
2370.3546241442918
 31
0.0
  0
LINE
  5
312C
  8
_0-0_
  6
CONTINUOUS
 62
     2
 10
1058.105385392483
 20
2370.3546241442918
 30
0.0
 11
1057.9919270233361
 21
2370.3862967463692
 31
0.0
  0
LINE
  5
312D
  8
_0-0_
  6
CONTINUOUS
 62
     2
 10
1057.9919270233361
 20
2370.3862967463692
 30
0.0
 11
1057.878766968975
 21
2370.416637062875
 31
0.0
  0
LINE
  5
312E
  8
_0-0_
  6
CONTINUOUS
 62
     2
 10
1057.878766968975
 20
2370.416637062875
 30
0.0
 11
1057.765789603515
 21
2370.4461614835668
 31
0.0
  0
LINE
  5
312F
  8
_0-0_
  6
CONTINUOUS
 62
     2
 10
1057.765789603515
 20
2370.4461614835668
 30
0.0
 11
1057.7003008769909
 21
2370.4631152885208
 31
0.0
  0
LINE
  5
3130
  8
_0-0_
  6
CONTINUOUS
 62
     2
 10
1061.3003008769911
 20
2370.4631152885208
 30
0.0
 11
1063.333961159055
 21
2366.1019167396689
 31
0.0
  0
LINE
  5
3131
  8
_0-0_
  6
CONTINUOUS
 62
     2
 10
1065.3676214411189
 20
2370.4631152885208
 30
0.0
 11
1063.333961159055
 21
2366.1019167396689
 31
0.0
  0
LINE
  5
3132
  8
_0-0_
  6
CONTINUOUS
 62
     2
 10
1060.0003008769911
 20
2370.4631152885208
 30
0.0
 11
1062.6839611590549
 21
2364.7079872413378
 31
0.0
  0
LINE
  5
3133
  8
_0-0_
  6
CONTINUOUS
 62
     2
 10
1063.9839611590551
 20
2364.7079872413378
 30
0.0
 11
1066.6676214411191
 21
2370.4631152885208
 31
0.0
  0
LINE
  5
3134
  8
_0-0_
  6
CONTINUOUS
 62
     2
 10
1067.6676214411191
 20
2370.4631152885208
 30
0.0
 11
1064.9839611590551
 21
2364.7079872413378
 31
0.0
  0
LINE
  5
3135
  8
_0-0_
  6
CONTINUOUS
 62
     2
 10
1069.0030554015659
 20
2370.4631152885208
 30
0.0
 11
1071.6867156836299
 21
2364.7079872413378
 31
0.0
  0
LINE
  5
3136
  8
_0-0_
  6
CONTINUOUS
 62
     2
 10
1049.079967761433
 20
2366.007987241338
 30
0.0
 11
1051.8248480465891
 21
2366.007987241338
 31
0.0
  0
LINE
  5
3137
  8
_0-0_
  6
CONTINUOUS
 62
     2
 10
1066.8901611146571
 20
2366.007987241338
 30
0.0
 11
1069.7805157280291
 21
2366.007987241338
 31
0.0
  0
LINE
  5
3138
  8
_0-0_
  6
CONTINUOUS
 62
     2
 10
1067.3564687728119
 20
2367.007987241338
 30
0.0
 11
1069.314208069874
 21
2367.007987241338
 31
0.0
  0
LINE
  5
3139
  8
_0-0_
  6
CONTINUOUS
 62
     2
 10
1073.563264145014
 20
2369.4631152885208
 30
0.0
 11
1076.5345979261031
 21
2364.7079872413378
 31
0.0
  0
LINE
  5
313A
  8
_0-0_
  6
CONTINUOUS
 62
     2
 10
1077.1420235226381
 20
2365.8116909916589
 30
0.0
 11
1077.1420235226381
 21
2370.4631152885208
 31
0.0
  0
LINE
  5
313B
  8
_0-0_
  6
CONTINUOUS
 62
     2
 10
1078.242023522638
 20
2364.7079872413378
 30
0.0
 11
1078.242023522638
 21
2370.4631152885208
 31
0.0
  0
LINE
  5
313C
  8
_0-0_
  6
CONTINUOUS
 62
     2
 10
1074.2354910368031
 20
2370.4631152885208
 30
0.0
 11
1077.1420235226381
 21
2365.8116909916589
 31
0.0
  0
LINE
  5
313D
  8
_0-0_
  6
CONTINUOUS
 62
     2
 10
1072.263264145013
 20
2370.4631152885208
 30
0.0
 11
1072.263264145013
 21
2364.7079872413378
 31
0.0
  0
LINE
  5
313E
  8
_0-0_
  6
CONTINUOUS
 62
     2
 10
1057.7003008769909
 20
2369.4631152885208
 30
0.0
 11
1055.7003008769909
 21
2369.4631152885208
 31
0.0
  0
LINE
  5
313F
  8
_0-0_
  6
CONTINUOUS
 62
     2
 10
1055.7003008769909
 20
2365.7079872413378
 30
0.0
 11
1057.7003008769909
 21
2365.7079872413378
 31
0.0
  0
LINE
  5
3140
  8
_0-0_
  6
CONTINUOUS
 62
     2
 10
1069.314208069874
 20
2367.007987241338
 30
0.0
 11
1068.3353384213431
 21
2369.1071799768902
 31
0.0
  0
LINE
  5
3141
  8
_0-0_
  6
CONTINUOUS
 62
     2
 10
1067.3564687728119
 20
2367.007987241338
 30
0.0
 11
1068.3353384213431
 21
2369.1071799768902
 31
0.0
  0
LINE
  5
3142
  8
_0-0_
  6
CONTINUOUS
 62
     2
 10
1066.283961159055
 20
2364.7079872413378
 30
0.0
 11
1066.8901611146571
 21
2366.007987241338
 31
0.0
  0
LINE
  5
3143
  8
_0-0_
  6
CONTINUOUS
 62
     2
 10
1070.3867156836311
 20
2364.7079872413378
 30
0.0
 11
1069.7805157280291
 21
2366.007987241338
 31
0.0
  0
LINE
  5
3144
  8
_0-0_
  6
CONTINUOUS
 62
     2
 10
1073.563264145014
 20
2369.4631152885208
 30
0.0
 11
1073.563264145014
 21
2364.7079872413378
 31
0.0
  0
LINE
  5
3145
  8
_0-0_
  6
CONTINUOUS
 62
     2
 10
1047.1737678058321
 20
2364.7079872413378
 30
0.0
 11
1048.473767805832
 21
2364.7079872413378
 31
0.0
  0
LINE
  5
3146
  8
_0-0_
  6
CONTINUOUS
 62
     2
 10
1052.43104800219
 20
2364.7079872413378
 30
0.0
 11
1053.7310480021899
 21
2364.7079872413378
 31
0.0
  0
LINE
  5
3147
  8
_0-0_
  6
CONTINUOUS
 62
     2
 10
1051.0473877201259
 20
2370.4631152885208
 30
0.0
 11
1053.7310480021899
 21
2364.7079872413378
 31
0.0
  0
LINE
  5
3148
  8
_0-0_
  6
CONTINUOUS
 62
     2
 10
1051.0473877201259
 20
2370.4631152885208
 30
0.0
 11
1049.8574280878961
 21
2370.4631152885208
 31
0.0
  0
LINE
  5
3149
  8
_0-0_
  6
CONTINUOUS
 62
     2
 10
1054.400300876991
 20
2370.4631152885208
 30
0.0
 11
1054.400300876991
 21
2364.7079872413378
 31
0.0
  0
LINE
  5
314A
  8
_0-0_
  6
CONTINUOUS
 62
     2
 10
1055.7003008769909
 20
2369.4631152885208
 30
0.0
 11
1055.7003008769909
 21
2365.7079872413378
 31
0.0
  0
LINE
  5
314B
  8
_0-0_
  6
CONTINUOUS
 62
     2
 10
1054.400300876991
 20
2364.7079872413378
 30
0.0
 11
1057.7003008769909
 21
2364.7079872413378
 31
0.0
  0
LINE
  5
314C
  8
_0-0_
  6
CONTINUOUS
 62
     2
 10
1057.7003008769909
 20
2370.4631152885208
 30
0.0
 11
1054.400300876991
 21
2370.4631152885208
 31
0.0
  0
LINE
  5
314D
  8
_0-0_
  6
CONTINUOUS
 62
     2
 10
1061.3003008769911
 20
2370.4631152885208
 30
0.0
 11
1060.0003008769911
 21
2370.4631152885208
 31
0.0
  0
LINE
  5
314E
  8
_0-0_
  6
CONTINUOUS
 62
     2
 10
1062.6839611590549
 20
2364.7079872413378
 30
0.0
 11
1063.9839611590551
 21
2364.7079872413378
 31
0.0
  0
LINE
  5
314F
  8
_0-0_
  6
CONTINUOUS
 62
     2
 10
1066.6676214411191
 20
2370.4631152885208
 30
0.0
 11
1065.3676214411189
 21
2370.4631152885208
 31
0.0
  0
LINE
  5
3150
  8
_0-0_
  6
CONTINUOUS
 62
     2
 10
1064.9839611590551
 20
2364.7079872413378
 30
0.0
 11
1066.283961159055
 21
2364.7079872413378
 31
0.0
  0
LINE
  5
3151
  8
_0-0_
  6
CONTINUOUS
 62
     2
 10
1070.3867156836311
 20
2364.7079872413378
 30
0.0
 11
1071.6867156836299
 21
2364.7079872413378
 31
0.0
  0
LINE
  5
3152
  8
_0-0_
  6
CONTINUOUS
 62
     2
 10
1072.263264145013
 20
2364.7079872413378
 30
0.0
 11
1073.563264145014
 21
2364.7079872413378
 31
0.0
  0
LINE
  5
3153
  8
_0-0_
  6
CONTINUOUS
 62
     2
 10
1076.5345979261031
 20
2364.7079872413378
 30
0.0
 11
1078.242023522638
 21
2364.7079872413378
 31
0.0
  0
LINE
  5
3154
  8
_0-0_
  6
CONTINUOUS
 62
     2
 10
1078.242023522638
 20
2370.4631152885208
 30
0.0
 11
1077.1420235226381
 21
2370.4631152885208
 31
0.0
  0
LINE
  5
3155
  8
_0-0_
  6
CONTINUOUS
 62
     2
 10
1074.2354910368031
 20
2370.4631152885208
 30
0.0
 11
1072.263264145013
 21
2370.4631152885208
 31
0.0
  0
LINE
  5
3156
  8
_0-0_
  6
CONTINUOUS
 62
     2
 10
1069.0030554015659
 20
2370.4631152885208
 30
0.0
 11
1067.6676214411191
 21
2370.4631152885208
 31
0.0
  0
LINE
  5
3157
  8
_0-0_
  6
CONTINUOUS
 62
     2
 10
1047.2461052022279
 20
2364.8631152885209
 30
0.0
 11
1048.5461052022281
 21
2364.8631152885209
 31
0.0
  0
LINE
  5
3158
  8
_0-0_
  6
CONTINUOUS
 62
     2
 10
1052.3587106057939
 20
2364.8631152885209
 30
0.0
 11
1053.6587106057941
 21
2364.8631152885209
 31
0.0
  0
LINE
  5
3159
  8
_0-0_
  6
CONTINUOUS
 62
     2
 10
1054.400300876991
 20
2364.8631152885209
 30
0.0
 11
1058.2610689337871
 21
2364.8631152885209
 31
0.0
  0
LINE
  5
315A
  8
_0-0_
  6
CONTINUOUS
 62
     2
 10
1062.6116237626591
 20
2364.8631152885209
 30
0.0
 11
1064.0562985554509
 21
2364.8631152885209
 31
0.0
  0
LINE
  5
315B
  8
_0-0_
  6
CONTINUOUS
 62
     2
 10
1065.0562985554509
 20
2364.8631152885209
 30
0.0
 11
1066.356298555452
 21
2364.8631152885209
 31
0.0
  0
LINE
  5
315C
  8
_0-0_
  6
CONTINUOUS
 62
     2
 10
1070.3143782872339
 20
2364.8631152885209
 30
0.0
 11
1071.6143782872341
 21
2364.8631152885209
 31
0.0
  0
LINE
  5
315D
  8
_0-0_
  6
CONTINUOUS
 62
     2
 10
1072.263264145013
 20
2364.8631152885209
 30
0.0
 11
1073.563264145014
 21
2364.8631152885209
 31
0.0
  0
LINE
  5
315E
  8
_0-0_
  6
CONTINUOUS
 62
     2
 10
1076.4376631637961
 20
2364.8631152885209
 30
0.0
 11
1078.242023522638
 21
2364.8631152885209
 31
0.0
  0
LINE
  5
315F
  8
_0-0_
  6
CONTINUOUS
 62
     2
 10
1047.3393667338589
 20
2365.0631152885212
 30
0.0
 11
1048.6393667338591
 21
2365.0631152885212
 31
0.0
  0
LINE
  5
3160
  8
_0-0_
  6
CONTINUOUS
 62
     2
 10
1052.2654490741629
 20
2365.0631152885212
 30
0.0
 11
1053.5654490741631
 21
2365.0631152885212
 31
0.0
  0
LINE
  5
3161
  8
_0-0_
  6
CONTINUOUS
 62
     2
 10
1054.400300876991
 20
2365.0631152885212
 30
0.0
 11
1058.7921501287269
 21
2365.0631152885212
 31
0.0
  0
LINE
  5
3162
  8
_0-0_
  6
CONTINUOUS
 62
     2
 10
1062.518362231028
 20
2365.0631152885212
 30
0.0
 11
1064.1495600870819
 21
2365.0631152885212
 31
0.0
  0
LINE
  5
3163
  8
_0-0_
  6
CONTINUOUS
 62
     2
 10
1065.1495600870819
 20
2365.0631152885212
 30
0.0
 11
1066.4495600870821
 21
2365.0631152885212
 31
0.0
  0
LINE
  5
3164
  8
_0-0_
  6
CONTINUOUS
 62
     2
 10
1070.2211167556029
 20
2365.0631152885212
 30
0.0
 11
1071.5211167556031
 21
2365.0631152885212
 31
0.0
  0
LINE
  5
3165
  8
_0-0_
  6
CONTINUOUS
 62
     2
 10
1072.263264145013
 20
2365.0631152885212
 30
0.0
 11
1073.563264145014
 21
2365.0631152885212
 31
0.0
  0
LINE
  5
3166
  8
_0-0_
  6
CONTINUOUS
 62
     2
 10
1076.312689293414
 20
2365.0631152885212
 30
0.0
 11
1078.242023522638
 21
2365.0631152885212
 31
0.0
  0
LINE
  5
3167
  8
_0-0_
  6
CONTINUOUS
 62
     2
 10
1047.4326282654899
 20
2365.263115288521
 30
0.0
 11
1048.7326282654899
 21
2365.263115288521
 31
0.0
  0
LINE
  5
3168
  8
_0-0_
  6
CONTINUOUS
 62
     2
 10
1052.1721875425319
 20
2365.263115288521
 30
0.0
 11
1053.4721875425321
 21
2365.263115288521
 31
0.0
  0
LINE
  5
3169
  8
_0-0_
  6
CONTINUOUS
 62
     2
 10
1054.400300876991
 20
2365.263115288521
 30
0.0
 11
1059.153815403638
 21
2365.263115288521
 31
0.0
  0
LINE
  5
316A
  8
_0-0_
  6
CONTINUOUS
 62
     2
 10
1062.425100699397
 20
2365.263115288521
 30
0.0
 11
1064.2428216187129
 21
2365.263115288521
 31
0.0
  0
LINE
  5
316B
  8
_0-0_
  6
CONTINUOUS
 62
     2
 10
1065.2428216187129
 20
2365.263115288521
 30
0.0
 11
1066.542821618714
 21
2365.263115288521
 31
0.0
  0
LINE
  5
316C
  8
_0-0_
  6
CONTINUOUS
 62
     2
 10
1070.1278552239719
 20
2365.263115288521
 30
0.0
 11
1071.4278552239721
 21
2365.263115288521
 31
0.0
  0
LINE
  5
316D
  8
_0-0_
  6
CONTINUOUS
 62
     2
 10
1072.263264145013
 20
2365.263115288521
 30
0.0
 11
1073.563264145014
 21
2365.263115288521
 31
0.0
  0
LINE
  5
316E
  8
_0-0_
  6
CONTINUOUS
 62
     2
 10
1076.1877154230331
 20
2365.263115288521
 30
0.0
 11
1078.242023522638
 21
2365.263115288521
 31
0.0
  0
LINE
  5
316F
  8
_0-0_
  6
CONTINUOUS
 62
     2
 10
1047.525889797121
 20
2365.4631152885208
 30
0.0
 11
1048.8258897971209
 21
2365.4631152885208
 31
0.0
  0
LINE
  5
3170
  8
_0-0_
  6
CONTINUOUS
 62
     2
 10
1052.0789260109009
 20
2365.4631152885208
 30
0.0
 11
1053.3789260109011
 21
2365.4631152885208
 31
0.0
  0
LINE
  5
3171
  8
_0-0_
  6
CONTINUOUS
 62
     2
 10
1054.400300876991
 20
2365.4631152885208
 30
0.0
 11
1059.3998926836241
 21
2365.4631152885208
 31
0.0
  0
LINE
  5
3172
  8
_0-0_
  6
CONTINUOUS
 62
     2
 10
1062.331839167766
 20
2365.4631152885208
 30
0.0
 11
1064.3360831503451
 21
2365.4631152885208
 31
0.0
  0
LINE
  5
3173
  8
_0-0_
  6
CONTINUOUS
 62
     2
 10
1065.3360831503439
 20
2365.4631152885208
 30
0.0
 11
1066.6360831503439
 21
2365.4631152885208
 31
0.0
  0
LINE
  5
3174
  8
_0-0_
  6
CONTINUOUS
 62
     2
 10
1070.0345936923411
 20
2365.4631152885208
 30
0.0
 11
1071.3345936923411
 21
2365.4631152885208
 31
0.0
  0
LINE
  5
3175
  8
_0-0_
  6
CONTINUOUS
 62
     2
 10
1072.263264145013
 20
2365.4631152885208
 30
0.0
 11
1073.563264145014
 21
2365.4631152885208
 31
0.0
  0
LINE
  5
3176
  8
_0-0_
  6
CONTINUOUS
 62
     2
 10
1076.062741552651
 20
2365.4631152885208
 30
0.0
 11
1078.242023522638
 21
2365.4631152885208
 31
0.0
  0
LINE
  5
3177
  8
_0-0_
  6
CONTINUOUS
 62
     2
 10
1047.619151328752
 20
2365.6631152885211
 30
0.0
 11
1048.9191513287519
 21
2365.6631152885211
 31
0.0
  0
LINE
  5
3178
  8
_0-0_
  6
CONTINUOUS
 62
     2
 10
1051.9856644792701
 20
2365.6631152885211
 30
0.0
 11
1053.2856644792701
 21
2365.6631152885211
 31
0.0
  0
LINE
  5
3179
  8
_0-0_
  6
CONTINUOUS
 62
     2
 10
1054.400300876991
 20
2365.6631152885211
 30
0.0
 11
1059.569364333463
 21
2365.6631152885211
 31
0.0
  0
LINE
  5
317A
  8
_0-0_
  6
CONTINUOUS
 62
     2
 10
1062.238577636135
 20
2365.6631152885211
 30
0.0
 11
1064.429344681975
 21
2365.6631152885211
 31
0.0
  0
LINE
  5
317B
  8
_0-0_
  6
CONTINUOUS
 62
     2
 10
1065.4293446819761
 20
2365.6631152885211
 30
0.0
 11
1066.7293446819749
 21
2365.6631152885211
 31
0.0
  0
LINE
  5
317C
  8
_0-0_
  6
CONTINUOUS
 62
     2
 10
1069.9413321607101
 20
2365.6631152885211
 30
0.0
 11
1071.24133216071
 21
2365.6631152885211
 31
0.0
  0
LINE
  5
317D
  8
_0-0_
  6
CONTINUOUS
 62
     2
 10
1072.263264145013
 20
2365.6631152885211
 30
0.0
 11
1073.563264145014
 21
2365.6631152885211
 31
0.0
  0
LINE
  5
317E
  8
_0-0_
  6
CONTINUOUS
 62
     2
 10
1075.9377676822689
 20
2365.6631152885211
 30
0.0
 11
1078.242023522638
 21
2365.6631152885211
 31
0.0
  0
LINE
  5
317F
  8
_0-0_
  6
CONTINUOUS
 62
     2
 10
1047.712412860383
 20
2365.8631152885209
 30
0.0
 11
1049.0124128603829
 21
2365.8631152885209
 31
0.0
  0
LINE
  5
3180
  8
_0-0_
  6
CONTINUOUS
 62
     2
 10
1051.8924029476391
 20
2365.8631152885209
 30
0.0
 11
1053.192402947639
 21
2365.8631152885209
 31
0.0
  0
LINE
  5
3181
  8
_0-0_
  6
CONTINUOUS
 62
     2
 10
1054.400300876991
 20
2365.8631152885209
 30
0.0
 11
1055.7003008769909
 21
2365.8631152885209
 31
0.0
  0
LINE
  5
3182
  8
_0-0_
  6
CONTINUOUS
 62
     2
 10
1057.9731760945051
 20
2365.8631152885209
 30
0.0
 11
1059.6801465385431
 21
2365.8631152885209
 31
0.0
  0
LINE
  5
3183
  8
_0-0_
  6
CONTINUOUS
 62
     2
 10
1062.145316104504
 20
2365.8631152885209
 30
0.0
 11
1064.522606213606
 21
2365.8631152885209
 31
0.0
  0
LINE
  5
3184
  8
_0-0_
  6
CONTINUOUS
 62
     2
 10
1065.522606213606
 20
2365.8631152885209
 30
0.0
 11
1066.8226062136059
 21
2365.8631152885209
 31
0.0
  0
LINE
  5
3185
  8
_0-0_
  6
CONTINUOUS
 62
     2
 10
1069.8480706290791
 20
2365.8631152885209
 30
0.0
 11
1071.148070629079
 21
2365.8631152885209
 31
0.0
  0
LINE
  5
3186
  8
_0-0_
  6
CONTINUOUS
 62
     2
 10
1072.263264145013
 20
2365.8631152885209
 30
0.0
 11
1073.563264145014
 21
2365.8631152885209
 31
0.0
  0
LINE
  5
3187
  8
_0-0_
  6
CONTINUOUS
 62
     2
 10
1075.8127938118871
 20
2365.8631152885209
 30
0.0
 11
1077.1098900555851
 21
2365.8631152885209
 31
0.0
  0
LINE
  5
3188
  8
_0-0_
  6
CONTINUOUS
 62
     2
 10
1077.1420235226381
 20
2365.8631152885209
 30
0.0
 11
1078.242023522638
 21
2365.8631152885209
 31
0.0
  0
LINE
  5
3189
  8
_0-0_
  6
CONTINUOUS
 62
     2
 10
1047.805674392014
 20
2366.0631152885212
 30
0.0
 11
1053.099141416008
 21
2366.0631152885212
 31
0.0
  0
LINE
  5
318A
  8
_0-0_
  6
CONTINUOUS
 62
     2
 10
1054.400300876991
 20
2366.0631152885212
 30
0.0
 11
1055.7003008769909
 21
2366.0631152885212
 31
0.0
  0
LINE
  5
318B
  8
_0-0_
  6
CONTINUOUS
 62
     2
 10
1058.2575875277321
 20
2366.0631152885212
 30
0.0
 11
1059.756259936649
 21
2366.0631152885212
 31
0.0
  0
LINE
  5
318C
  8
_0-0_
  6
CONTINUOUS
 62
     2
 10
1062.052054572873
 20
2366.0631152885212
 30
0.0
 11
1064.615867745237
 21
2366.0631152885212
 31
0.0
  0
LINE
  5
318D
  8
_0-0_
  6
CONTINUOUS
 62
     2
 10
1065.615867745237
 20
2366.0631152885212
 30
0.0
 11
1071.054809097448
 21
2366.0631152885212
 31
0.0
  0
LINE
  5
318E
  8
_0-0_
  6
CONTINUOUS
 62
     2
 10
1072.263264145013
 20
2366.0631152885212
 30
0.0
 11
1073.563264145014
 21
2366.0631152885212
 31
0.0
  0
LINE
  5
318F
  8
_0-0_
  6
CONTINUOUS
 62
     2
 10
1075.687819941505
 20
2366.0631152885212
 30
0.0
 11
1076.9849161852039
 21
2366.0631152885212
 31
0.0
  0
LINE
  5
3190
  8
_0-0_
  6
CONTINUOUS
 62
     2
 10
1077.1420235226381
 20
2366.0631152885212
 30
0.0
 11
1078.242023522638
 21
2366.0631152885212
 31
0.0
  0
LINE
  5
3191
  8
_0-0_
  6
CONTINUOUS
 62
     2
 10
1047.898935923645
 20
2366.263115288521
 30
0.0
 11
1053.005879884377
 21
2366.263115288521
 31
0.0
  0
LINE
  5
3192
  8
_0-0_
  6
CONTINUOUS
 62
     2
 10
1054.400300876991
 20
2366.263115288521
 30
0.0
 11
1055.7003008769909
 21
2366.263115288521
 31
0.0
  0
LINE
  5
3193
  8
_0-0_
  6
CONTINUOUS
 62
     2
 10
1058.4393653004629
 20
2366.263115288521
 30
0.0
 11
1059.815268762839
 21
2366.263115288521
 31
0.0
  0
LINE
  5
3194
  8
_0-0_
  6
CONTINUOUS
 62
     2
 10
1061.958793041242
 20
2366.263115288521
 30
0.0
 11
1063.2587930412419
 21
2366.263115288521
 31
0.0
  0
LINE
  5
3195
  8
_0-0_
  6
CONTINUOUS
 62
     2
 10
1063.409129276868
 20
2366.263115288521
 30
0.0
 11
1064.709129276868
 21
2366.263115288521
 31
0.0
  0
LINE
  5
3196
  8
_0-0_
  6
CONTINUOUS
 62
     2
 10
1065.7091292768689
 20
2366.263115288521
 30
0.0
 11
1070.961547565817
 21
2366.263115288521
 31
0.0
  0
LINE
  5
3197
  8
_0-0_
  6
CONTINUOUS
 62
     2
 10
1072.263264145013
 20
2366.263115288521
 30
0.0
 11
1073.563264145014
 21
2366.263115288521
 31
0.0
  0
LINE
  5
3198
  8
_0-0_
  6
CONTINUOUS
 62
     2
 10
1075.562846071123
 20
2366.263115288521
 30
0.0
 11
1076.8599423148221
 21
2366.263115288521
 31
0.0
  0
LINE
  5
3199
  8
_0-0_
  6
CONTINUOUS
 62
     2
 10
1077.1420235226381
 20
2366.263115288521
 30
0.0
 11
1078.242023522638
 21
2366.263115288521
 31
0.0
  0
LINE
  5
319A
  8
_0-0_
  6
CONTINUOUS
 62
     2
 10
1047.992197455276
 20
2366.4631152885208
 30
0.0
 11
1052.912618352746
 21
2366.4631152885208
 31
0.0
  0
LINE
  5
319B
  8
_0-0_
  6
CONTINUOUS
 62
     2
 10
1054.400300876991
 20
2366.4631152885208
 30
0.0
 11
1055.7003008769909
 21
2366.4631152885208
 31
0.0
  0
LINE
  5
319C
  8
_0-0_
  6
CONTINUOUS
 62
     2
 10
1058.5477542607989
 20
2366.4631152885208
 30
0.0
 11
1059.8652024201299
 21
2366.4631152885208
 31
0.0
  0
LINE
  5
319D
  8
_0-0_
  6
CONTINUOUS
 62
     2
 10
1061.8655315096109
 20
2366.4631152885208
 30
0.0
 11
1063.1655315096109
 21
2366.4631152885208
 31
0.0
  0
LINE
  5
319E
  8
_0-0_
  6
CONTINUOUS
 62
     2
 10
1063.5023908084991
 20
2366.4631152885208
 30
0.0
 11
1064.8023908084999
 21
2366.4631152885208
 31
0.0
  0
LINE
  5
319F
  8
_0-0_
  6
CONTINUOUS
 62
     2
 10
1065.802390808499
 20
2366.4631152885208
 30
0.0
 11
1070.868286034186
 21
2366.4631152885208
 31
0.0
  0
LINE
  5
31A0
  8
_0-0_
  6
CONTINUOUS
 62
     2
 10
1072.263264145013
 20
2366.4631152885208
 30
0.0
 11
1073.563264145014
 21
2366.4631152885208
 31
0.0
  0
LINE
  5
31A1
  8
_0-0_
  6
CONTINUOUS
 62
     2
 10
1075.437872200742
 20
2366.4631152885208
 30
0.0
 11
1076.73496844444
 21
2366.4631152885208
 31
0.0
  0
LINE
  5
31A2
  8
_0-0_
  6
CONTINUOUS
 62
     2
 10
1077.1420235226381
 20
2366.4631152885208
 30
0.0
 11
1078.242023522638
 21
2366.4631152885208
 31
0.0
  0
LINE
  5
31A3
  8
_0-0_
  6
CONTINUOUS
 62
     2
 10
1048.085458986907
 20
2366.6631152885211
 30
0.0
 11
1052.819356821115
 21
2366.6631152885211
 31
0.0
  0
LINE
  5
31A4
  8
_0-0_
  6
CONTINUOUS
 62
     2
 10
1054.400300876991
 20
2366.6631152885211
 30
0.0
 11
1055.7003008769909
 21
2366.6631152885211
 31
0.0
  0
LINE
  5
31A5
  8
_0-0_
  6
CONTINUOUS
 62
     2
 10
1058.6155824917139
 20
2366.6631152885211
 30
0.0
 11
1059.9079727487519
 21
2366.6631152885211
 31
0.0
  0
LINE
  5
31A6
  8
_0-0_
  6
CONTINUOUS
 62
     2
 10
1061.7722699779799
 20
2366.6631152885211
 30
0.0
 11
1063.0722699779801
 21
2366.6631152885211
 31
0.0
  0
LINE
  5
31A7
  8
_0-0_
  6
CONTINUOUS
 62
     2
 10
1063.5956523401301
 20
2366.6631152885211
 30
0.0
 11
1064.8956523401309
 21
2366.6631152885211
 31
0.0
  0
LINE
  5
31A8
  8
_0-0_
  6
CONTINUOUS
 62
     2
 10
1065.8956523401309
 20
2366.6631152885211
 30
0.0
 11
1070.775024502555
 21
2366.6631152885211
 31
0.0
  0
LINE
  5
31A9
  8
_0-0_
  6
CONTINUOUS
 62
     2
 10
1072.263264145013
 20
2366.6631152885211
 30
0.0
 11
1073.563264145014
 21
2366.6631152885211
 31
0.0
  0
LINE
  5
31AA
  8
_0-0_
  6
CONTINUOUS
 62
     2
 10
1075.31289833036
 20
2366.6631152885211
 30
0.0
 11
1076.609994574058
 21
2366.6631152885211
 31
0.0
  0
LINE
  5
31AB
  8
_0-0_
  6
CONTINUOUS
 62
     2
 10
1077.1420235226381
 20
2366.6631152885211
 30
0.0
 11
1078.242023522638
 21
2366.6631152885211
 31
0.0
  0
LINE
  5
31AC
  8
_0-0_
  6
CONTINUOUS
 62
     2
 10
1048.1787205185381
 20
2366.8631152885209
 30
0.0
 11
1052.726095289484
 21
2366.8631152885209
 31
0.0
  0
LINE
  5
31AD
  8
_0-0_
  6
CONTINUOUS
 62
     2
 10
1054.400300876991
 20
2366.8631152885209
 30
0.0
 11
1055.7003008769909
 21
2366.8631152885209
 31
0.0
  0
LINE
  5
31AE
  8
_0-0_
  6
CONTINUOUS
 62
     2
 10
1058.6569288714679
 20
2366.8631152885209
 30
0.0
 11
1059.942819952844
 21
2366.8631152885209
 31
0.0
  0
LINE
  5
31AF
  8
_0-0_
  6
CONTINUOUS
 62
     2
 10
1061.6790084463489
 20
2366.8631152885209
 30
0.0
 11
1062.9790084463491
 21
2366.8631152885209
 31
0.0
  0
LINE
  5
31B0
  8
_0-0_
  6
CONTINUOUS
 62
     2
 10
1063.6889138717611
 20
2366.8631152885209
 30
0.0
 11
1064.988913871761
 21
2366.8631152885209
 31
0.0
  0
LINE
  5
31B1
  8
_0-0_
  6
CONTINUOUS
 62
     2
 10
1065.988913871761
 20
2366.8631152885209
 30
0.0
 11
1070.681762970924
 21
2366.8631152885209
 31
0.0
  0
LINE
  5
31B2
  8
_0-0_
  6
CONTINUOUS
 62
     2
 10
1072.263264145013
 20
2366.8631152885209
 30
0.0
 11
1073.563264145014
 21
2366.8631152885209
 31
0.0
  0
LINE
  5
31B3
  8
_0-0_
  6
CONTINUOUS
 62
     2
 10
1075.1879244599779
 20
2366.8631152885209
 30
0.0
 11
1076.4850207036759
 21
2366.8631152885209
 31
0.0
  0
LINE
  5
31B4
  8
_0-0_
  6
CONTINUOUS
 62
     2
 10
1077.1420235226381
 20
2366.8631152885209
 30
0.0
 11
1078.242023522638
 21
2366.8631152885209
 31
0.0
  0
LINE
  5
31B5
  8
_0-0_
  6
CONTINUOUS
 62
     2
 10
1048.2719820501691
 20
2367.0631152885212
 30
0.0
 11
1049.571982050169
 21
2367.0631152885212
 31
0.0
  0
LINE
  5
31B6
  8
_0-0_
  6
CONTINUOUS
 62
     2
 10
1051.332833757853
 20
2367.0631152885212
 30
0.0
 11
1052.6328337578529
 21
2367.0631152885212
 31
0.0
  0
LINE
  5
31B7
  8
_0-0_
  6
CONTINUOUS
 62
     2
 10
1054.400300876991
 20
2367.0631152885212
 30
0.0
 11
1055.7003008769909
 21
2367.0631152885212
 31
0.0
  0
LINE
  5
31B8
  8
_0-0_
  6
CONTINUOUS
 62
     2
 10
1058.681248177943
 20
2367.0631152885212
 30
0.0
 11
1059.96961924219
 21
2367.0631152885212
 31
0.0
  0
LINE
  5
31B9
  8
_0-0_
  6
CONTINUOUS
 62
     2
 10
1061.5857469147179
 20
2367.0631152885212
 30
0.0
 11
1062.8857469147181
 21
2367.0631152885212
 31
0.0
  0
LINE
  5
31BA
  8
_0-0_
  6
CONTINUOUS
 62
     2
 10
1063.7821754033921
 20
2367.0631152885212
 30
0.0
 11
1065.082175403393
 21
2367.0631152885212
 31
0.0
  0
LINE
  5
31BB
  8
_0-0_
  6
CONTINUOUS
 62
     2
 10
1066.0821754033921
 20
2367.0631152885212
 30
0.0
 11
1067.382175403392
 21
2367.0631152885212
 31
0.0
  0
LINE
  5
31BC
  8
_0-0_
  6
CONTINUOUS
 62
     2
 10
1069.288501439293
 20
2367.0631152885212
 30
0.0
 11
1070.5885014392929
 21
2367.0631152885212
 31
0.0
  0
LINE
  5
31BD
  8
_0-0_
  6
CONTINUOUS
 62
     2
 10
1072.263264145013
 20
2367.0631152885212
 30
0.0
 11
1073.563264145014
 21
2367.0631152885212
 31
0.0
  0
LINE
  5
31BE
  8
_0-0_
  6
CONTINUOUS
 62
     2
 10
1075.0629505895961
 20
2367.0631152885212
 30
0.0
 11
1076.3600468332941
 21
2367.0631152885212
 31
0.0
  0
LINE
  5
31BF
  8
_0-0_
  6
CONTINUOUS
 62
     2
 10
1077.1420235226381
 20
2367.0631152885212
 30
0.0
 11
1078.242023522638
 21
2367.0631152885212
 31
0.0
  0
LINE
  5
31C0
  8
_0-0_
  6
CONTINUOUS
 62
     2
 10
1048.3652435818001
 20
2367.263115288521
 30
0.0
 11
1049.6652435818
 21
2367.263115288521
 31
0.0
  0
LINE
  5
31C1
  8
_0-0_
  6
CONTINUOUS
 62
     2
 10
1051.239572226222
 20
2367.263115288521
 30
0.0
 11
1052.5395722262219
 21
2367.263115288521
 31
0.0
  0
LINE
  5
31C2
  8
_0-0_
  6
CONTINUOUS
 62
     2
 10
1054.400300876991
 20
2367.263115288521
 30
0.0
 11
1055.7003008769909
 21
2367.263115288521
 31
0.0
  0
LINE
  5
31C3
  8
_0-0_
  6
CONTINUOUS
 62
     2
 10
1058.6942120755771
 20
2367.263115288521
 30
0.0
 11
1059.9882207109511
 21
2367.263115288521
 31
0.0
  0
LINE
  5
31C4
  8
_0-0_
  6
CONTINUOUS
 62
     2
 10
1061.4924853830869
 20
2367.263115288521
 30
0.0
 11
1062.7924853830871
 21
2367.263115288521
 31
0.0
  0
LINE
  5
31C5
  8
_0-0_
  6
CONTINUOUS
 62
     2
 10
1063.8754369350229
 20
2367.263115288521
 30
0.0
 11
1065.175436935024
 21
2367.263115288521
 31
0.0
  0
LINE
  5
31C6
  8
_0-0_
  6
CONTINUOUS
 62
     2
 10
1066.175436935024
 20
2367.263115288521
 30
0.0
 11
1067.475436935023
 21
2367.263115288521
 31
0.0
  0
LINE
  5
31C7
  8
_0-0_
  6
CONTINUOUS
 62
     2
 10
1069.195239907662
 20
2367.263115288521
 30
0.0
 11
1070.4952399076619
 21
2367.263115288521
 31
0.0
  0
LINE
  5
31C8
  8
_0-0_
  6
CONTINUOUS
 62
     2
 10
1072.263264145013
 20
2367.263115288521
 30
0.0
 11
1073.563264145014
 21
2367.263115288521
 31
0.0
  0
LINE
  5
31C9
  8
_0-0_
  6
CONTINUOUS
 62
     2
 10
1074.937976719214
 20
2367.263115288521
 30
0.0
 11
1076.235072962912
 21
2367.263115288521
 31
0.0
  0
LINE
  5
31CA
  8
_0-0_
  6
CONTINUOUS
 62
     2
 10
1077.1420235226381
 20
2367.263115288521
 30
0.0
 11
1078.242023522638
 21
2367.263115288521
 31
0.0
  0
LINE
  5
31CB
  8
_0-0_
  6
CONTINUOUS
 62
     2
 10
1048.4585051134311
 20
2367.4631152885208
 30
0.0
 11
1049.7585051134311
 21
2367.4631152885208
 31
0.0
  0
LINE
  5
31CC
  8
_0-0_
  6
CONTINUOUS
 62
     2
 10
1051.146310694591
 20
2367.4631152885208
 30
0.0
 11
1052.4463106945909
 21
2367.4631152885208
 31
0.0
  0
LINE
  5
31CD
  8
_0-0_
  6
CONTINUOUS
 62
     2
 10
1054.400300876991
 20
2367.4631152885208
 30
0.0
 11
1055.7003008769909
 21
2367.4631152885208
 31
0.0
  0
LINE
  5
31CE
  8
_0-0_
  6
CONTINUOUS
 62
     2
 10
1058.699648990402
 20
2367.4631152885208
 30
0.0
 11
1059.9985333665979
 21
2367.4631152885208
 31
0.0
  0
LINE
  5
31CF
  8
_0-0_
  6
CONTINUOUS
 62
     2
 10
1061.3992238514561
 20
2367.4631152885208
 30
0.0
 11
1062.6992238514561
 21
2367.4631152885208
 31
0.0
  0
LINE
  5
31D0
  8
_0-0_
  6
CONTINUOUS
 62
     2
 10
1063.9686984666539
 20
2367.4631152885208
 30
0.0
 11
1065.268698466655
 21
2367.4631152885208
 31
0.0
  0
LINE
  5
31D1
  8
_0-0_
  6
CONTINUOUS
 62
     2
 10
1066.2686984666541
 20
2367.4631152885208
 30
0.0
 11
1067.568698466654
 21
2367.4631152885208
 31
0.0
  0
LINE
  5
31D2
  8
_0-0_
  6
CONTINUOUS
 62
     2
 10
1069.101978376031
 20
2367.4631152885208
 30
0.0
 11
1070.4019783760309
 21
2367.4631152885208
 31
0.0
  0
LINE
  5
31D3
  8
_0-0_
  6
CONTINUOUS
 62
     2
 10
1072.263264145013
 20
2367.4631152885208
 30
0.0
 11
1073.563264145014
 21
2367.4631152885208
 31
0.0
  0
LINE
  5
31D4
  8
_0-0_
  6
CONTINUOUS
 62
     2
 10
1074.813002848832
 20
2367.4631152885208
 30
0.0
 11
1076.1100990925299
 21
2367.4631152885208
 31
0.0
  0
LINE
  5
31D5
  8
_0-0_
  6
CONTINUOUS
 62
     2
 10
1077.1420235226381
 20
2367.4631152885208
 30
0.0
 11
1078.242023522638
 21
2367.4631152885208
 31
0.0
  0
LINE
  5
31D6
  8
_0-0_
  6
CONTINUOUS
 62
     2
 10
1048.5517666450619
 20
2367.6631152885211
 30
0.0
 11
1049.8517666450621
 21
2367.6631152885211
 31
0.0
  0
LINE
  5
31D7
  8
_0-0_
  6
CONTINUOUS
 62
     2
 10
1051.05304916296
 20
2367.6631152885211
 30
0.0
 11
1052.3530491629599
 21
2367.6631152885211
 31
0.0
  0
LINE
  5
31D8
  8
_0-0_
  6
CONTINUOUS
 62
     2
 10
1054.400300876991
 20
2367.6631152885211
 30
0.0
 11
1055.7003008769909
 21
2367.6631152885211
 31
0.0
  0
LINE
  5
31D9
  8
_0-0_
  6
CONTINUOUS
 62
     2
 10
1058.699887902404
 20
2367.6631152885211
 30
0.0
 11
1059.999181147138
 21
2367.6631152885211
 31
0.0
  0
LINE
  5
31DA
  8
_0-0_
  6
CONTINUOUS
 62
     2
 10
1061.3059623198251
 20
2367.6631152885211
 30
0.0
 11
1062.605962319825
 21
2367.6631152885211
 31
0.0
  0
LINE
  5
31DB
  8
_0-0_
  6
CONTINUOUS
 62
     2
 10
1064.0619599982849
 20
2367.6631152885211
 30
0.0
 11
1065.361959998286
 21
2367.6631152885211
 31
0.0
  0
LINE
  5
31DC
  8
_0-0_
  6
CONTINUOUS
 62
     2
 10
1066.361959998286
 20
2367.6631152885211
 30
0.0
 11
1067.6619599982851
 21
2367.6631152885211
 31
0.0
  0
LINE
  5
31DD
  8
_0-0_
  6
CONTINUOUS
 62
     2
 10
1069.0087168443999
 20
2367.6631152885211
 30
0.0
 11
1070.3087168443999
 21
2367.6631152885211
 31
0.0
  0
LINE
  5
31DE
  8
_0-0_
  6
CONTINUOUS
 62
     2
 10
1072.263264145013
 20
2367.6631152885211
 30
0.0
 11
1073.563264145014
 21
2367.6631152885211
 31
0.0
  0
LINE
  5
31DF
  8
_0-0_
  6
CONTINUOUS
 62
     2
 10
1074.6880289784499
 20
2367.6631152885211
 30
0.0
 11
1075.985125222149
 21
2367.6631152885211
 31
0.0
  0
LINE
  5
31E0
  8
_0-0_
  6
CONTINUOUS
 62
     2
 10
1077.1420235226381
 20
2367.6631152885211
 30
0.0
 11
1078.242023522638
 21
2367.6631152885211
 31
0.0
  0
LINE
  5
31E1
  8
_0-0_
  6
CONTINUOUS
 62
     2
 10
1048.6450281766929
 20
2367.8631152885209
 30
0.0
 11
1049.9450281766931
 21
2367.8631152885209
 31
0.0
  0
LINE
  5
31E2
  8
_0-0_
  6
CONTINUOUS
 62
     2
 10
1050.9597876313289
 20
2367.8631152885209
 30
0.0
 11
1052.2597876313289
 21
2367.8631152885209
 31
0.0
  0
LINE
  5
31E3
  8
_0-0_
  6
CONTINUOUS
 62
     2
 10
1054.400300876991
 20
2367.8631152885209
 30
0.0
 11
1055.7003008769909
 21
2367.8631152885209
 31
0.0
  0
LINE
  5
31E4
  8
_0-0_
  6
CONTINUOUS
 62
     2
 10
1058.6955621445229
 20
2367.8631152885209
 30
0.0
 11
1059.9906049425599
 21
2367.8631152885209
 31
0.0
  0
LINE
  5
31E5
  8
_0-0_
  6
CONTINUOUS
 62
     2
 10
1061.2127007881941
 20
2367.8631152885209
 30
0.0
 11
1062.512700788194
 21
2367.8631152885209
 31
0.0
  0
LINE
  5
31E6
  8
_0-0_
  6
CONTINUOUS
 62
     2
 10
1064.1552215299159
 20
2367.8631152885209
 30
0.0
 11
1065.4552215299159
 21
2367.8631152885209
 31
0.0
  0
LINE
  5
31E7
  8
_0-0_
  6
CONTINUOUS
 62
     2
 10
1066.4552215299159
 20
2367.8631152885209
 30
0.0
 11
1067.7552215299161
 21
2367.8631152885209
 31
0.0
  0
LINE
  5
31E8
  8
_0-0_
  6
CONTINUOUS
 62
     2
 10
1068.9154553127689
 20
2367.8631152885209
 30
0.0
 11
1070.2154553127691
 21
2367.8631152885209
 31
0.0
  0
LINE
  5
31E9
  8
_0-0_
  6
CONTINUOUS
 62
     2
 10
1072.263264145013
 20
2367.8631152885209
 30
0.0
 11
1073.563264145014
 21
2367.8631152885209
 31
0.0
  0
LINE
  5
31EA
  8
_0-0_
  6
CONTINUOUS
 62
     2
 10
1074.5630551080681
 20
2367.8631152885209
 30
0.0
 11
1075.8601513517669
 21
2367.8631152885209
 31
0.0
  0
LINE
  5
31EB
  8
_0-0_
  6
CONTINUOUS
 62
     2
 10
1077.1420235226381
 20
2367.8631152885209
 30
0.0
 11
1078.242023522638
 21
2367.8631152885209
 31
0.0
  0
LINE
  5
31EC
  8
_0-0_
  6
CONTINUOUS
 62
     2
 10
1048.7382897083239
 20
2368.0631152885212
 30
0.0
 11
1050.0382897083241
 21
2368.0631152885212
 31
0.0
  0
LINE
  5
31ED
  8
_0-0_
  6
CONTINUOUS
 62
     2
 10
1050.8665260996979
 20
2368.0631152885212
 30
0.0
 11
1052.1665260996981
 21
2368.0631152885212
 31
0.0
  0
LINE
  5
31EE
  8
_0-0_
  6
CONTINUOUS
 62
     2
 10
1054.400300876991
 20
2368.0631152885212
 30
0.0
 11
1055.7003008769909
 21
2368.0631152885212
 31
0.0
  0
LINE
  5
31EF
  8
_0-0_
  6
CONTINUOUS
 62
     2
 10
1058.68504158526
 20
2368.0631152885212
 30
0.0
 11
1059.9741472369401
 21
2368.0631152885212
 31
0.0
  0
LINE
  5
31F0
  8
_0-0_
  6
CONTINUOUS
 62
     2
 10
1061.1194392565631
 20
2368.0631152885212
 30
0.0
 11
1062.419439256563
 21
2368.0631152885212
 31
0.0
  0
LINE
  5
31F1
  8
_0-0_
  6
CONTINUOUS
 62
     2
 10
1064.2484830615469
 20
2368.0631152885212
 30
0.0
 11
1065.5484830615469
 21
2368.0631152885212
 31
0.0
  0
LINE
  5
31F2
  8
_0-0_
  6
CONTINUOUS
 62
     2
 10
1066.5484830615469
 20
2368.0631152885212
 30
0.0
 11
1067.8484830615471
 21
2368.0631152885212
 31
0.0
  0
LINE
  5
31F3
  8
_0-0_
  6
CONTINUOUS
 62
     2
 10
1068.8221937811379
 20
2368.0631152885212
 30
0.0
 11
1070.1221937811381
 21
2368.0631152885212
 31
0.0
  0
LINE
  5
31F4
  8
_0-0_
  6
CONTINUOUS
 62
     2
 10
1072.263264145013
 20
2368.0631152885212
 30
0.0
 11
1073.563264145014
 21
2368.0631152885212
 31
0.0
  0
LINE
  5
31F5
  8
_0-0_
  6
CONTINUOUS
 62
     2
 10
1074.4380812376869
 20
2368.0631152885212
 30
0.0
 11
1075.7351774813851
 21
2368.0631152885212
 31
0.0
  0
LINE
  5
31F6
  8
_0-0_
  6
CONTINUOUS
 62
     2
 10
1077.1420235226381
 20
2368.0631152885212
 30
0.0
 11
1078.242023522638
 21
2368.0631152885212
 31
0.0
  0
LINE
  5
31F7
  8
_0-0_
  6
CONTINUOUS
 62
     2
 10
1048.8315512399549
 20
2368.263115288521
 30
0.0
 11
1050.1315512399549
 21
2368.263115288521
 31
0.0
  0
LINE
  5
31F8
  8
_0-0_
  6
CONTINUOUS
 62
     2
 10
1050.7732645680669
 20
2368.263115288521
 30
0.0
 11
1052.0732645680671
 21
2368.263115288521
 31
0.0
  0
LINE
  5
31F9
  8
_0-0_
  6
CONTINUOUS
 62
     2
 10
1054.400300876991
 20
2368.263115288521
 30
0.0
 11
1055.7003008769909
 21
2368.263115288521
 31
0.0
  0
LINE
  5
31FA
  8
_0-0_
  6
CONTINUOUS
 62
     2
 10
1058.6646067627601
 20
2368.263115288521
 30
0.0
 11
1059.949434234351
 21
2368.263115288521
 31
0.0
  0
LINE
  5
31FB
  8
_0-0_
  6
CONTINUOUS
 62
     2
 10
1061.026177724932
 20
2368.263115288521
 30
0.0
 11
1062.326177724932
 21
2368.263115288521
 31
0.0
  0
LINE
  5
31FC
  8
_0-0_
  6
CONTINUOUS
 62
     2
 10
1064.341744593178
 20
2368.263115288521
 30
0.0
 11
1065.6417445931779
 21
2368.263115288521
 31
0.0
  0
LINE
  5
31FD
  8
_0-0_
  6
CONTINUOUS
 62
     2
 10
1066.6417445931779
 20
2368.263115288521
 30
0.0
 11
1067.9417445931781
 21
2368.263115288521
 31
0.0
  0
LINE
  5
31FE
  8
_0-0_
  6
CONTINUOUS
 62
     2
 10
1068.7289322495069
 20
2368.263115288521
 30
0.0
 11
1070.028932249508
 21
2368.263115288521
 31
0.0
  0
LINE
  5
31FF
  8
_0-0_
  6
CONTINUOUS
 62
     2
 10
1072.263264145013
 20
2368.263115288521
 30
0.0
 11
1073.563264145014
 21
2368.263115288521
 31
0.0
  0
LINE
  5
3200
  8
_0-0_
  6
CONTINUOUS
 62
     2
 10
1074.3131073673051
 20
2368.263115288521
 30
0.0
 11
1075.610203611003
 21
2368.263115288521
 31
0.0
  0
LINE
  5
3201
  8
_0-0_
  6
CONTINUOUS
 62
     2
 10
1077.1420235226381
 20
2368.263115288521
 30
0.0
 11
1078.242023522638
 21
2368.263115288521
 31
0.0
  0
LINE
  5
3202
  8
_0-0_
  6
CONTINUOUS
 62
     2
 10
1048.9248127715859
 20
2368.4631152885208
 30
0.0
 11
1050.2248127715859
 21
2368.4631152885208
 31
0.0
  0
LINE
  5
3203
  8
_0-0_
  6
CONTINUOUS
 62
     2
 10
1050.6800030364359
 20
2368.4631152885208
 30
0.0
 11
1051.9800030364361
 21
2368.4631152885208
 31
0.0
  0
LINE
  5
3204
  8
_0-0_
  6
CONTINUOUS
 62
     2
 10
1054.400300876991
 20
2368.4631152885208
 30
0.0
 11
1055.7003008769909
 21
2368.4631152885208
 31
0.0
  0
LINE
  5
3205
  8
_0-0_
  6
CONTINUOUS
 62
     2
 10
1058.6290589216781
 20
2368.4631152885208
 30
0.0
 11
1059.9166219230231
 21
2368.4631152885208
 31
0.0
  0
LINE
  5
3206
  8
_0-0_
  6
CONTINUOUS
 62
     2
 10
1060.932916193301
 20
2368.4631152885208
 30
0.0
 11
1062.232916193301
 21
2368.4631152885208
 31
0.0
  0
LINE
  5
3207
  8
_0-0_
  6
CONTINUOUS
 62
     2
 10
1064.4350061248099
 20
2368.4631152885208
 30
0.0
 11
1065.7350061248089
 21
2368.4631152885208
 31
0.0
  0
LINE
  5
3208
  8
_0-0_
  6
CONTINUOUS
 62
     2
 10
1066.7350061248089
 20
2368.4631152885208
 30
0.0
 11
1068.0350061248089
 21
2368.4631152885208
 31
0.0
  0
LINE
  5
3209
  8
_0-0_
  6
CONTINUOUS
 62
     2
 10
1068.6356707178761
 20
2368.4631152885208
 30
0.0
 11
1069.9356707178761
 21
2368.4631152885208
 31
0.0
  0
LINE
  5
320A
  8
_0-0_
  6
CONTINUOUS
 62
     2
 10
1072.263264145013
 20
2368.4631152885208
 30
0.0
 11
1073.563264145014
 21
2368.4631152885208
 31
0.0
  0
LINE
  5
320B
  8
_0-0_
  6
CONTINUOUS
 62
     2
 10
1074.188133496923
 20
2368.4631152885208
 30
0.0
 11
1075.485229740621
 21
2368.4631152885208
 31
0.0
  0
LINE
  5
320C
  8
_0-0_
  6
CONTINUOUS
 62
     2
 10
1077.1420235226381
 20
2368.4631152885208
 30
0.0
 11
1078.242023522638
 21
2368.4631152885208
 31
0.0
  0
LINE
  5
320D
  8
_0-0_
  6
CONTINUOUS
 62
     2
 10
1049.018074303217
 20
2368.6631152885211
 30
0.0
 11
1050.3180743032169
 21
2368.6631152885211
 31
0.0
  0
LINE
  5
320E
  8
_0-0_
  6
CONTINUOUS
 62
     2
 10
1050.5867415048051
 20
2368.6631152885211
 30
0.0
 11
1051.8867415048051
 21
2368.6631152885211
 31
0.0
  0
LINE
  5
320F
  8
_0-0_
  6
CONTINUOUS
 62
     2
 10
1054.400300876991
 20
2368.6631152885211
 30
0.0
 11
1055.7003008769909
 21
2368.6631152885211
 31
0.0
  0
LINE
  5
3210
  8
_0-0_
  6
CONTINUOUS
 62
     2
 10
1058.5689927595499
 20
2368.6631152885211
 30
0.0
 11
1059.875840930182
 21
2368.6631152885211
 31
0.0
  0
LINE
  5
3211
  8
_0-0_
  6
CONTINUOUS
 62
     2
 10
1060.83965466167
 20
2368.6631152885211
 30
0.0
 11
1062.13965466167
 21
2368.6631152885211
 31
0.0
  0
LINE
  5
3212
  8
_0-0_
  6
CONTINUOUS
 62
     2
 10
1064.52826765644
 20
2368.6631152885211
 30
0.0
 11
1065.8282676564399
 21
2368.6631152885211
 31
0.0
  0
LINE
  5
3213
  8
_0-0_
  6
CONTINUOUS
 62
     2
 10
1066.8282676564399
 20
2368.6631152885211
 30
0.0
 11
1068.1282676564399
 21
2368.6631152885211
 31
0.0
  0
LINE
  5
3214
  8
_0-0_
  6
CONTINUOUS
 62
     2
 10
1068.5424091862451
 20
2368.6631152885211
 30
0.0
 11
1069.842409186246
 21
2368.6631152885211
 31
0.0
  0
LINE
  5
3215
  8
_0-0_
  6
CONTINUOUS
 62
     2
 10
1072.263264145013
 20
2368.6631152885211
 30
0.0
 11
1073.563264145014
 21
2368.6631152885211
 31
0.0
  0
LINE
  5
3216
  8
_0-0_
  6
CONTINUOUS
 62
     2
 10
1074.0631596265409
 20
2368.6631152885211
 30
0.0
 11
1075.3602558702389
 21
2368.6631152885211
 31
0.0
  0
LINE
  5
3217
  8
_0-0_
  6
CONTINUOUS
 62
     2
 10
1077.1420235226381
 20
2368.6631152885211
 30
0.0
 11
1078.242023522638
 21
2368.6631152885211
 31
0.0
  0
LINE
  5
3218
  8
_0-0_
  6
CONTINUOUS
 62
     2
 10
1049.111335834848
 20
2368.8631152885209
 30
0.0
 11
1050.4113358348479
 21
2368.8631152885209
 31
0.0
  0
LINE
  5
3219
  8
_0-0_
  6
CONTINUOUS
 62
     2
 10
1050.4934799731741
 20
2368.8631152885209
 30
0.0
 11
1051.793479973174
 21
2368.8631152885209
 31
0.0
  0
LINE
  5
321A
  8
_0-0_
  6
CONTINUOUS
 62
     2
 10
1054.400300876991
 20
2368.8631152885209
 30
0.0
 11
1055.7003008769909
 21
2368.8631152885209
 31
0.0
  0
LINE
  5
321B
  8
_0-0_
  6
CONTINUOUS
 62
     2
 10
1058.4711621272399
 20
2368.8631152885209
 30
0.0
 11
1059.8274520035279
 21
2368.8631152885209
 31
0.0
  0
LINE
  5
321C
  8
_0-0_
  6
CONTINUOUS
 62
     2
 10
1060.746393130039
 20
2368.8631152885209
 30
0.0
 11
1062.046393130039
 21
2368.8631152885209
 31
0.0
  0
LINE
  5
321D
  8
_0-0_
  6
CONTINUOUS
 62
     2
 10
1064.621529188071
 20
2368.8631152885209
 30
0.0
 11
1065.921529188071
 21
2368.8631152885209
 31
0.0
  0
LINE
  5
321E
  8
_0-0_
  6
CONTINUOUS
 62
     2
 10
1066.921529188071
 20
2368.8631152885209
 30
0.0
 11
1068.2215291880709
 21
2368.8631152885209
 31
0.0
  0
LINE
  5
321F
  8
_0-0_
  6
CONTINUOUS
 62
     2
 10
1068.4491476546141
 20
2368.8631152885209
 30
0.0
 11
1069.7491476546149
 21
2368.8631152885209
 31
0.0
  0
LINE
  5
3220
  8
_0-0_
  6
CONTINUOUS
 62
     2
 10
1072.263264145013
 20
2368.8631152885209
 30
0.0
 11
1073.563264145014
 21
2368.8631152885209
 31
0.0
  0
LINE
  5
3221
  8
_0-0_
  6
CONTINUOUS
 62
     2
 10
1073.9381857561591
 20
2368.8631152885209
 30
0.0
 11
1075.235281999858
 21
2368.8631152885209
 31
0.0
  0
LINE
  5
3222
  8
_0-0_
  6
CONTINUOUS
 62
     2
 10
1077.1420235226381
 20
2368.8631152885209
 30
0.0
 11
1078.242023522638
 21
2368.8631152885209
 31
0.0
  0
LINE
  5
3223
  8
_0-0_
  6
CONTINUOUS
 62
     2
 10
1049.204597366479
 20
2369.0631152885212
 30
0.0
 11
1051.700218441543
 21
2369.0631152885212
 31
0.0
  0
LINE
  5
3224
  8
_0-0_
  6
CONTINUOUS
 62
     2
 10
1054.400300876991
 20
2369.0631152885212
 30
0.0
 11
1055.7003008769909
 21
2369.0631152885212
 31
0.0
  0
LINE
  5
3225
  8
_0-0_
  6
CONTINUOUS
 62
     2
 10
1058.3050339600361
 20
2369.0631152885212
 30
0.0
 11
1059.770422961243
 21
2369.0631152885212
 31
0.0
  0
LINE
  5
3226
  8
_0-0_
  6
CONTINUOUS
 62
     2
 10
1060.653131598408
 20
2369.0631152885212
 30
0.0
 11
1061.9531315984079
 21
2369.0631152885212
 31
0.0
  0
LINE
  5
3227
  8
_0-0_
  6
CONTINUOUS
 62
     2
 10
1064.714790719702
 20
2369.0631152885212
 30
0.0
 11
1066.0147907197029
 21
2369.0631152885212
 31
0.0
  0
LINE
  5
3228
  8
_0-0_
  6
CONTINUOUS
 62
     2
 10
1067.014790719702
 20
2369.0631152885212
 30
0.0
 11
1068.3147907197031
 21
2369.0631152885212
 31
0.0
  0
LINE
  5
3229
  8
_0-0_
  6
CONTINUOUS
 62
     2
 10
1068.3558861229831
 20
2369.0631152885212
 30
0.0
 11
1069.655886122983
 21
2369.0631152885212
 31
0.0
  0
LINE
  5
322A
  8
_0-0_
  6
CONTINUOUS
 62
     2
 10
1072.263264145013
 20
2369.0631152885212
 30
0.0
 11
1073.563264145014
 21
2369.0631152885212
 31
0.0
  0
LINE
  5
322B
  8
_0-0_
  6
CONTINUOUS
 62
     2
 10
1073.813211885777
 20
2369.0631152885212
 30
0.0
 11
1075.1103081294759
 21
2369.0631152885212
 31
0.0
  0
LINE
  5
322C
  8
_0-0_
  6
CONTINUOUS
 62
     2
 10
1077.1420235226381
 20
2369.0631152885212
 30
0.0
 11
1078.242023522638
 21
2369.0631152885212
 31
0.0
  0
LINE
  5
322D
  8
_0-0_
  6
CONTINUOUS
 62
     2
 10
1049.29785889811
 20
2369.263115288521
 30
0.0
 11
1051.606956909912
 21
2369.263115288521
 31
0.0
  0
LINE
  5
322E
  8
_0-0_
  6
CONTINUOUS
 62
     2
 10
1054.400300876991
 20
2369.263115288521
 30
0.0
 11
1055.7003008769909
 21
2369.263115288521
 31
0.0
  0
LINE
  5
322F
  8
_0-0_
  6
CONTINUOUS
 62
     2
 10
1058.0456534257389
 20
2369.263115288521
 30
0.0
 11
1059.699896477008
 21
2369.263115288521
 31
0.0
  0
LINE
  5
3230
  8
_0-0_
  6
CONTINUOUS
 62
     2
 10
1060.559870066777
 20
2369.263115288521
 30
0.0
 11
1061.8598700667769
 21
2369.263115288521
 31
0.0
  0
LINE
  5
3231
  8
_0-0_
  6
CONTINUOUS
 62
     2
 10
1064.8080522513339
 20
2369.263115288521
 30
0.0
 11
1066.108052251333
 21
2369.263115288521
 31
0.0
  0
LINE
  5
3232
  8
_0-0_
  6
CONTINUOUS
 62
     2
 10
1067.1080522513339
 20
2369.263115288521
 30
0.0
 11
1069.562624591352
 21
2369.263115288521
 31
0.0
  0
LINE
  5
3233
  8
_0-0_
  6
CONTINUOUS
 62
     2
 10
1072.263264145013
 20
2369.263115288521
 30
0.0
 11
1073.563264145014
 21
2369.263115288521
 31
0.0
  0
LINE
  5
3234
  8
_0-0_
  6
CONTINUOUS
 62
     2
 10
1073.688238015395
 20
2369.263115288521
 30
0.0
 11
1074.9853342590941
 21
2369.263115288521
 31
0.0
  0
LINE
  5
3235
  8
_0-0_
  6
CONTINUOUS
 62
     2
 10
1077.1420235226381
 20
2369.263115288521
 30
0.0
 11
1078.242023522638
 21
2369.263115288521
 31
0.0
  0
LINE
  5
3236
  8
_0-0_
  6
CONTINUOUS
 62
     2
 10
1049.391120429741
 20
2369.4631152885208
 30
0.0
 11
1051.513695378281
 21
2369.4631152885208
 31
0.0
  0
LINE
  5
3237
  8
_0-0_
  6
CONTINUOUS
 62
     2
 10
1054.400300876991
 20
2369.4631152885208
 30
0.0
 11
1055.7003008769909
 21
2369.4631152885208
 31
0.0
  0
LINE
  5
3238
  8
_0-0_
  6
CONTINUOUS
 62
     2
 10
1057.7003008769909
 20
2369.4631152885208
 30
0.0
 11
1059.600300876991
 21
2369.4631152885208
 31
0.0
  0
LINE
  5
3239
  8
_0-0_
  6
CONTINUOUS
 62
     2
 10
1060.466608535146
 20
2369.4631152885208
 30
0.0
 11
1061.7666085351459
 21
2369.4631152885208
 31
0.0
  0
LINE
  5
323A
  8
_0-0_
  6
CONTINUOUS
 62
     2
 10
1064.901313782965
 20
2369.4631152885208
 30
0.0
 11
1066.201313782964
 21
2369.4631152885208
 31
0.0
  0
LINE
  5
323B
  8
_0-0_
  6
CONTINUOUS
 62
     2
 10
1067.201313782964
 20
2369.4631152885208
 30
0.0
 11
1069.469363059721
 21
2369.4631152885208
 31
0.0
  0
LINE
  5
323C
  8
_0-0_
  6
CONTINUOUS
 62
     2
 10
1072.263264145013
 20
2369.4631152885208
 30
0.0
 11
1073.563264145014
 21
2369.4631152885208
 31
0.0
  0
LINE
  5
323D
  8
_0-0_
  6
CONTINUOUS
 62
     2
 10
1073.563264145014
 20
2369.4631152885208
 30
0.0
 11
1074.860360388712
 21
2369.4631152885208
 31
0.0
  0
LINE
  5
323E
  8
_0-0_
  6
CONTINUOUS
 62
     2
 10
1077.1420235226381
 20
2369.4631152885208
 30
0.0
 11
1078.242023522638
 21
2369.4631152885208
 31
0.0
  0
LINE
  5
323F
  8
_0-0_
  6
CONTINUOUS
 62
     2
 10
1049.484381961372
 20
2369.6631152885211
 30
0.0
 11
1051.42043384665
 21
2369.6631152885211
 31
0.0
  0
LINE
  5
3240
  8
_0-0_
  6
CONTINUOUS
 62
     2
 10
1054.400300876991
 20
2369.6631152885211
 30
0.0
 11
1059.441314206206
 21
2369.6631152885211
 31
0.0
  0
LINE
  5
3241
  8
_0-0_
  6
CONTINUOUS
 62
     2
 10
1060.3733470035149
 20
2369.6631152885211
 30
0.0
 11
1061.6733470035149
 21
2369.6631152885211
 31
0.0
  0
LINE
  5
3242
  8
_0-0_
  6
CONTINUOUS
 62
     2
 10
1064.9945753145951
 20
2369.6631152885211
 30
0.0
 11
1066.294575314595
 21
2369.6631152885211
 31
0.0
  0
LINE
  5
3243
  8
_0-0_
  6
CONTINUOUS
 62
     2
 10
1067.294575314595
 20
2369.6631152885211
 30
0.0
 11
1069.37610152809
 21
2369.6631152885211
 31
0.0
  0
LINE
  5
3244
  8
_0-0_
  6
CONTINUOUS
 62
     2
 10
1072.263264145013
 20
2369.6631152885211
 30
0.0
 11
1074.73538651833
 21
2369.6631152885211
 31
0.0
  0
LINE
  5
3245
  8
_0-0_
  6
CONTINUOUS
 62
     2
 10
1077.1420235226381
 20
2369.6631152885211
 30
0.0
 11
1078.242023522638
 21
2369.6631152885211
 31
0.0
  0
LINE
  5
3246
  8
_0-0_
  6
CONTINUOUS
 62
     2
 10
1049.5776434930031
 20
2369.8631152885209
 30
0.0
 11
1051.327172315019
 21
2369.8631152885209
 31
0.0
  0
LINE
  5
3247
  8
_0-0_
  6
CONTINUOUS
 62
     2
 10
1054.400300876991
 20
2369.8631152885209
 30
0.0
 11
1059.2168875195971
 21
2369.8631152885209
 31
0.0
  0
LINE
  5
3248
  8
_0-0_
  6
CONTINUOUS
 62
     2
 10
1060.2800854718839
 20
2369.8631152885209
 30
0.0
 11
1061.5800854718841
 21
2369.8631152885209
 31
0.0
  0
LINE
  5
3249
  8
_0-0_
  6
CONTINUOUS
 62
     2
 10
1065.087836846227
 20
2369.8631152885209
 30
0.0
 11
1066.387836846226
 21
2369.8631152885209
 31
0.0
  0
LINE
  5
324A
  8
_0-0_
  6
CONTINUOUS
 62
     2
 10
1067.387836846226
 20
2369.8631152885209
 30
0.0
 11
1069.2828399964601
 21
2369.8631152885209
 31
0.0
  0
LINE
  5
324B
  8
_0-0_
  6
CONTINUOUS
 62
     2
 10
1072.263264145013
 20
2369.8631152885209
 30
0.0
 11
1074.6104126479479
 21
2369.8631152885209
 31
0.0
  0
LINE
  5
324C
  8
_0-0_
  6
CONTINUOUS
 62
     2
 10
1077.1420235226381
 20
2369.8631152885209
 30
0.0
 11
1078.242023522638
 21
2369.8631152885209
 31
0.0
  0
LINE
  5
324D
  8
_0-0_
  6
CONTINUOUS
 62
     2
 10
1049.6709050246341
 20
2370.0631152885212
 30
0.0
 11
1051.233910783388
 21
2370.0631152885212
 31
0.0
  0
LINE
  5
324E
  8
_0-0_
  6
CONTINUOUS
 62
     2
 10
1054.400300876991
 20
2370.0631152885212
 30
0.0
 11
1058.8831076829649
 21
2370.0631152885212
 31
0.0
  0
LINE
  5
324F
  8
_0-0_
  6
CONTINUOUS
 62
     2
 10
1060.1868239402529
 20
2370.0631152885212
 30
0.0
 11
1061.4868239402531
 21
2370.0631152885212
 31
0.0
  0
LINE
  5
3250
  8
_0-0_
  6
CONTINUOUS
 62
     2
 10
1065.181098377858
 20
2370.0631152885212
 30
0.0
 11
1066.4810983778571
 21
2370.0631152885212
 31
0.0
  0
LINE
  5
3251
  8
_0-0_
  6
CONTINUOUS
 62
     2
 10
1067.4810983778571
 20
2370.0631152885212
 30
0.0
 11
1069.1895784648279
 21
2370.0631152885212
 31
0.0
  0
LINE
  5
3252
  8
_0-0_
  6
CONTINUOUS
 62
     2
 10
1072.263264145013
 20
2370.0631152885212
 30
0.0
 11
1074.4854387775661
 21
2370.0631152885212
 31
0.0
  0
LINE
  5
3253
  8
_0-0_
  6
CONTINUOUS
 62
     2
 10
1077.1420235226381
 20
2370.0631152885212
 30
0.0
 11
1078.242023522638
 21
2370.0631152885212
 31
0.0
  0
LINE
  5
3254
  8
_0-0_
  6
CONTINUOUS
 62
     2
 10
1049.7641665562651
 20
2370.263115288521
 30
0.0
 11
1051.1406492517569
 21
2370.263115288521
 31
0.0
  0
LINE
  5
3255
  8
_0-0_
  6
CONTINUOUS
 62
     2
 10
1054.400300876991
 20
2370.263115288521
 30
0.0
 11
1058.400300876991
 21
2370.263115288521
 31
0.0
  0
LINE
  5
3256
  8
_0-0_
  6
CONTINUOUS
 62
     2
 10
1060.0935624086219
 20
2370.263115288521
 30
0.0
 11
1061.3935624086221
 21
2370.263115288521
 31
0.0
  0
LINE
  5
3257
  8
_0-0_
  6
CONTINUOUS
 62
     2
 10
1065.274359909489
 20
2370.263115288521
 30
0.0
 11
1066.5743599094881
 21
2370.263115288521
 31
0.0
  0
LINE
  5
3258
  8
_0-0_
  6
CONTINUOUS
 62
     2
 10
1067.5743599094881
 20
2370.263115288521
 30
0.0
 11
1069.0963169331969
 21
2370.263115288521
 31
0.0
  0
LINE
  5
3259
  8
_0-0_
  6
CONTINUOUS
 62
     2
 10
1072.263264145013
 20
2370.263115288521
 30
0.0
 11
1074.360464907184
 21
2370.263115288521
 31
0.0
  0
LINE
  5
325A
  8
_0-0_
  6
CONTINUOUS
 62
     2
 10
1077.1420235226381
 20
2370.263115288521
 30
0.0
 11
1078.242023522638
 21
2370.263115288521
 31
0.0
  0
LINE
  5
325B
  8
_0-0_
  6
CONTINUOUS
 62
     2
 10
1049.8574280878961
 20
2370.4631152885208
 30
0.0
 11
1051.0473877201259
 21
2370.4631152885208
 31
0.0
  0
LINE
  5
325C
  8
_0-0_
  6
CONTINUOUS
 62
     2
 10
1054.400300876991
 20
2370.4631152885208
 30
0.0
 11
1057.7003008769909
 21
2370.4631152885208
 31
0.0
  0
LINE
  5
325D
  8
_0-0_
  6
CONTINUOUS
 62
     2
 10
1060.0003008769911
 20
2370.4631152885208
 30
0.0
 11
1061.3003008769911
 21
2370.4631152885208
 31
0.0
  0
LINE
  5
325E
  8
_0-0_
  6
CONTINUOUS
 62
     2
 10
1065.3676214411189
 20
2370.4631152885208
 30
0.0
 11
1066.6676214411191
 21
2370.4631152885208
 31
0.0
  0
LINE
  5
325F
  8
_0-0_
  6
CONTINUOUS
 62
     2
 10
1067.6676214411191
 20
2370.4631152885208
 30
0.0
 11
1069.0030554015659
 21
2370.4631152885208
 31
0.0
  0
LINE
  5
3260
  8
_0-0_
  6
CONTINUOUS
 62
     2
 10
1072.263264145013
 20
2370.4631152885208
 30
0.0
 11
1074.2354910368031
 21
2370.4631152885208
 31
0.0
  0
LINE
  5
3261
  8
_0-0_
  6
CONTINUOUS
 62
     2
 10
1077.1420235226381
 20
2370.4631152885208
 30
0.0
 11
1078.242023522638
 21
2370.4631152885208
 31
0.0
  0
LINE
  5
3262
  8
_0-0_
  6
CONTINUOUS
 62
     2
 10
1047.1994744364119
 20
2364.763115288521
 30
0.0
 11
1048.4994744364119
 21
2364.763115288521
 31
0.0
  0
LINE
  5
3263
  8
_0-0_
  6
CONTINUOUS
 62
     2
 10
1052.405341371609
 20
2364.763115288521
 30
0.0
 11
1053.7053413716089
 21
2364.763115288521
 31
0.0
  0
LINE
  5
3264
  8
_0-0_
  6
CONTINUOUS
 62
     2
 10
1054.400300876991
 20
2364.763115288521
 30
0.0
 11
1057.9110281444709
 21
2364.763115288521
 31
0.0
  0
LINE
  5
3265
  8
_0-0_
  6
CONTINUOUS
 62
     2
 10
1062.658254528475
 20
2364.763115288521
 30
0.0
 11
1064.0096677896361
 21
2364.763115288521
 31
0.0
  0
LINE
  5
3266
  8
_0-0_
  6
CONTINUOUS
 62
     2
 10
1065.0096677896361
 20
2364.763115288521
 30
0.0
 11
1066.309667789636
 21
2364.763115288521
 31
0.0
  0
LINE
  5
3267
  8
_0-0_
  6
CONTINUOUS
 62
     2
 10
1070.3610090530501
 20
2364.763115288521
 30
0.0
 11
1071.6610090530501
 21
2364.763115288521
 31
0.0
  0
LINE
  5
3268
  8
_0-0_
  6
CONTINUOUS
 62
     2
 10
1072.263264145013
 20
2364.763115288521
 30
0.0
 11
1073.563264145014
 21
2364.763115288521
 31
0.0
  0
LINE
  5
3269
  8
_0-0_
  6
CONTINUOUS
 62
     2
 10
1076.500150098987
 20
2364.763115288521
 30
0.0
 11
1078.242023522638
 21
2364.763115288521
 31
0.0
  0
LINE
  5
326A
  8
_0-0_
  6
CONTINUOUS
 62
     2
 10
1047.292735968043
 20
2364.9631152885208
 30
0.0
 11
1048.5927359680441
 21
2364.9631152885208
 31
0.0
  0
LINE
  5
326B
  8
_0-0_
  6
CONTINUOUS
 62
     2
 10
1052.312079839978
 20
2364.9631152885208
 30
0.0
 11
1053.6120798399791
 21
2364.9631152885208
 31
0.0
  0
LINE
  5
326C
  8
_0-0_
  6
CONTINUOUS
 62
     2
 10
1054.400300876991
 20
2364.9631152885208
 30
0.0
 11
1058.5528635269091
 21
2364.9631152885208
 31
0.0
  0
LINE
  5
326D
  8
_0-0_
  6
CONTINUOUS
 62
     2
 10
1062.5649929968431
 20
2364.9631152885208
 30
0.0
 11
1064.1029293212671
 21
2364.9631152885208
 31
0.0
  0
LINE
  5
326E
  8
_0-0_
  6
CONTINUOUS
 62
     2
 10
1065.1029293212671
 20
2364.9631152885208
 30
0.0
 11
1066.402929321267
 21
2364.9631152885208
 31
0.0
  0
LINE
  5
326F
  8
_0-0_
  6
CONTINUOUS
 62
     2
 10
1070.2677475214191
 20
2364.9631152885208
 30
0.0
 11
1071.5677475214191
 21
2364.9631152885208
 31
0.0
  0
LINE
  5
3270
  8
_0-0_
  6
CONTINUOUS
 62
     2
 10
1072.263264145013
 20
2364.9631152885208
 30
0.0
 11
1073.563264145014
 21
2364.9631152885208
 31
0.0
  0
LINE
  5
3271
  8
_0-0_
  6
CONTINUOUS
 62
     2
 10
1076.3751762286061
 20
2364.9631152885208
 30
0.0
 11
1078.242023522638
 21
2364.9631152885208
 31
0.0
  0
LINE
  5
3272
  8
_0-0_
  6
CONTINUOUS
 62
     2
 10
1047.385997499674
 20
2365.1631152885211
 30
0.0
 11
1048.6859974996739
 21
2365.1631152885211
 31
0.0
  0
LINE
  5
3273
  8
_0-0_
  6
CONTINUOUS
 62
     2
 10
1052.2188183083481
 20
2365.1631152885211
 30
0.0
 11
1053.518818308348
 21
2365.1631152885211
 31
0.0
  0
LINE
  5
3274
  8
_0-0_
  6
CONTINUOUS
 62
     2
 10
1054.400300876991
 20
2365.1631152885211
 30
0.0
 11
1058.991673658511
 21
2365.1631152885211
 31
0.0
  0
LINE
  5
3275
  8
_0-0_
  6
CONTINUOUS
 62
     2
 10
1062.471731465213
 20
2365.1631152885211
 30
0.0
 11
1064.1961908528981
 21
2365.1631152885211
 31
0.0
  0
LINE
  5
3276
  8
_0-0_
  6
CONTINUOUS
 62
     2
 10
1065.1961908528981
 20
2365.1631152885211
 30
0.0
 11
1066.4961908528981
 21
2365.1631152885211
 31
0.0
  0
LINE
  5
3277
  8
_0-0_
  6
CONTINUOUS
 62
     2
 10
1070.1744859897881
 20
2365.1631152885211
 30
0.0
 11
1071.474485989788
 21
2365.1631152885211
 31
0.0
  0
LINE
  5
3278
  8
_0-0_
  6
CONTINUOUS
 62
     2
 10
1072.263264145013
 20
2365.1631152885211
 30
0.0
 11
1073.563264145014
 21
2365.1631152885211
 31
0.0
  0
LINE
  5
3279
  8
_0-0_
  6
CONTINUOUS
 62
     2
 10
1076.250202358224
 20
2365.1631152885211
 30
0.0
 11
1078.242023522638
 21
2365.1631152885211
 31
0.0
  0
LINE
  5
327A
  8
_0-0_
  6
CONTINUOUS
 62
     2
 10
1047.479259031305
 20
2365.3631152885209
 30
0.0
 11
1048.7792590313049
 21
2365.3631152885209
 31
0.0
  0
LINE
  5
327B
  8
_0-0_
  6
CONTINUOUS
 62
     2
 10
1052.1255567767159
 20
2365.3631152885209
 30
0.0
 11
1053.425556776717
 21
2365.3631152885209
 31
0.0
  0
LINE
  5
327C
  8
_0-0_
  6
CONTINUOUS
 62
     2
 10
1054.400300876991
 20
2365.3631152885209
 30
0.0
 11
1059.2859674654781
 21
2365.3631152885209
 31
0.0
  0
LINE
  5
327D
  8
_0-0_
  6
CONTINUOUS
 62
     2
 10
1062.378469933582
 20
2365.3631152885209
 30
0.0
 11
1064.2894523845291
 21
2365.3631152885209
 31
0.0
  0
LINE
  5
327E
  8
_0-0_
  6
CONTINUOUS
 62
     2
 10
1065.2894523845291
 20
2365.3631152885209
 30
0.0
 11
1066.5894523845291
 21
2365.3631152885209
 31
0.0
  0
LINE
  5
327F
  8
_0-0_
  6
CONTINUOUS
 62
     2
 10
1070.0812244581571
 20
2365.3631152885209
 30
0.0
 11
1071.381224458157
 21
2365.3631152885209
 31
0.0
  0
LINE
  5
3280
  8
_0-0_
  6
CONTINUOUS
 62
     2
 10
1072.263264145013
 20
2365.3631152885209
 30
0.0
 11
1073.563264145014
 21
2365.3631152885209
 31
0.0
  0
LINE
  5
3281
  8
_0-0_
  6
CONTINUOUS
 62
     2
 10
1076.1252284878419
 20
2365.3631152885209
 30
0.0
 11
1078.242023522638
 21
2365.3631152885209
 31
0.0
  0
LINE
  5
3282
  8
_0-0_
  6
CONTINUOUS
 62
     2
 10
1047.572520562936
 20
2365.5631152885212
 30
0.0
 11
1048.8725205629371
 21
2365.5631152885212
 31
0.0
  0
LINE
  5
3283
  8
_0-0_
  6
CONTINUOUS
 62
     2
 10
1052.0322952450849
 20
2365.5631152885212
 30
0.0
 11
1053.332295245086
 21
2365.5631152885212
 31
0.0
  0
LINE
  5
3284
  8
_0-0_
  6
CONTINUOUS
 62
     2
 10
1054.400300876991
 20
2365.5631152885212
 30
0.0
 11
1059.4922031804531
 21
2365.5631152885212
 31
0.0
  0
LINE
  5
3285
  8
_0-0_
  6
CONTINUOUS
 62
     2
 10
1062.2852084019501
 20
2365.5631152885212
 30
0.0
 11
1064.3827139161599
 21
2365.5631152885212
 31
0.0
  0
LINE
  5
3286
  8
_0-0_
  6
CONTINUOUS
 62
     2
 10
1065.3827139161599
 20
2365.5631152885212
 30
0.0
 11
1066.6827139161601
 21
2365.5631152885212
 31
0.0
  0
LINE
  5
3287
  8
_0-0_
  6
CONTINUOUS
 62
     2
 10
1069.9879629265261
 20
2365.5631152885212
 30
0.0
 11
1071.287962926526
 21
2365.5631152885212
 31
0.0
  0
LINE
  5
3288
  8
_0-0_
  6
CONTINUOUS
 62
     2
 10
1072.263264145013
 20
2365.5631152885212
 30
0.0
 11
1073.563264145014
 21
2365.5631152885212
 31
0.0
  0
LINE
  5
3289
  8
_0-0_
  6
CONTINUOUS
 62
     2
 10
1076.0002546174601
 20
2365.5631152885212
 30
0.0
 11
1078.242023522638
 21
2365.5631152885212
 31
0.0
  0
LINE
  5
328A
  8
_0-0_
  6
CONTINUOUS
 62
     2
 10
1047.665782094567
 20
2365.763115288521
 30
0.0
 11
1048.965782094567
 21
2365.763115288521
 31
0.0
  0
LINE
  5
328B
  8
_0-0_
  6
CONTINUOUS
 62
     2
 10
1051.9390337134539
 20
2365.763115288521
 30
0.0
 11
1053.2390337134541
 21
2365.763115288521
 31
0.0
  0
LINE
  5
328C
  8
_0-0_
  6
CONTINUOUS
 62
     2
 10
1054.400300876991
 20
2365.763115288521
 30
0.0
 11
1055.7003008769909
 21
2365.763115288521
 31
0.0
  0
LINE
  5
328D
  8
_0-0_
  6
CONTINUOUS
 62
     2
 10
1057.800145694825
 20
2365.763115288521
 30
0.0
 11
1059.63148158235
 21
2365.763115288521
 31
0.0
  0
LINE
  5
328E
  8
_0-0_
  6
CONTINUOUS
 62
     2
 10
1062.19194687032
 20
2365.763115288521
 30
0.0
 11
1064.4759754477909
 21
2365.763115288521
 31
0.0
  0
LINE
  5
328F
  8
_0-0_
  6
CONTINUOUS
 62
     2
 10
1065.4759754477909
 20
2365.763115288521
 30
0.0
 11
1066.7759754477911
 21
2365.763115288521
 31
0.0
  0
LINE
  5
3290
  8
_0-0_
  6
CONTINUOUS
 62
     2
 10
1069.894701394895
 20
2365.763115288521
 30
0.0
 11
1071.194701394895
 21
2365.763115288521
 31
0.0
  0
LINE
  5
3291
  8
_0-0_
  6
CONTINUOUS
 62
     2
 10
1072.263264145013
 20
2365.763115288521
 30
0.0
 11
1073.563264145014
 21
2365.763115288521
 31
0.0
  0
LINE
  5
3292
  8
_0-0_
  6
CONTINUOUS
 62
     2
 10
1075.875280747078
 20
2365.763115288521
 30
0.0
 11
1078.242023522638
 21
2365.763115288521
 31
0.0
  0
LINE
  5
3293
  8
_0-0_
  6
CONTINUOUS
 62
     2
 10
1047.759043626198
 20
2365.9631152885208
 30
0.0
 11
1049.0590436261989
 21
2365.9631152885208
 31
0.0
  0
LINE
  5
3294
  8
_0-0_
  6
CONTINUOUS
 62
     2
 10
1051.845772181824
 20
2365.9631152885208
 30
0.0
 11
1053.145772181824
 21
2365.9631152885208
 31
0.0
  0
LINE
  5
3295
  8
_0-0_
  6
CONTINUOUS
 62
     2
 10
1054.400300876991
 20
2365.9631152885208
 30
0.0
 11
1055.7003008769909
 21
2365.9631152885208
 31
0.0
  0
LINE
  5
3296
  8
_0-0_
  6
CONTINUOUS
 62
     2
 10
1058.127979489497
 20
2365.9631152885208
 30
0.0
 11
1059.721057393883
 21
2365.9631152885208
 31
0.0
  0
LINE
  5
3297
  8
_0-0_
  6
CONTINUOUS
 62
     2
 10
1062.098685338688
 20
2365.9631152885208
 30
0.0
 11
1064.5692369794219
 21
2365.9631152885208
 31
0.0
  0
LINE
  5
3298
  8
_0-0_
  6
CONTINUOUS
 62
     2
 10
1065.5692369794219
 20
2365.9631152885208
 30
0.0
 11
1066.8692369794221
 21
2365.9631152885208
 31
0.0
  0
LINE
  5
3299
  8
_0-0_
  6
CONTINUOUS
 62
     2
 10
1069.801439863264
 20
2365.9631152885208
 30
0.0
 11
1071.101439863264
 21
2365.9631152885208
 31
0.0
  0
LINE
  5
329A
  8
_0-0_
  6
CONTINUOUS
 62
     2
 10
1072.263264145013
 20
2365.9631152885208
 30
0.0
 11
1073.563264145014
 21
2365.9631152885208
 31
0.0
  0
LINE
  5
329B
  8
_0-0_
  6
CONTINUOUS
 62
     2
 10
1075.750306876696
 20
2365.9631152885208
 30
0.0
 11
1077.0474031203951
 21
2365.9631152885208
 31
0.0
  0
LINE
  5
329C
  8
_0-0_
  6
CONTINUOUS
 62
     2
 10
1077.1420235226381
 20
2365.9631152885208
 30
0.0
 11
1078.242023522638
 21
2365.9631152885208
 31
0.0
  0
LINE
  5
329D
  8
_0-0_
  6
CONTINUOUS
 62
     2
 10
1047.8523051578291
 20
2366.1631152885211
 30
0.0
 11
1053.052510650193
 21
2366.1631152885211
 31
0.0
  0
LINE
  5
329E
  8
_0-0_
  6
CONTINUOUS
 62
     2
 10
1054.400300876991
 20
2366.1631152885211
 30
0.0
 11
1055.7003008769909
 21
2366.1631152885211
 31
0.0
  0
LINE
  5
329F
  8
_0-0_
  6
CONTINUOUS
 62
     2
 10
1058.3610160655589
 20
2366.1631152885211
 30
0.0
 11
1059.787315964647
 21
2366.1631152885211
 31
0.0
  0
LINE
  5
32A0
  8
_0-0_
  6
CONTINUOUS
 62
     2
 10
1062.0054238070579
 20
2366.1631152885211
 30
0.0
 11
1063.305423807057
 21
2366.1631152885211
 31
0.0
  0
LINE
  5
32A1
  8
_0-0_
  6
CONTINUOUS
 62
     2
 10
1063.362498511053
 20
2366.1631152885211
 30
0.0
 11
1064.6624985110529
 21
2366.1631152885211
 31
0.0
  0
LINE
  5
32A2
  8
_0-0_
  6
CONTINUOUS
 62
     2
 10
1065.6624985110529
 20
2366.1631152885211
 30
0.0
 11
1071.008178331633
 21
2366.1631152885211
 31
0.0
  0
LINE
  5
32A3
  8
_0-0_
  6
CONTINUOUS
 62
     2
 10
1072.263264145013
 20
2366.1631152885211
 30
0.0
 11
1073.563264145014
 21
2366.1631152885211
 31
0.0
  0
LINE
  5
32A4
  8
_0-0_
  6
CONTINUOUS
 62
     2
 10
1075.6253330063139
 20
2366.1631152885211
 30
0.0
 11
1076.922429250013
 21
2366.1631152885211
 31
0.0
  0
LINE
  5
32A5
  8
_0-0_
  6
CONTINUOUS
 62
     2
 10
1077.1420235226381
 20
2366.1631152885211
 30
0.0
 11
1078.242023522638
 21
2366.1631152885211
 31
0.0
  0
LINE
  5
32A6
  8
_0-0_
  6
CONTINUOUS
 62
     2
 10
1047.9455666894601
 20
2366.3631152885209
 30
0.0
 11
1052.959249118561
 21
2366.3631152885209
 31
0.0
  0
LINE
  5
32A7
  8
_0-0_
  6
CONTINUOUS
 62
     2
 10
1054.400300876991
 20
2366.3631152885209
 30
0.0
 11
1055.7003008769909
 21
2366.3631152885209
 31
0.0
  0
LINE
  5
32A8
  8
_0-0_
  6
CONTINUOUS
 62
     2
 10
1058.498595450031
 20
2366.3631152885209
 30
0.0
 11
1059.841493824038
 21
2366.3631152885209
 31
0.0
  0
LINE
  5
32A9
  8
_0-0_
  6
CONTINUOUS
 62
     2
 10
1061.9121622754269
 20
2366.3631152885209
 30
0.0
 11
1063.212162275426
 21
2366.3631152885209
 31
0.0
  0
LINE
  5
32AA
  8
_0-0_
  6
CONTINUOUS
 62
     2
 10
1063.455760042684
 20
2366.3631152885209
 30
0.0
 11
1064.755760042684
 21
2366.3631152885209
 31
0.0
  0
LINE
  5
32AB
  8
_0-0_
  6
CONTINUOUS
 62
     2
 10
1065.755760042684
 20
2366.3631152885209
 30
0.0
 11
1070.9149168000019
 21
2366.3631152885209
 31
0.0
  0
LINE
  5
32AC
  8
_0-0_
  6
CONTINUOUS
 62
     2
 10
1072.263264145013
 20
2366.3631152885209
 30
0.0
 11
1073.563264145014
 21
2366.3631152885209
 31
0.0
  0
LINE
  5
32AD
  8
_0-0_
  6
CONTINUOUS
 62
     2
 10
1075.500359135933
 20
2366.3631152885209
 30
0.0
 11
1076.7974553796309
 21
2366.3631152885209
 31
0.0
  0
LINE
  5
32AE
  8
_0-0_
  6
CONTINUOUS
 62
     2
 10
1077.1420235226381
 20
2366.3631152885209
 30
0.0
 11
1078.242023522638
 21
2366.3631152885209
 31
0.0
  0
LINE
  5
32AF
  8
_0-0_
  6
CONTINUOUS
 62
     2
 10
1048.0388282210911
 20
2366.5631152885212
 30
0.0
 11
1052.8659875869309
 21
2366.5631152885212
 31
0.0
  0
LINE
  5
32B0
  8
_0-0_
  6
CONTINUOUS
 62
     2
 10
1054.400300876991
 20
2366.5631152885212
 30
0.0
 11
1055.7003008769909
 21
2366.5631152885212
 31
0.0
  0
LINE
  5
32B1
  8
_0-0_
  6
CONTINUOUS
 62
     2
 10
1058.5855494106499
 20
2366.5631152885212
 30
0.0
 11
1059.888697513939
 21
2366.5631152885212
 31
0.0
  0
LINE
  5
32B2
  8
_0-0_
  6
CONTINUOUS
 62
     2
 10
1061.8189007437959
 20
2366.5631152885212
 30
0.0
 11
1063.1189007437961
 21
2366.5631152885212
 31
0.0
  0
LINE
  5
32B3
  8
_0-0_
  6
CONTINUOUS
 62
     2
 10
1063.549021574315
 20
2366.5631152885212
 30
0.0
 11
1064.849021574315
 21
2366.5631152885212
 31
0.0
  0
LINE
  5
32B4
  8
_0-0_
  6
CONTINUOUS
 62
     2
 10
1065.849021574315
 20
2366.5631152885212
 30
0.0
 11
1070.8216552683709
 21
2366.5631152885212
 31
0.0
  0
LINE
  5
32B5
  8
_0-0_
  6
CONTINUOUS
 62
     2
 10
1072.263264145013
 20
2366.5631152885212
 30
0.0
 11
1073.563264145014
 21
2366.5631152885212
 31
0.0
  0
LINE
  5
32B6
  8
_0-0_
  6
CONTINUOUS
 62
     2
 10
1075.3753852655509
 20
2366.5631152885212
 30
0.0
 11
1076.6724815092491
 21
2366.5631152885212
 31
0.0
  0
LINE
  5
32B7
  8
_0-0_
  6
CONTINUOUS
 62
     2
 10
1077.1420235226381
 20
2366.5631152885212
 30
0.0
 11
1078.242023522638
 21
2366.5631152885212
 31
0.0
  0
LINE
  5
32B8
  8
_0-0_
  6
CONTINUOUS
 62
     2
 10
1048.1320897527221
 20
2366.763115288521
 30
0.0
 11
1052.772726055299
 21
2366.763115288521
 31
0.0
  0
LINE
  5
32B9
  8
_0-0_
  6
CONTINUOUS
 62
     2
 10
1054.400300876991
 20
2366.763115288521
 30
0.0
 11
1055.7003008769909
 21
2366.763115288521
 31
0.0
  0
LINE
  5
32BA
  8
_0-0_
  6
CONTINUOUS
 62
     2
 10
1058.6398182025321
 20
2366.763115288521
 30
0.0
 11
1059.9272479835649
 21
2366.763115288521
 31
0.0
  0
LINE
  5
32BB
  8
_0-0_
  6
CONTINUOUS
 62
     2
 10
1061.7256392121651
 20
2366.763115288521
 30
0.0
 11
1063.0256392121639
 21
2366.763115288521
 31
0.0
  0
LINE
  5
32BC
  8
_0-0_
  6
CONTINUOUS
 62
     2
 10
1063.642283105946
 20
2366.763115288521
 30
0.0
 11
1064.942283105946
 21
2366.763115288521
 31
0.0
  0
LINE
  5
32BD
  8
_0-0_
  6
CONTINUOUS
 62
     2
 10
1065.942283105946
 20
2366.763115288521
 30
0.0
 11
1070.7283937367399
 21
2366.763115288521
 31
0.0
  0
LINE
  5
32BE
  8
_0-0_
  6
CONTINUOUS
 62
     2
 10
1072.263264145013
 20
2366.763115288521
 30
0.0
 11
1073.563264145014
 21
2366.763115288521
 31
0.0
  0
LINE
  5
32BF
  8
_0-0_
  6
CONTINUOUS
 62
     2
 10
1075.2504113951691
 20
2366.763115288521
 30
0.0
 11
1076.547507638867
 21
2366.763115288521
 31
0.0
  0
LINE
  5
32C0
  8
_0-0_
  6
CONTINUOUS
 62
     2
 10
1077.1420235226381
 20
2366.763115288521
 30
0.0
 11
1078.242023522638
 21
2366.763115288521
 31
0.0
  0
LINE
  5
32C1
  8
_0-0_
  6
CONTINUOUS
 62
     2
 10
1048.225351284354
 20
2366.9631152885208
 30
0.0
 11
1052.6794645236689
 21
2366.9631152885208
 31
0.0
  0
LINE
  5
32C2
  8
_0-0_
  6
CONTINUOUS
 62
     2
 10
1054.400300876991
 20
2366.9631152885208
 30
0.0
 11
1055.7003008769909
 21
2366.9631152885208
 31
0.0
  0
LINE
  5
32C3
  8
_0-0_
  6
CONTINUOUS
 62
     2
 10
1058.6727943285371
 20
2366.9631152885208
 30
0.0
 11
1059.9575602997461
 21
2366.9631152885208
 31
0.0
  0
LINE
  5
32C4
  8
_0-0_
  6
CONTINUOUS
 62
     2
 10
1061.6323776805341
 20
2366.9631152885208
 30
0.0
 11
1062.9323776805329
 21
2366.9631152885208
 31
0.0
  0
LINE
  5
32C5
  8
_0-0_
  6
CONTINUOUS
 62
     2
 10
1063.735544637577
 20
2366.9631152885208
 30
0.0
 11
1065.035544637577
 21
2366.9631152885208
 31
0.0
  0
LINE
  5
32C6
  8
_0-0_
  6
CONTINUOUS
 62
     2
 10
1066.035544637577
 20
2366.9631152885208
 30
0.0
 11
1070.6351322051089
 21
2366.9631152885208
 31
0.0
  0
LINE
  5
32C7
  8
_0-0_
  6
CONTINUOUS
 62
     2
 10
1072.263264145013
 20
2366.9631152885208
 30
0.0
 11
1073.563264145014
 21
2366.9631152885208
 31
0.0
  0
LINE
  5
32C8
  8
_0-0_
  6
CONTINUOUS
 62
     2
 10
1075.125437524787
 20
2366.9631152885208
 30
0.0
 11
1076.422533768485
 21
2366.9631152885208
 31
0.0
  0
LINE
  5
32C9
  8
_0-0_
  6
CONTINUOUS
 62
     2
 10
1077.1420235226381
 20
2366.9631152885208
 30
0.0
 11
1078.242023522638
 21
2366.9631152885208
 31
0.0
  0
LINE
  5
32CA
  8
_0-0_
  6
CONTINUOUS
 62
     2
 10
1048.3186128159839
 20
2367.1631152885211
 30
0.0
 11
1049.618612815985
 21
2367.1631152885211
 31
0.0
  0
LINE
  5
32CB
  8
_0-0_
  6
CONTINUOUS
 62
     2
 10
1051.2862029920379
 20
2367.1631152885211
 30
0.0
 11
1052.5862029920379
 21
2367.1631152885211
 31
0.0
  0
LINE
  5
32CC
  8
_0-0_
  6
CONTINUOUS
 62
     2
 10
1054.400300876991
 20
2367.1631152885211
 30
0.0
 11
1055.7003008769909
 21
2367.1631152885211
 31
0.0
  0
LINE
  5
32CD
  8
_0-0_
  6
CONTINUOUS
 62
     2
 10
1058.68970202735
 20
2367.1631152885211
 30
0.0
 11
1059.9797101663989
 21
2367.1631152885211
 31
0.0
  0
LINE
  5
32CE
  8
_0-0_
  6
CONTINUOUS
 62
     2
 10
1061.5391161489019
 20
2367.1631152885211
 30
0.0
 11
1062.839116148903
 21
2367.1631152885211
 31
0.0
  0
LINE
  5
32CF
  8
_0-0_
  6
CONTINUOUS
 62
     2
 10
1063.8288061692081
 20
2367.1631152885211
 30
0.0
 11
1065.128806169208
 21
2367.1631152885211
 31
0.0
  0
LINE
  5
32D0
  8
_0-0_
  6
CONTINUOUS
 62
     2
 10
1066.128806169208
 20
2367.1631152885211
 30
0.0
 11
1067.428806169208
 21
2367.1631152885211
 31
0.0
  0
LINE
  5
32D1
  8
_0-0_
  6
CONTINUOUS
 62
     2
 10
1069.2418706734779
 20
2367.1631152885211
 30
0.0
 11
1070.5418706734779
 21
2367.1631152885211
 31
0.0
  0
LINE
  5
32D2
  8
_0-0_
  6
CONTINUOUS
 62
     2
 10
1072.263264145013
 20
2367.1631152885211
 30
0.0
 11
1073.563264145014
 21
2367.1631152885211
 31
0.0
  0
LINE
  5
32D3
  8
_0-0_
  6
CONTINUOUS
 62
     2
 10
1075.0004636544049
 20
2367.1631152885211
 30
0.0
 11
1076.2975598981029
 21
2367.1631152885211
 31
0.0
  0
LINE
  5
32D4
  8
_0-0_
  6
CONTINUOUS
 62
     2
 10
1077.1420235226381
 20
2367.1631152885211
 30
0.0
 11
1078.242023522638
 21
2367.1631152885211
 31
0.0
  0
LINE
  5
32D5
  8
_0-0_
  6
CONTINUOUS
 62
     2
 10
1048.4118743476149
 20
2367.3631152885209
 30
0.0
 11
1049.7118743476151
 21
2367.3631152885209
 31
0.0
  0
LINE
  5
32D6
  8
_0-0_
  6
CONTINUOUS
 62
     2
 10
1051.192941460406
 20
2367.3631152885209
 30
0.0
 11
1052.492941460406
 21
2367.3631152885209
 31
0.0
  0
LINE
  5
32D7
  8
_0-0_
  6
CONTINUOUS
 62
     2
 10
1054.400300876991
 20
2367.3631152885209
 30
0.0
 11
1055.7003008769909
 21
2367.3631152885209
 31
0.0
  0
LINE
  5
32D8
  8
_0-0_
  6
CONTINUOUS
 62
     2
 10
1058.697220790066
 20
2367.3631152885209
 30
0.0
 11
1059.993534122691
 21
2367.3631152885209
 31
0.0
  0
LINE
  5
32D9
  8
_0-0_
  6
CONTINUOUS
 62
     2
 10
1061.4458546172721
 20
2367.3631152885209
 30
0.0
 11
1062.745854617272
 21
2367.3631152885209
 31
0.0
  0
LINE
  5
32DA
  8
_0-0_
  6
CONTINUOUS
 62
     2
 10
1063.9220677008391
 20
2367.3631152885209
 30
0.0
 11
1065.222067700839
 21
2367.3631152885209
 31
0.0
  0
LINE
  5
32DB
  8
_0-0_
  6
CONTINUOUS
 62
     2
 10
1066.222067700839
 20
2367.3631152885209
 30
0.0
 11
1067.522067700839
 21
2367.3631152885209
 31
0.0
  0
LINE
  5
32DC
  8
_0-0_
  6
CONTINUOUS
 62
     2
 10
1069.1486091418469
 20
2367.3631152885209
 30
0.0
 11
1070.4486091418471
 21
2367.3631152885209
 31
0.0
  0
LINE
  5
32DD
  8
_0-0_
  6
CONTINUOUS
 62
     2
 10
1072.263264145013
 20
2367.3631152885209
 30
0.0
 11
1073.563264145014
 21
2367.3631152885209
 31
0.0
  0
LINE
  5
32DE
  8
_0-0_
  6
CONTINUOUS
 62
     2
 10
1074.8754897840231
 20
2367.3631152885209
 30
0.0
 11
1076.1725860277211
 21
2367.3631152885209
 31
0.0
  0
LINE
  5
32DF
  8
_0-0_
  6
CONTINUOUS
 62
     2
 10
1077.1420235226381
 20
2367.3631152885209
 30
0.0
 11
1078.242023522638
 21
2367.3631152885209
 31
0.0
  0
LINE
  5
32E0
  8
_0-0_
  6
CONTINUOUS
 62
     2
 10
1048.5051358792459
 20
2367.5631152885212
 30
0.0
 11
1049.8051358792461
 21
2367.5631152885212
 31
0.0
  0
LINE
  5
32E1
  8
_0-0_
  6
CONTINUOUS
 62
     2
 10
1051.099679928775
 20
2367.5631152885212
 30
0.0
 11
1052.399679928775
 21
2367.5631152885212
 31
0.0
  0
LINE
  5
32E2
  8
_0-0_
  6
CONTINUOUS
 62
     2
 10
1054.400300876991
 20
2367.5631152885212
 30
0.0
 11
1055.7003008769909
 21
2367.5631152885212
 31
0.0
  0
LINE
  5
32E3
  8
_0-0_
  6
CONTINUOUS
 62
     2
 10
1058.70018142099
 20
2367.5631152885212
 30
0.0
 11
1059.9999769867211
 21
2367.5631152885212
 31
0.0
  0
LINE
  5
32E4
  8
_0-0_
  6
CONTINUOUS
 62
     2
 10
1061.352593085641
 20
2367.5631152885212
 30
0.0
 11
1062.6525930856401
 21
2367.5631152885212
 31
0.0
  0
LINE
  5
32E5
  8
_0-0_
  6
CONTINUOUS
 62
     2
 10
1064.0153292324701
 20
2367.5631152885212
 30
0.0
 11
1065.31532923247
 21
2367.5631152885212
 31
0.0
  0
LINE
  5
32E6
  8
_0-0_
  6
CONTINUOUS
 62
     2
 10
1066.31532923247
 20
2367.5631152885212
 30
0.0
 11
1067.61532923247
 21
2367.5631152885212
 31
0.0
  0
LINE
  5
32E7
  8
_0-0_
  6
CONTINUOUS
 62
     2
 10
1069.0553476102159
 20
2367.5631152885212
 30
0.0
 11
1070.3553476102161
 21
2367.5631152885212
 31
0.0
  0
LINE
  5
32E8
  8
_0-0_
  6
CONTINUOUS
 62
     2
 10
1072.263264145013
 20
2367.5631152885212
 30
0.0
 11
1073.563264145014
 21
2367.5631152885212
 31
0.0
  0
LINE
  5
32E9
  8
_0-0_
  6
CONTINUOUS
 62
     2
 10
1074.750515913641
 20
2367.5631152885212
 30
0.0
 11
1076.047612157339
 21
2367.5631152885212
 31
0.0
  0
LINE
  5
32EA
  8
_0-0_
  6
CONTINUOUS
 62
     2
 10
1077.1420235226381
 20
2367.5631152885212
 30
0.0
 11
1078.242023522638
 21
2367.5631152885212
 31
0.0
  0
LINE
  5
32EB
  8
_0-0_
  6
CONTINUOUS
 62
     2
 10
1048.5983974108769
 20
2367.763115288521
 30
0.0
 11
1049.8983974108769
 21
2367.763115288521
 31
0.0
  0
LINE
  5
32EC
  8
_0-0_
  6
CONTINUOUS
 62
     2
 10
1051.0064183971449
 20
2367.763115288521
 30
0.0
 11
1052.3064183971439
 21
2367.763115288521
 31
0.0
  0
LINE
  5
32ED
  8
_0-0_
  6
CONTINUOUS
 62
     2
 10
1054.400300876991
 20
2367.763115288521
 30
0.0
 11
1055.7003008769909
 21
2367.763115288521
 31
0.0
  0
LINE
  5
32EE
  8
_0-0_
  6
CONTINUOUS
 62
     2
 10
1058.6985708590121
 20
2367.763115288521
 30
0.0
 11
1059.995918354299
 21
2367.763115288521
 31
0.0
  0
LINE
  5
32EF
  8
_0-0_
  6
CONTINUOUS
 62
     2
 10
1061.2593315540089
 20
2367.763115288521
 30
0.0
 11
1062.55933155401
 21
2367.763115288521
 31
0.0
  0
LINE
  5
32F0
  8
_0-0_
  6
CONTINUOUS
 62
     2
 10
1064.1085907641011
 20
2367.763115288521
 30
0.0
 11
1065.4085907641011
 21
2367.763115288521
 31
0.0
  0
LINE
  5
32F1
  8
_0-0_
  6
CONTINUOUS
 62
     2
 10
1066.4085907641011
 20
2367.763115288521
 30
0.0
 11
1067.708590764101
 21
2367.763115288521
 31
0.0
  0
LINE
  5
32F2
  8
_0-0_
  6
CONTINUOUS
 62
     2
 10
1068.9620860785849
 20
2367.763115288521
 30
0.0
 11
1070.2620860785851
 21
2367.763115288521
 31
0.0
  0
LINE
  5
32F3
  8
_0-0_
  6
CONTINUOUS
 62
     2
 10
1072.263264145013
 20
2367.763115288521
 30
0.0
 11
1073.563264145014
 21
2367.763115288521
 31
0.0
  0
LINE
  5
32F4
  8
_0-0_
  6
CONTINUOUS
 62
     2
 10
1074.625542043259
 20
2367.763115288521
 30
0.0
 11
1075.9226382869581
 21
2367.763115288521
 31
0.0
  0
LINE
  5
32F5
  8
_0-0_
  6
CONTINUOUS
 62
     2
 10
1077.1420235226381
 20
2367.763115288521
 30
0.0
 11
1078.242023522638
 21
2367.763115288521
 31
0.0
  0
LINE
  5
32F6
  8
_0-0_
  6
CONTINUOUS
 62
     2
 10
1048.6916589425091
 20
2367.9631152885208
 30
0.0
 11
1049.9916589425079
 21
2367.9631152885208
 31
0.0
  0
LINE
  5
32F7
  8
_0-0_
  6
CONTINUOUS
 62
     2
 10
1050.9131568655141
 20
2367.9631152885208
 30
0.0
 11
1052.2131568655129
 21
2367.9631152885208
 31
0.0
  0
LINE
  5
32F8
  8
_0-0_
  6
CONTINUOUS
 62
     2
 10
1054.400300876991
 20
2367.9631152885208
 30
0.0
 11
1055.7003008769909
 21
2367.9631152885208
 31
0.0
  0
LINE
  5
32F9
  8
_0-0_
  6
CONTINUOUS
 62
     2
 10
1058.692553430034
 20
2367.9631152885208
 30
0.0
 11
1059.9842381611491
 21
2367.9631152885208
 31
0.0
  0
LINE
  5
32FA
  8
_0-0_
  6
CONTINUOUS
 62
     2
 10
1061.166070022379
 20
2367.9631152885208
 30
0.0
 11
1062.4660700223781
 21
2367.9631152885208
 31
0.0
  0
LINE
  5
32FB
  8
_0-0_
  6
CONTINUOUS
 62
     2
 10
1064.2018522957319
 20
2367.9631152885208
 30
0.0
 11
1065.5018522957321
 21
2367.9631152885208
 31
0.0
  0
LINE
  5
32FC
  8
_0-0_
  6
CONTINUOUS
 62
     2
 10
1066.5018522957321
 20
2367.9631152885208
 30
0.0
 11
1067.801852295732
 21
2367.9631152885208
 31
0.0
  0
LINE
  5
32FD
  8
_0-0_
  6
CONTINUOUS
 62
     2
 10
1068.8688245469541
 20
2367.9631152885208
 30
0.0
 11
1070.1688245469541
 21
2367.9631152885208
 31
0.0
  0
LINE
  5
32FE
  8
_0-0_
  6
CONTINUOUS
 62
     2
 10
1072.263264145013
 20
2367.9631152885208
 30
0.0
 11
1073.563264145014
 21
2367.9631152885208
 31
0.0
  0
LINE
  5
32FF
  8
_0-0_
  6
CONTINUOUS
 62
     2
 10
1074.500568172878
 20
2367.9631152885208
 30
0.0
 11
1075.797664416576
 21
2367.9631152885208
 31
0.0
  0
LINE
  5
3300
  8
_0-0_
  6
CONTINUOUS
 62
     2
 10
1077.1420235226381
 20
2367.9631152885208
 30
0.0
 11
1078.242023522638
 21
2367.9631152885208
 31
0.0
  0
LINE
  5
3301
  8
_0-0_
  6
CONTINUOUS
 62
     2
 10
1048.784920474139
 20
2368.1631152885211
 30
0.0
 11
1050.0849204741389
 21
2368.1631152885211
 31
0.0
  0
LINE
  5
3302
  8
_0-0_
  6
CONTINUOUS
 62
     2
 10
1050.8198953338831
 20
2368.1631152885211
 30
0.0
 11
1052.1198953338819
 21
2368.1631152885211
 31
0.0
  0
LINE
  5
3303
  8
_0-0_
  6
CONTINUOUS
 62
     2
 10
1054.400300876991
 20
2368.1631152885211
 30
0.0
 11
1055.7003008769909
 21
2368.1631152885211
 31
0.0
  0
LINE
  5
3304
  8
_0-0_
  6
CONTINUOUS
 62
     2
 10
1058.6765877358539
 20
2368.1631152885211
 30
0.0
 11
1059.96405631273
 21
2368.1631152885211
 31
0.0
  0
LINE
  5
3305
  8
_0-0_
  6
CONTINUOUS
 62
     2
 10
1061.072808490748
 20
2368.1631152885211
 30
0.0
 11
1062.372808490748
 21
2368.1631152885211
 31
0.0
  0
LINE
  5
3306
  8
_0-0_
  6
CONTINUOUS
 62
     2
 10
1064.2951138273629
 20
2368.1631152885211
 30
0.0
 11
1065.5951138273631
 21
2368.1631152885211
 31
0.0
  0
LINE
  5
3307
  8
_0-0_
  6
CONTINUOUS
 62
     2
 10
1066.5951138273631
 20
2368.1631152885211
 30
0.0
 11
1067.895113827363
 21
2368.1631152885211
 31
0.0
  0
LINE
  5
3308
  8
_0-0_
  6
CONTINUOUS
 62
     2
 10
1068.7755630153231
 20
2368.1631152885211
 30
0.0
 11
1070.075563015323
 21
2368.1631152885211
 31
0.0
  0
LINE
  5
3309
  8
_0-0_
  6
CONTINUOUS
 62
     2
 10
1072.263264145013
 20
2368.1631152885211
 30
0.0
 11
1073.563264145014
 21
2368.1631152885211
 31
0.0
  0
LINE
  5
330A
  8
_0-0_
  6
CONTINUOUS
 62
     2
 10
1074.3755943024951
 20
2368.1631152885211
 30
0.0
 11
1075.672690546194
 21
2368.1631152885211
 31
0.0
  0
LINE
  5
330B
  8
_0-0_
  6
CONTINUOUS
 62
     2
 10
1077.1420235226381
 20
2368.1631152885211
 30
0.0
 11
1078.242023522638
 21
2368.1631152885211
 31
0.0
  0
LINE
  5
330C
  8
_0-0_
  6
CONTINUOUS
 62
     2
 10
1048.87818200577
 20
2368.3631152885209
 30
0.0
 11
1050.1781820057699
 21
2368.3631152885209
 31
0.0
  0
LINE
  5
330D
  8
_0-0_
  6
CONTINUOUS
 62
     2
 10
1050.7266338022521
 20
2368.3631152885209
 30
0.0
 11
1052.026633802252
 21
2368.3631152885209
 31
0.0
  0
LINE
  5
330E
  8
_0-0_
  6
CONTINUOUS
 62
     2
 10
1054.400300876991
 20
2368.3631152885209
 30
0.0
 11
1055.7003008769909
 21
2368.3631152885209
 31
0.0
  0
LINE
  5
330F
  8
_0-0_
  6
CONTINUOUS
 62
     2
 10
1058.647496093824
 20
2368.3631152885209
 30
0.0
 11
1059.9346938874489
 21
2368.3631152885209
 31
0.0
  0
LINE
  5
3310
  8
_0-0_
  6
CONTINUOUS
 62
     2
 10
1060.979546959117
 20
2368.3631152885209
 30
0.0
 11
1062.2795469591169
 21
2368.3631152885209
 31
0.0
  0
LINE
  5
3311
  8
_0-0_
  6
CONTINUOUS
 62
     2
 10
1064.3883753589939
 20
2368.3631152885209
 30
0.0
 11
1065.6883753589941
 21
2368.3631152885209
 31
0.0
  0
LINE
  5
3312
  8
_0-0_
  6
CONTINUOUS
 62
     2
 10
1066.6883753589941
 20
2368.3631152885209
 30
0.0
 11
1067.9883753589941
 21
2368.3631152885209
 31
0.0
  0
LINE
  5
3313
  8
_0-0_
  6
CONTINUOUS
 62
     2
 10
1068.6823014836921
 20
2368.3631152885209
 30
0.0
 11
1069.982301483692
 21
2368.3631152885209
 31
0.0
  0
LINE
  5
3314
  8
_0-0_
  6
CONTINUOUS
 62
     2
 10
1072.263264145013
 20
2368.3631152885209
 30
0.0
 11
1073.563264145014
 21
2368.3631152885209
 31
0.0
  0
LINE
  5
3315
  8
_0-0_
  6
CONTINUOUS
 62
     2
 10
1074.2506204321139
 20
2368.3631152885209
 30
0.0
 11
1075.5477166758119
 21
2368.3631152885209
 31
0.0
  0
LINE
  5
3316
  8
_0-0_
  6
CONTINUOUS
 62
     2
 10
1077.1420235226381
 20
2368.3631152885209
 30
0.0
 11
1078.242023522638
 21
2368.3631152885209
 31
0.0
  0
LINE
  5
3317
  8
_0-0_
  6
CONTINUOUS
 62
     2
 10
1048.9714435374019
 20
2368.5631152885212
 30
0.0
 11
1050.271443537401
 21
2368.5631152885212
 31
0.0
  0
LINE
  5
3318
  8
_0-0_
  6
CONTINUOUS
 62
     2
 10
1050.6333722706211
 20
2368.5631152885212
 30
0.0
 11
1051.9333722706201
 21
2368.5631152885212
 31
0.0
  0
LINE
  5
3319
  8
_0-0_
  6
CONTINUOUS
 62
     2
 10
1054.400300876991
 20
2368.5631152885212
 30
0.0
 11
1055.7003008769909
 21
2368.5631152885212
 31
0.0
  0
LINE
  5
331A
  8
_0-0_
  6
CONTINUOUS
 62
     2
 10
1058.5990258406141
 20
2368.5631152885212
 30
0.0
 11
1059.8973466882101
 21
2368.5631152885212
 31
0.0
  0
LINE
  5
331B
  8
_0-0_
  6
CONTINUOUS
 62
     2
 10
1060.886285427486
 20
2368.5631152885212
 30
0.0
 11
1062.1862854274859
 21
2368.5631152885212
 31
0.0
  0
LINE
  5
331C
  8
_0-0_
  6
CONTINUOUS
 62
     2
 10
1064.4816368906249
 20
2368.5631152885212
 30
0.0
 11
1065.7816368906249
 21
2368.5631152885212
 31
0.0
  0
LINE
  5
331D
  8
_0-0_
  6
CONTINUOUS
 62
     2
 10
1066.7816368906249
 20
2368.5631152885212
 30
0.0
 11
1068.0816368906251
 21
2368.5631152885212
 31
0.0
  0
LINE
  5
331E
  8
_0-0_
  6
CONTINUOUS
 62
     2
 10
1068.5890399520611
 20
2368.5631152885212
 30
0.0
 11
1069.889039952061
 21
2368.5631152885212
 31
0.0
  0
LINE
  5
331F
  8
_0-0_
  6
CONTINUOUS
 62
     2
 10
1072.263264145013
 20
2368.5631152885212
 30
0.0
 11
1073.563264145014
 21
2368.5631152885212
 31
0.0
  0
LINE
  5
3320
  8
_0-0_
  6
CONTINUOUS
 62
     2
 10
1074.1256465617321
 20
2368.5631152885212
 30
0.0
 11
1075.4227428054301
 21
2368.5631152885212
 31
0.0
  0
LINE
  5
3321
  8
_0-0_
  6
CONTINUOUS
 62
     2
 10
1077.1420235226381
 20
2368.5631152885212
 30
0.0
 11
1078.242023522638
 21
2368.5631152885212
 31
0.0
  0
LINE
  5
3322
  8
_0-0_
  6
CONTINUOUS
 62
     2
 10
1049.064705069032
 20
2368.763115288521
 30
0.0
 11
1050.364705069032
 21
2368.763115288521
 31
0.0
  0
LINE
  5
3323
  8
_0-0_
  6
CONTINUOUS
 62
     2
 10
1050.5401107389901
 20
2368.763115288521
 30
0.0
 11
1051.8401107389891
 21
2368.763115288521
 31
0.0
  0
LINE
  5
3324
  8
_0-0_
  6
CONTINUOUS
 62
     2
 10
1054.400300876991
 20
2368.763115288521
 30
0.0
 11
1055.7003008769909
 21
2368.763115288521
 31
0.0
  0
LINE
  5
3325
  8
_0-0_
  6
CONTINUOUS
 62
     2
 10
1058.5206539684041
 20
2368.763115288521
 30
0.0
 11
1059.8521323340899
 21
2368.763115288521
 31
0.0
  0
LINE
  5
3326
  8
_0-0_
  6
CONTINUOUS
 62
     2
 10
1060.793023895854
 20
2368.763115288521
 30
0.0
 11
1062.0930238958549
 21
2368.763115288521
 31
0.0
  0
LINE
  5
3327
  8
_0-0_
  6
CONTINUOUS
 62
     2
 10
1064.574898422256
 20
2368.763115288521
 30
0.0
 11
1065.8748984222559
 21
2368.763115288521
 31
0.0
  0
LINE
  5
3328
  8
_0-0_
  6
CONTINUOUS
 62
     2
 10
1066.8748984222559
 20
2368.763115288521
 30
0.0
 11
1068.1748984222561
 21
2368.763115288521
 31
0.0
  0
LINE
  5
3329
  8
_0-0_
  6
CONTINUOUS
 62
     2
 10
1068.49577842043
 20
2368.763115288521
 30
0.0
 11
1069.79577842043
 21
2368.763115288521
 31
0.0
  0
LINE
  5
332A
  8
_0-0_
  6
CONTINUOUS
 62
     2
 10
1072.263264145013
 20
2368.763115288521
 30
0.0
 11
1073.563264145014
 21
2368.763115288521
 31
0.0
  0
LINE
  5
332B
  8
_0-0_
  6
CONTINUOUS
 62
     2
 10
1074.00067269135
 20
2368.763115288521
 30
0.0
 11
1075.297768935048
 21
2368.763115288521
 31
0.0
  0
LINE
  5
332C
  8
_0-0_
  6
CONTINUOUS
 62
     2
 10
1077.1420235226381
 20
2368.763115288521
 30
0.0
 11
1078.242023522638
 21
2368.763115288521
 31
0.0
  0
LINE
  5
332D
  8
_0-0_
  6
CONTINUOUS
 62
     2
 10
1049.1579666006639
 20
2368.9631152885208
 30
0.0
 11
1051.746849207359
 21
2368.9631152885208
 31
0.0
  0
LINE
  5
332E
  8
_0-0_
  6
CONTINUOUS
 62
     2
 10
1054.400300876991
 20
2368.9631152885208
 30
0.0
 11
1055.7003008769909
 21
2368.9631152885208
 31
0.0
  0
LINE
  5
332F
  8
_0-0_
  6
CONTINUOUS
 62
     2
 10
1058.400300876991
 20
2368.9631152885208
 30
0.0
 11
1059.8003008769911
 21
2368.9631152885208
 31
0.0
  0
LINE
  5
3330
  8
_0-0_
  6
CONTINUOUS
 62
     2
 10
1060.6997623642239
 20
2368.9631152885208
 30
0.0
 11
1061.9997623642239
 21
2368.9631152885208
 31
0.0
  0
LINE
  5
3331
  8
_0-0_
  6
CONTINUOUS
 62
     2
 10
1064.668159953887
 20
2368.9631152885208
 30
0.0
 11
1065.9681599538869
 21
2368.9631152885208
 31
0.0
  0
LINE
  5
3332
  8
_0-0_
  6
CONTINUOUS
 62
     2
 10
1066.9681599538869
 20
2368.9631152885208
 30
0.0
 11
1068.2681599538871
 21
2368.9631152885208
 31
0.0
  0
LINE
  5
3333
  8
_0-0_
  6
CONTINUOUS
 62
     2
 10
1068.402516888799
 20
2368.9631152885208
 30
0.0
 11
1069.702516888799
 21
2368.9631152885208
 31
0.0
  0
LINE
  5
3334
  8
_0-0_
  6
CONTINUOUS
 62
     2
 10
1072.263264145013
 20
2368.9631152885208
 30
0.0
 11
1073.563264145014
 21
2368.9631152885208
 31
0.0
  0
LINE
  5
3335
  8
_0-0_
  6
CONTINUOUS
 62
     2
 10
1073.875698820968
 20
2368.9631152885208
 30
0.0
 11
1075.1727950646659
 21
2368.9631152885208
 31
0.0
  0
LINE
  5
3336
  8
_0-0_
  6
CONTINUOUS
 62
     2
 10
1077.1420235226381
 20
2368.9631152885208
 30
0.0
 11
1078.242023522638
 21
2368.9631152885208
 31
0.0
  0
LINE
  5
3337
  8
_0-0_
  6
CONTINUOUS
 62
     2
 10
1049.251228132294
 20
2369.1631152885211
 30
0.0
 11
1051.653587675728
 21
2369.1631152885211
 31
0.0
  0
LINE
  5
3338
  8
_0-0_
  6
CONTINUOUS
 62
     2
 10
1054.400300876991
 20
2369.1631152885211
 30
0.0
 11
1055.7003008769909
 21
2369.1631152885211
 31
0.0
  0
LINE
  5
3339
  8
_0-0_
  6
CONTINUOUS
 62
     2
 10
1058.1878508498919
 20
2369.1631152885211
 30
0.0
 11
1059.7374995001139
 21
2369.1631152885211
 31
0.0
  0
LINE
  5
333A
  8
_0-0_
  6
CONTINUOUS
 62
     2
 10
1060.6065008325929
 20
2369.1631152885211
 30
0.0
 11
1061.9065008325931
 21
2369.1631152885211
 31
0.0
  0
LINE
  5
333B
  8
_0-0_
  6
CONTINUOUS
 62
     2
 10
1064.761421485518
 20
2369.1631152885211
 30
0.0
 11
1066.0614214855179
 21
2369.1631152885211
 31
0.0
  0
LINE
  5
333C
  8
_0-0_
  6
CONTINUOUS
 62
     2
 10
1067.0614214855179
 20
2369.1631152885211
 30
0.0
 11
1069.609255357168
 21
2369.1631152885211
 31
0.0
  0
LINE
  5
333D
  8
_0-0_
  6
CONTINUOUS
 62
     2
 10
1072.263264145013
 20
2369.1631152885211
 30
0.0
 11
1073.563264145014
 21
2369.1631152885211
 31
0.0
  0
LINE
  5
333E
  8
_0-0_
  6
CONTINUOUS
 62
     2
 10
1073.7507249505859
 20
2369.1631152885211
 30
0.0
 11
1075.047821194285
 21
2369.1631152885211
 31
0.0
  0
LINE
  5
333F
  8
_0-0_
  6
CONTINUOUS
 62
     2
 10
1077.1420235226381
 20
2369.1631152885211
 30
0.0
 11
1078.242023522638
 21
2369.1631152885211
 31
0.0
  0
LINE
  5
3340
  8
_0-0_
  6
CONTINUOUS
 62
     2
 10
1049.3444896639251
 20
2369.3631152885209
 30
0.0
 11
1051.5603261440961
 21
2369.3631152885209
 31
0.0
  0
LINE
  5
3341
  8
_0-0_
  6
CONTINUOUS
 62
     2
 10
1054.400300876991
 20
2369.3631152885209
 30
0.0
 11
1055.7003008769909
 21
2369.3631152885209
 31
0.0
  0
LINE
  5
3342
  8
_0-0_
  6
CONTINUOUS
 62
     2
 10
1057.8799664017249
 20
2369.3631152885209
 30
0.0
 11
1059.6544378810961
 21
2369.3631152885209
 31
0.0
  0
LINE
  5
3343
  8
_0-0_
  6
CONTINUOUS
 62
     2
 10
1060.513239300961
 20
2369.3631152885209
 30
0.0
 11
1061.8132393009621
 21
2369.3631152885209
 31
0.0
  0
LINE
  5
3344
  8
_0-0_
  6
CONTINUOUS
 62
     2
 10
1064.854683017149
 20
2369.3631152885209
 30
0.0
 11
1066.154683017149
 21
2369.3631152885209
 31
0.0
  0
LINE
  5
3345
  8
_0-0_
  6
CONTINUOUS
 62
     2
 10
1067.154683017149
 20
2369.3631152885209
 30
0.0
 11
1069.515993825537
 21
2369.3631152885209
 31
0.0
  0
LINE
  5
3346
  8
_0-0_
  6
CONTINUOUS
 62
     2
 10
1072.263264145013
 20
2369.3631152885209
 30
0.0
 11
1073.563264145014
 21
2369.3631152885209
 31
0.0
  0
LINE
  5
3347
  8
_0-0_
  6
CONTINUOUS
 62
     2
 10
1073.6257510802041
 20
2369.3631152885209
 30
0.0
 11
1074.9228473239029
 21
2369.3631152885209
 31
0.0
  0
LINE
  5
3348
  8
_0-0_
  6
CONTINUOUS
 62
     2
 10
1077.1420235226381
 20
2369.3631152885209
 30
0.0
 11
1078.242023522638
 21
2369.3631152885209
 31
0.0
  0
LINE
  5
3349
  8
_0-0_
  6
CONTINUOUS
 62
     2
 10
1049.437751195557
 20
2369.5631152885212
 30
0.0
 11
1051.467064612465
 21
2369.5631152885212
 31
0.0
  0
LINE
  5
334A
  8
_0-0_
  6
CONTINUOUS
 62
     2
 10
1054.400300876991
 20
2369.5631152885212
 30
0.0
 11
1059.5313568226641
 21
2369.5631152885212
 31
0.0
  0
LINE
  5
334B
  8
_0-0_
  6
CONTINUOUS
 62
     2
 10
1060.41997776933
 20
2369.5631152885212
 30
0.0
 11
1061.7199777693311
 21
2369.5631152885212
 31
0.0
  0
LINE
  5
334C
  8
_0-0_
  6
CONTINUOUS
 62
     2
 10
1064.94794454878
 20
2369.5631152885212
 30
0.0
 11
1066.24794454878
 21
2369.5631152885212
 31
0.0
  0
LINE
  5
334D
  8
_0-0_
  6
CONTINUOUS
 62
     2
 10
1067.24794454878
 20
2369.5631152885212
 30
0.0
 11
1069.4227322939059
 21
2369.5631152885212
 31
0.0
  0
LINE
  5
334E
  8
_0-0_
  6
CONTINUOUS
 62
     2
 10
1072.263264145013
 20
2369.5631152885212
 30
0.0
 11
1074.7978734535211
 21
2369.5631152885212
 31
0.0
  0
LINE
  5
334F
  8
_0-0_
  6
CONTINUOUS
 62
     2
 10
1077.1420235226381
 20
2369.5631152885212
 30
0.0
 11
1078.242023522638
 21
2369.5631152885212
 31
0.0
  0
LINE
  5
3350
  8
_0-0_
  6
CONTINUOUS
 62
     2
 10
1049.5310127271871
 20
2369.763115288521
 30
0.0
 11
1051.3738030808349
 21
2369.763115288521
 31
0.0
  0
LINE
  5
3351
  8
_0-0_
  6
CONTINUOUS
 62
     2
 10
1054.400300876991
 20
2369.763115288521
 30
0.0
 11
1059.3421956874181
 21
2369.763115288521
 31
0.0
  0
LINE
  5
3352
  8
_0-0_
  6
CONTINUOUS
 62
     2
 10
1060.326716237699
 20
2369.763115288521
 30
0.0
 11
1061.6267162376989
 21
2369.763115288521
 31
0.0
  0
LINE
  5
3353
  8
_0-0_
  6
CONTINUOUS
 62
     2
 10
1065.041206080411
 20
2369.763115288521
 30
0.0
 11
1066.341206080411
 21
2369.763115288521
 31
0.0
  0
LINE
  5
3354
  8
_0-0_
  6
CONTINUOUS
 62
     2
 10
1067.341206080411
 20
2369.763115288521
 30
0.0
 11
1069.3294707622749
 21
2369.763115288521
 31
0.0
  0
LINE
  5
3355
  8
_0-0_
  6
CONTINUOUS
 62
     2
 10
1072.263264145013
 20
2369.763115288521
 30
0.0
 11
1074.672899583139
 21
2369.763115288521
 31
0.0
  0
LINE
  5
3356
  8
_0-0_
  6
CONTINUOUS
 62
     2
 10
1077.1420235226381
 20
2369.763115288521
 30
0.0
 11
1078.242023522638
 21
2369.763115288521
 31
0.0
  0
LINE
  5
3357
  8
_0-0_
  6
CONTINUOUS
 62
     2
 10
1049.6242742588181
 20
2369.9631152885208
 30
0.0
 11
1051.2805415492039
 21
2369.9631152885208
 31
0.0
  0
LINE
  5
3358
  8
_0-0_
  6
CONTINUOUS
 62
     2
 10
1054.400300876991
 20
2369.9631152885208
 30
0.0
 11
1059.0644298258801
 21
2369.9631152885208
 31
0.0
  0
LINE
  5
3359
  8
_0-0_
  6
CONTINUOUS
 62
     2
 10
1060.2334547060691
 20
2369.9631152885208
 30
0.0
 11
1061.5334547060691
 21
2369.9631152885208
 31
0.0
  0
LINE
  5
335A
  8
_0-0_
  6
CONTINUOUS
 62
     2
 10
1065.134467612042
 20
2369.9631152885208
 30
0.0
 11
1066.434467612042
 21
2369.9631152885208
 31
0.0
  0
LINE
  5
335B
  8
_0-0_
  6
CONTINUOUS
 62
     2
 10
1067.434467612042
 20
2369.9631152885208
 30
0.0
 11
1069.2362092306439
 21
2369.9631152885208
 31
0.0
  0
LINE
  5
335C
  8
_0-0_
  6
CONTINUOUS
 62
     2
 10
1072.263264145013
 20
2369.9631152885208
 30
0.0
 11
1074.547925712757
 21
2369.9631152885208
 31
0.0
  0
LINE
  5
335D
  8
_0-0_
  6
CONTINUOUS
 62
     2
 10
1077.1420235226381
 20
2369.9631152885208
 30
0.0
 11
1078.242023522638
 21
2369.9631152885208
 31
0.0
  0
LINE
  5
335E
  8
_0-0_
  6
CONTINUOUS
 62
     2
 10
1049.7175357904489
 20
2370.1631152885211
 30
0.0
 11
1051.1872800175729
 21
2370.1631152885211
 31
0.0
  0
LINE
  5
335F
  8
_0-0_
  6
CONTINUOUS
 62
     2
 10
1054.400300876991
 20
2370.1631152885211
 30
0.0
 11
1058.6633638777621
 21
2370.1631152885211
 31
0.0
  0
LINE
  5
3360
  8
_0-0_
  6
CONTINUOUS
 62
     2
 10
1060.1401931744369
 20
2370.1631152885211
 30
0.0
 11
1061.440193174438
 21
2370.1631152885211
 31
0.0
  0
LINE
  5
3361
  8
_0-0_
  6
CONTINUOUS
 62
     2
 10
1065.2277291436731
 20
2370.1631152885211
 30
0.0
 11
1066.527729143673
 21
2370.1631152885211
 31
0.0
  0
LINE
  5
3362
  8
_0-0_
  6
CONTINUOUS
 62
     2
 10
1067.527729143673
 20
2370.1631152885211
 30
0.0
 11
1069.1429476990129
 21
2370.1631152885211
 31
0.0
  0
LINE
  5
3363
  8
_0-0_
  6
CONTINUOUS
 62
     2
 10
1072.263264145013
 20
2370.1631152885211
 30
0.0
 11
1074.4229518423749
 21
2370.1631152885211
 31
0.0
  0
LINE
  5
3364
  8
_0-0_
  6
CONTINUOUS
 62
     2
 10
1077.1420235226381
 20
2370.1631152885211
 30
0.0
 11
1078.242023522638
 21
2370.1631152885211
 31
0.0
  0
LINE
  5
3365
  8
_0-0_
  6
CONTINUOUS
 62
     2
 10
1049.8107973220799
 20
2370.3631152885209
 30
0.0
 11
1051.0940184859419
 21
2370.3631152885209
 31
0.0
  0
LINE
  5
3366
  8
_0-0_
  6
CONTINUOUS
 62
     2
 10
1054.400300876991
 20
2370.3631152885209
 30
0.0
 11
1058.074968208128
 21
2370.3631152885209
 31
0.0
  0
LINE
  5
3367
  8
_0-0_
  6
CONTINUOUS
 62
     2
 10
1060.0469316428059
 20
2370.3631152885209
 30
0.0
 11
1061.346931642807
 21
2370.3631152885209
 31
0.0
  0
LINE
  5
3368
  8
_0-0_
  6
CONTINUOUS
 62
     2
 10
1065.3209906753041
 20
2370.3631152885209
 30
0.0
 11
1066.620990675304
 21
2370.3631152885209
 31
0.0
  0
LINE
  5
3369
  8
_0-0_
  6
CONTINUOUS
 62
     2
 10
1067.620990675304
 20
2370.3631152885209
 30
0.0
 11
1069.0496861673821
 21
2370.3631152885209
 31
0.0
  0
LINE
  5
336A
  8
_0-0_
  6
CONTINUOUS
 62
     2
 10
1072.263264145013
 20
2370.3631152885209
 30
0.0
 11
1074.2979779719931
 21
2370.3631152885209
 31
0.0
  0
LINE
  5
336B
  8
_0-0_
  6
CONTINUOUS
 62
     2
 10
1077.1420235226381
 20
2370.3631152885209
 30
0.0
 11
1078.242023522638
 21
2370.3631152885209
 31
0.0
  0
LINE
  5
336C
  8
_0-0_
  6
CONTINUOUS
 62
     7
 10
1036.3665380973109
 20
2364.8320500066461
 30
0.0
 11
1040.5703878995089
 21
2364.8320500066461
 31
0.0
  0
LINE
  5
336D
  8
_0-0_
  6
CONTINUOUS
 62
     7
 10
1036.3665380973109
 20
2364.9320500066451
 30
0.0
 11
1040.5703878995089
 21
2364.9320500066451
 31
0.0
  0
LINE
  5
336E
  8
_0-0_
  6
CONTINUOUS
 62
     7
 10
1036.3665380973109
 20
2365.0320500066459
 30
0.0
 11
1040.5703878995089
 21
2365.0320500066459
 31
0.0
  0
LINE
  5
336F
  8
_0-0_
  6
CONTINUOUS
 62
     7
 10
1036.3665380973109
 20
2365.1320500066449
 30
0.0
 11
1040.5703878995089
 21
2365.1320500066449
 31
0.0
  0
LINE
  5
3370
  8
_0-0_
  6
CONTINUOUS
 62
     7
 10
1036.3665380973109
 20
2365.2320500066448
 30
0.0
 11
1040.5703878995089
 21
2365.2320500066448
 31
0.0
  0
LINE
  5
3371
  8
_0-0_
  6
CONTINUOUS
 62
     7
 10
1036.3665380973109
 20
2365.3320500066461
 30
0.0
 11
1040.5703878995089
 21
2365.3320500066461
 31
0.0
  0
LINE
  5
3372
  8
_0-0_
  6
CONTINUOUS
 62
     7
 10
1036.3665380973109
 20
2365.432050006646
 30
0.0
 11
1040.5703878995089
 21
2365.432050006646
 31
0.0
  0
LINE
  5
3373
  8
_0-0_
  6
CONTINUOUS
 62
     7
 10
1036.3665380973109
 20
2365.532050006645
 30
0.0
 11
1040.5703878995089
 21
2365.532050006645
 31
0.0
  0
LINE
  5
3374
  8
_0-0_
  6
CONTINUOUS
 62
     7
 10
1036.3665380973109
 20
2365.6320500066449
 30
0.0
 11
1040.5703878995089
 21
2365.6320500066449
 31
0.0
  0
LINE
  5
3375
  8
_0-0_
  6
CONTINUOUS
 62
     7
 10
1036.3665380973109
 20
2365.7320500066448
 30
0.0
 11
1040.5703878995089
 21
2365.7320500066448
 31
0.0
  0
LINE
  5
3376
  8
_0-0_
  6
CONTINUOUS
 62
     7
 10
1036.3665380973109
 20
2365.8320500066461
 30
0.0
 11
1040.5703878995089
 21
2365.8320500066461
 31
0.0
  0
LINE
  5
3377
  8
_0-0_
  6
CONTINUOUS
 62
     7
 10
1036.3665380973109
 20
2365.9320500066451
 30
0.0
 11
1040.5703878995089
 21
2365.9320500066451
 31
0.0
  0
LINE
  5
3378
  8
_0-0_
  6
CONTINUOUS
 62
     7
 10
1036.3665380973109
 20
2366.0320500066459
 30
0.0
 11
1040.5703878995089
 21
2366.0320500066459
 31
0.0
  0
LINE
  5
3379
  8
_0-0_
  6
CONTINUOUS
 62
     7
 10
1036.3665380973109
 20
2366.1320500066458
 30
0.0
 11
1040.5703878995089
 21
2366.1320500066458
 31
0.0
  0
LINE
  5
337A
  8
_0-0_
  6
CONTINUOUS
 62
     7
 10
1036.3665380973109
 20
2366.2320500066462
 30
0.0
 11
1040.5703878995089
 21
2366.2320500066462
 31
0.0
  0
LINE
  5
337B
  8
_0-0_
  6
CONTINUOUS
 62
     7
 10
1036.3665380973109
 20
2366.3320500066461
 30
0.0
 11
1040.5703878995089
 21
2366.3320500066461
 31
0.0
  0
LINE
  5
337C
  8
_0-0_
  6
CONTINUOUS
 62
     7
 10
1036.3665380973109
 20
2366.4320500066451
 30
0.0
 11
1040.5703878995089
 21
2366.4320500066451
 31
0.0
  0
LINE
  5
337D
  8
_0-0_
  6
CONTINUOUS
 62
     7
 10
1036.3665380973109
 20
2366.532050006645
 30
0.0
 11
1040.5703878995089
 21
2366.532050006645
 31
0.0
  0
LINE
  5
337E
  8
_0-0_
  6
CONTINUOUS
 62
     7
 10
1036.3665380973109
 20
2366.6320500066458
 30
0.0
 11
1040.5703878995089
 21
2366.6320500066458
 31
0.0
  0
LINE
  5
337F
  8
_0-0_
  6
CONTINUOUS
 62
     7
 10
1036.3665380973109
 20
2366.7320500066448
 30
0.0
 11
1040.5703878995089
 21
2366.7320500066448
 31
0.0
  0
LINE
  5
3380
  8
_0-0_
  6
CONTINUOUS
 62
     7
 10
1036.3665380973109
 20
2366.8320500066461
 30
0.0
 11
1040.5703878995089
 21
2366.8320500066461
 31
0.0
  0
LINE
  5
3381
  8
_0-0_
  6
CONTINUOUS
 62
     7
 10
1036.3665380973109
 20
2366.9320500066451
 30
0.0
 11
1040.5703878995089
 21
2366.9320500066451
 31
0.0
  0
LINE
  5
3382
  8
_0-0_
  6
CONTINUOUS
 62
     7
 10
1036.3665380973109
 20
2367.032050006645
 30
0.0
 11
1040.5703878995089
 21
2367.032050006645
 31
0.0
  0
LINE
  5
3383
  8
_0-0_
  6
CONTINUOUS
 62
     7
 10
1036.3665380973109
 20
2367.1320500066449
 30
0.0
 11
1040.5703878995089
 21
2367.1320500066449
 31
0.0
  0
LINE
  5
3384
  8
_0-0_
  6
CONTINUOUS
 62
     7
 10
1036.3665380973109
 20
2367.2320500066448
 30
0.0
 11
1040.5703878995089
 21
2367.2320500066448
 31
0.0
  0
LINE
  5
3385
  8
_0-0_
  6
CONTINUOUS
 62
     7
 10
1036.3665380973109
 20
2367.3320500066452
 30
0.0
 11
1040.5703878995089
 21
2367.3320500066452
 31
0.0
  0
LINE
  5
3386
  8
_0-0_
  6
CONTINUOUS
 62
     7
 10
1036.3665380973109
 20
2367.4320500066451
 30
0.0
 11
1040.5703878995089
 21
2367.4320500066451
 31
0.0
  0
LINE
  5
3387
  8
_0-0_
  6
CONTINUOUS
 62
     7
 10
1036.3665380973109
 20
2367.5320500066459
 30
0.0
 11
1040.5703878995089
 21
2367.5320500066459
 31
0.0
  0
LINE
  5
3388
  8
_0-0_
  6
CONTINUOUS
 62
     7
 10
1036.3665380973109
 20
2367.6320500066449
 30
0.0
 11
1040.5703878995089
 21
2367.6320500066449
 31
0.0
  0
LINE
  5
3389
  8
_0-0_
  6
CONTINUOUS
 62
     7
 10
1036.3665380973109
 20
2367.7320500066462
 30
0.0
 11
1040.5703878995089
 21
2367.7320500066462
 31
0.0
  0
LINE
  5
338A
  8
_0-0_
  6
CONTINUOUS
 62
     7
 10
1036.3665380973109
 20
2367.8320500066461
 30
0.0
 11
1040.5703878995089
 21
2367.8320500066461
 31
0.0
  0
LINE
  5
338B
  8
_0-0_
  6
CONTINUOUS
 62
     7
 10
1036.3665380973109
 20
2367.9320500066451
 30
0.0
 11
1040.5703878995089
 21
2367.9320500066451
 31
0.0
  0
LINE
  5
338C
  8
_0-0_
  6
CONTINUOUS
 62
     7
 10
1036.3665380973109
 20
2368.032050006645
 30
0.0
 11
1040.5703878995089
 21
2368.032050006645
 31
0.0
  0
LINE
  5
338D
  8
_0-0_
  6
CONTINUOUS
 62
     7
 10
1036.3665380973109
 20
2368.1320500066458
 30
0.0
 11
1040.5703878995089
 21
2368.1320500066458
 31
0.0
  0
LINE
  5
338E
  8
_0-0_
  6
CONTINUOUS
 62
     7
 10
1036.3665380973109
 20
2368.2320500066448
 30
0.0
 11
1040.5703878995089
 21
2368.2320500066448
 31
0.0
  0
LINE
  5
338F
  8
_0-0_
  6
CONTINUOUS
 62
     7
 10
1036.3665380973109
 20
2368.3320500066461
 30
0.0
 11
1040.5703878995089
 21
2368.3320500066461
 31
0.0
  0
LINE
  5
3390
  8
_0-0_
  6
CONTINUOUS
 62
     7
 10
1036.3665380973109
 20
2368.4320500066451
 30
0.0
 11
1040.5703878995089
 21
2368.4320500066451
 31
0.0
  0
LINE
  5
3391
  8
_0-0_
  6
CONTINUOUS
 62
     7
 10
1036.3665380973109
 20
2368.5320500066459
 30
0.0
 11
1040.5703878995089
 21
2368.5320500066459
 31
0.0
  0
LINE
  5
3392
  8
_0-0_
  6
CONTINUOUS
 62
     7
 10
1036.3665380973109
 20
2368.6320500066449
 30
0.0
 11
1040.5703878995089
 21
2368.6320500066449
 31
0.0
  0
LINE
  5
3393
  8
_0-0_
  6
CONTINUOUS
 62
     7
 10
1036.3665380973109
 20
2368.7320500066448
 30
0.0
 11
1040.5703878995089
 21
2368.7320500066448
 31
0.0
  0
LINE
  5
3394
  8
_0-0_
  6
CONTINUOUS
 62
     7
 10
1036.3665380973109
 20
2368.8320500066452
 30
0.0
 11
1040.5703878995089
 21
2368.8320500066452
 31
0.0
  0
LINE
  5
3395
  8
_0-0_
  6
CONTINUOUS
 62
     7
 10
1036.3665380973109
 20
2368.9320500066451
 30
0.0
 11
1040.5703878995089
 21
2368.9320500066451
 31
0.0
  0
LINE
  5
3396
  8
_0-0_
  6
CONTINUOUS
 62
     7
 10
1045.847700641227
 20
2373.6320500066458
 30
0.0
 11
1047.311258403048
 21
2373.6320500066458
 31
0.0
  0
LINE
  5
3397
  8
_0-0_
  6
CONTINUOUS
 62
     7
 10
1045.5754022169419
 20
2373.8320500066461
 30
0.0
 11
1047.583556827333
 21
2373.8320500066461
 31
0.0
  0
LINE
  5
3398
  8
_0-0_
  6
CONTINUOUS
 62
     7
 10
1045.395907750308
 20
2374.0320500066459
 30
0.0
 11
1047.763051293967
 21
2374.0320500066459
 31
0.0
  0
LINE
  5
3399
  8
_0-0_
  6
CONTINUOUS
 62
     7
 10
1045.270467282571
 20
2374.2320500066448
 30
0.0
 11
1047.8884917617031
 21
2374.2320500066448
 31
0.0
  0
LINE
  5
339A
  8
_0-0_
  6
CONTINUOUS
 62
     7
 10
1045.184422552835
 20
2374.432050006646
 30
0.0
 11
1047.9745364914399
 21
2374.432050006646
 31
0.0
  0
LINE
  5
339B
  8
_0-0_
  6
CONTINUOUS
 62
     7
 10
1045.130737015045
 20
2374.6320500066458
 30
0.0
 11
1048.0282220292299
 21
2374.6320500066458
 31
0.0
  0
LINE
  5
339C
  8
_0-0_
  6
CONTINUOUS
 62
     7
 10
1045.1058697514979
 20
2374.8320500066452
 30
0.0
 11
1048.053089292777
 21
2374.8320500066452
 31
0.0
  0
LINE
  5
339D
  8
_0-0_
  6
CONTINUOUS
 62
     7
 10
1045.1083586364221
 20
2375.032050006645
 30
0.0
 11
1048.0506004078529
 21
2375.032050006645
 31
0.0
  0
LINE
  5
339E
  8
_0-0_
  6
CONTINUOUS
 62
     7
 10
1045.1383453976889
 20
2375.2320500066448
 30
0.0
 11
1048.0206136465861
 21
2375.2320500066448
 31
0.0
  0
LINE
  5
339F
  8
_0-0_
  6
CONTINUOUS
 62
     7
 10
1045.1976190122041
 20
2375.4320500066451
 30
0.0
 11
1047.9613400320709
 21
2375.4320500066451
 31
0.0
  0
LINE
  5
33A0
  8
_0-0_
  6
CONTINUOUS
 62
     7
 10
1045.2902125314911
 20
2375.6320500066449
 30
0.0
 11
1047.8687465127839
 21
2375.6320500066449
 31
0.0
  0
LINE
  5
33A1
  8
_0-0_
  6
CONTINUOUS
 62
     7
 10
1045.4241093314911
 20
2375.8320500066461
 30
0.0
 11
1047.7348497127839
 21
2375.8320500066461
 31
0.0
  0
LINE
  5
33A2
  8
_0-0_
  6
CONTINUOUS
 62
     7
 10
1045.6163849360771
 20
2376.0320500066459
 30
0.0
 11
1047.5425741081981
 21
2376.0320500066459
 31
0.0
  0
LINE
  5
33A3
  8
_0-0_
  6
CONTINUOUS
 62
     7
 10
1045.9159871815921
 20
2376.2320500066448
 30
0.0
 11
1047.2429718626829
 21
2376.2320500066448
 31
0.0
  0
LINE
  5
33A4
  8
_0-0_
  6
CONTINUOUS
 62
     7
 10
1047.9776916103131
 20
2374.4412869139128
 30
0.0
 11
1047.9776916103131
 21
2375.386167620692
 31
0.0
  0
LINE
  5
33A5
  8
_0-0_
  6
CONTINUOUS
 62
     7
 10
1047.777691610313
 20
2374.0520517351079
 30
0.0
 11
1047.777691610313
 21
2375.775402799497
 31
0.0
  0
LINE
  5
33A6
  8
_0-0_
  6
CONTINUOUS
 62
     7
 10
1047.577691610313
 20
2373.826635018203
 30
0.0
 11
1047.577691610313
 21
2376.0008195164019
 31
0.0
  0
LINE
  5
33A7
  8
_0-0_
  6
CONTINUOUS
 62
     7
 10
1047.3776916103129
 20
2373.6723351482192
 30
0.0
 11
1047.3776916103129
 21
2376.1551193863861
 31
0.0
  0
LINE
  5
33A8
  8
_0-0_
  6
CONTINUOUS
 62
     7
 10
1047.1776916103131
 20
2373.5645277903559
 30
0.0
 11
1047.1776916103131
 21
2376.2629267442489
 31
0.0
  0
LINE
  5
33A9
  8
_0-0_
  6
CONTINUOUS
 62
     7
 10
1046.9776916103131
 20
2373.4925924869722
 30
0.0
 11
1046.9776916103131
 21
2376.3348620476331
 31
0.0
  0
LINE
  5
33AA
  8
_0-0_
  6
CONTINUOUS
 62
     7
 10
1046.777691610313
 20
2373.451226361617
 30
0.0
 11
1046.777691610313
 21
2376.3762281729878
 31
0.0
  0
LINE
  5
33AB
  8
_0-0_
  6
CONTINUOUS
 62
     7
 10
1046.577691610313
 20
2373.4378567667491
 30
0.0
 11
1046.577691610313
 21
2376.3895977678558
 31
0.0
  0
LINE
  5
33AC
  8
_0-0_
  6
CONTINUOUS
 62
     7
 10
1040.4776916103131
 20
2364.8114870791578
 30
0.0
 11
1040.4776916103131
 21
2369.0212562899001
 31
0.0
  0
LINE
  5
33AD
  8
_0-0_
  6
CONTINUOUS
 62
     7
 10
1040.3776916103129
 20
2364.8114870791578
 30
0.0
 11
1040.3776916103129
 21
2369.0212562899001
 31
0.0
  0
LINE
  5
33AE
  8
_0-0_
  6
CONTINUOUS
 62
     7
 10
1040.277691610313
 20
2364.8114870791578
 30
0.0
 11
1040.277691610313
 21
2369.0212562899001
 31
0.0
  0
LINE
  5
33AF
  8
_0-0_
  6
CONTINUOUS
 62
     7
 10
1040.1776916103131
 20
2364.8114870791578
 30
0.0
 11
1040.1776916103131
 21
2369.0212562899001
 31
0.0
  0
LINE
  5
33B0
  8
_0-0_
  6
CONTINUOUS
 62
     7
 10
1040.077691610313
 20
2364.8114870791578
 30
0.0
 11
1040.077691610313
 21
2369.0212562899001
 31
0.0
  0
LINE
  5
33B1
  8
_0-0_
  6
CONTINUOUS
 62
     7
 10
1039.9776916103131
 20
2364.8114870791578
 30
0.0
 11
1039.9776916103131
 21
2369.0212562899001
 31
0.0
  0
LINE
  5
33B2
  8
_0-0_
  6
CONTINUOUS
 62
     7
 10
1039.8776916103129
 20
2364.8114870791578
 30
0.0
 11
1039.8776916103129
 21
2369.0212562899001
 31
0.0
  0
LINE
  5
33B3
  8
_0-0_
  6
CONTINUOUS
 62
     7
 10
1039.777691610313
 20
2364.8114870791578
 30
0.0
 11
1039.777691610313
 21
2369.0212562899001
 31
0.0
  0
LINE
  5
33B4
  8
_0-0_
  6
CONTINUOUS
 62
     7
 10
1039.6776916103131
 20
2364.8114870791578
 30
0.0
 11
1039.6776916103131
 21
2369.0212562899001
 31
0.0
  0
LINE
  5
33B5
  8
_0-0_
  6
CONTINUOUS
 62
     7
 10
1039.577691610313
 20
2364.8114870791578
 30
0.0
 11
1039.577691610313
 21
2369.0212562899001
 31
0.0
  0
LINE
  5
33B6
  8
_0-0_
  6
CONTINUOUS
 62
     7
 10
1039.4776916103131
 20
2364.8114870791578
 30
0.0
 11
1039.4776916103131
 21
2369.0212562899001
 31
0.0
  0
LINE
  5
33B7
  8
_0-0_
  6
CONTINUOUS
 62
     7
 10
1039.3776916103129
 20
2364.8114870791578
 30
0.0
 11
1039.3776916103129
 21
2369.0212562899001
 31
0.0
  0
LINE
  5
33B8
  8
_0-0_
  6
CONTINUOUS
 62
     7
 10
1039.277691610313
 20
2364.8114870791578
 30
0.0
 11
1039.277691610313
 21
2369.0212562899001
 31
0.0
  0
LINE
  5
33B9
  8
_0-0_
  6
CONTINUOUS
 62
     7
 10
1039.1776916103131
 20
2364.8114870791578
 30
0.0
 11
1039.1776916103131
 21
2369.0212562899001
 31
0.0
  0
LINE
  5
33BA
  8
_0-0_
  6
CONTINUOUS
 62
     7
 10
1039.077691610313
 20
2364.8114870791578
 30
0.0
 11
1039.077691610313
 21
2369.0212562899001
 31
0.0
  0
LINE
  5
33BB
  8
_0-0_
  6
CONTINUOUS
 62
     7
 10
1038.9776916103131
 20
2364.8114870791578
 30
0.0
 11
1038.9776916103131
 21
2369.0212562899001
 31
0.0
  0
LINE
  5
33BC
  8
_0-0_
  6
CONTINUOUS
 62
     7
 10
1038.8776916103129
 20
2364.8114870791578
 30
0.0
 11
1038.8776916103129
 21
2369.0212562899001
 31
0.0
  0
LINE
  5
33BD
  8
_0-0_
  6
CONTINUOUS
 62
     7
 10
1038.777691610313
 20
2364.8114870791578
 30
0.0
 11
1038.777691610313
 21
2369.0212562899001
 31
0.0
  0
LINE
  5
33BE
  8
_0-0_
  6
CONTINUOUS
 62
     7
 10
1038.6776916103131
 20
2364.8114870791578
 30
0.0
 11
1038.6776916103131
 21
2369.0212562899001
 31
0.0
  0
LINE
  5
33BF
  8
_0-0_
  6
CONTINUOUS
 62
     7
 10
1038.577691610313
 20
2364.8114870791578
 30
0.0
 11
1038.577691610313
 21
2369.0212562899001
 31
0.0
  0
LINE
  5
33C0
  8
_0-0_
  6
CONTINUOUS
 62
     7
 10
1038.4776916103131
 20
2364.8114870791578
 30
0.0
 11
1038.4776916103131
 21
2369.0212562899001
 31
0.0
  0
LINE
  5
33C1
  8
_0-0_
  6
CONTINUOUS
 62
     7
 10
1038.3776916103129
 20
2364.8114870791578
 30
0.0
 11
1038.3776916103129
 21
2369.0212562899001
 31
0.0
  0
LINE
  5
33C2
  8
_0-0_
  6
CONTINUOUS
 62
     7
 10
1038.277691610313
 20
2364.8114870791578
 30
0.0
 11
1038.277691610313
 21
2369.0212562899001
 31
0.0
  0
LINE
  5
33C3
  8
_0-0_
  6
CONTINUOUS
 62
     7
 10
1038.1776916103131
 20
2364.8114870791578
 30
0.0
 11
1038.1776916103131
 21
2369.0212562899001
 31
0.0
  0
LINE
  5
33C4
  8
_0-0_
  6
CONTINUOUS
 62
     7
 10
1038.077691610313
 20
2364.8114870791578
 30
0.0
 11
1038.077691610313
 21
2369.0212562899001
 31
0.0
  0
LINE
  5
33C5
  8
_0-0_
  6
CONTINUOUS
 62
     7
 10
1037.9776916103131
 20
2364.8114870791578
 30
0.0
 11
1037.9776916103131
 21
2369.0212562899001
 31
0.0
  0
LINE
  5
33C6
  8
_0-0_
  6
CONTINUOUS
 62
     7
 10
1037.8776916103129
 20
2364.8114870791578
 30
0.0
 11
1037.8776916103129
 21
2369.0212562899001
 31
0.0
  0
LINE
  5
33C7
  8
_0-0_
  6
CONTINUOUS
 62
     7
 10
1037.777691610313
 20
2364.8114870791578
 30
0.0
 11
1037.777691610313
 21
2369.0212562899001
 31
0.0
  0
LINE
  5
33C8
  8
_0-0_
  6
CONTINUOUS
 62
     7
 10
1037.6776916103131
 20
2364.8114870791578
 30
0.0
 11
1037.6776916103131
 21
2369.0212562899001
 31
0.0
  0
LINE
  5
33C9
  8
_0-0_
  6
CONTINUOUS
 62
     7
 10
1037.577691610313
 20
2364.8114870791578
 30
0.0
 11
1037.577691610313
 21
2369.0212562899001
 31
0.0
  0
LINE
  5
33CA
  8
_0-0_
  6
CONTINUOUS
 62
     7
 10
1037.4776916103131
 20
2364.8114870791578
 30
0.0
 11
1037.4776916103131
 21
2369.0212562899001
 31
0.0
  0
LINE
  5
33CB
  8
_0-0_
  6
CONTINUOUS
 62
     7
 10
1037.3776916103129
 20
2364.8114870791578
 30
0.0
 11
1037.3776916103129
 21
2369.0212562899001
 31
0.0
  0
LINE
  5
33CC
  8
_0-0_
  6
CONTINUOUS
 62
     7
 10
1037.277691610313
 20
2364.8114870791578
 30
0.0
 11
1037.277691610313
 21
2369.0212562899001
 31
0.0
  0
LINE
  5
33CD
  8
_0-0_
  6
CONTINUOUS
 62
     7
 10
1037.1776916103131
 20
2364.8114870791578
 30
0.0
 11
1037.1776916103131
 21
2369.0212562899001
 31
0.0
  0
LINE
  5
33CE
  8
_0-0_
  6
CONTINUOUS
 62
     7
 10
1037.077691610313
 20
2364.8114870791578
 30
0.0
 11
1037.077691610313
 21
2369.0212562899001
 31
0.0
  0
LINE
  5
33CF
  8
_0-0_
  6
CONTINUOUS
 62
     7
 10
1036.9776916103131
 20
2364.8114870791578
 30
0.0
 11
1036.9776916103131
 21
2369.0212562899001
 31
0.0
  0
LINE
  5
33D0
  8
_0-0_
  6
CONTINUOUS
 62
     7
 10
1036.8776916103129
 20
2364.8114870791578
 30
0.0
 11
1036.8776916103129
 21
2369.0212562899001
 31
0.0
  0
LINE
  5
33D1
  8
_0-0_
  6
CONTINUOUS
 62
     7
 10
1036.777691610313
 20
2364.8114870791578
 30
0.0
 11
1036.777691610313
 21
2369.0212562899001
 31
0.0
  0
LINE
  5
33D2
  8
_0-0_
  6
CONTINUOUS
 62
     7
 10
1036.6776916103131
 20
2364.8114870791578
 30
0.0
 11
1036.6776916103131
 21
2369.0212562899001
 31
0.0
  0
LINE
  5
33D3
  8
_0-0_
  6
CONTINUOUS
 62
     7
 10
1036.577691610313
 20
2364.8114870791578
 30
0.0
 11
1036.577691610313
 21
2369.0212562899001
 31
0.0
  0
LINE
  5
33D4
  8
_0-0_
  6
CONTINUOUS
 62
     7
 10
1036.4776916103131
 20
2364.8114870791578
 30
0.0
 11
1036.4776916103131
 21
2369.0212562899001
 31
0.0
  0
LINE
  5
33D5
  8
_0-0_
  6
CONTINUOUS
 62
     7
 10
1036.3776916103129
 20
2364.8114870791578
 30
0.0
 11
1036.3776916103129
 21
2369.0212562899001
 31
0.0
  0
LINE
  5
33D6
  8
_0-0_
  6
CONTINUOUS
 62
     4
 10
1038.6774391577969
 20
2372.0983896728412
 30
0.0
 11
1032.9872807676561
 21
2364.6895711975139
 31
0.0
  0
LINE
  5
33D7
  8
_0-0_
  6
CONTINUOUS
 62
     4
 10
1032.9872807676561
 20
2364.6895711975139
 30
0.0
 11
1032.4298774967849
 21
2364.4573198346511
 31
0.0
  0
LINE
  5
33D8
  8
_0-0_
  6
CONTINUOUS
 62
     4
 10
1032.4298774967849
 20
2364.4573198346511
 30
0.0
 11
1031.9189244984859
 21
2364.2715187443609
 31
0.0
  0
LINE
  5
33D9
  8
_0-0_
  6
CONTINUOUS
 62
     4
 10
1031.9189244984859
 20
2364.2715187443609
 30
0.0
 11
1031.6402228630509
 21
2364.5269952435101
 31
0.0
  0
LINE
  5
33DA
  8
_0-0_
  6
CONTINUOUS
 62
     4
 10
1031.6402228630509
 20
2364.5269952435101
 30
0.0
 11
1031.4079715001881
 21
2364.8521471515178
 31
0.0
  0
LINE
  5
33DB
  8
_0-0_
  6
CONTINUOUS
 62
     4
 10
1031.4079715001881
 20
2364.8521471515178
 30
0.0
 11
1031.222170409897
 21
2365.4792258312482
 31
0.0
  0
LINE
  5
33DC
  8
_0-0_
  6
CONTINUOUS
 62
     4
 10
1031.222170409897
 20
2365.4792258312482
 30
0.0
 11
1031.4079715001881
 21
2366.059854238405
 31
0.0
  0
LINE
  5
33DD
  8
_0-0_
  6
CONTINUOUS
 62
     4
 10
1031.4079715001881
 20
2366.059854238405
 30
0.0
 11
1032.1047255887761
 21
2367.0585350987162
 31
0.0
  0
LINE
  5
33DE
  8
_0-0_
  6
CONTINUOUS
 62
     4
 10
1032.1047255887761
 20
2367.0585350987162
 30
0.0
 11
1037.353606389479
 21
2374.1654268023208
 31
0.0
  0
LINE
  5
33DF
  8
_0-0_
  6
CONTINUOUS
 62
     4
 10
1037.353606389479
 20
2374.1654268023208
 30
0.0
 11
1037.353606389479
 21
2374.67637980062
 31
0.0
  0
LINE
  5
33E0
  8
_0-0_
  6
CONTINUOUS
 62
     4
 10
1037.353606389479
 20
2374.67637980062
 30
0.0
 11
1037.492957207196
 21
2375.0015317086281
 31
0.0
  0
LINE
  5
33E1
  8
_0-0_
  6
CONTINUOUS
 62
     4
 10
1037.492957207196
 20
2375.0015317086281
 30
0.0
 11
1037.864559387777
 21
2375.4195841617811
 31
0.0
  0
LINE
  5
33E2
  8
_0-0_
  6
CONTINUOUS
 62
     4
 10
1037.864559387777
 20
2375.4195841617811
 30
0.0
 11
1037.9806850692089
 21
2375.5357098432119
 31
0.0
  0
LINE
  5
33E3
  8
_0-0_
  6
CONTINUOUS
 62
     4
 10
1037.9806850692089
 20
2375.5357098432119
 30
0.0
 11
1038.1897112957849
 21
2375.8376366149341
 31
0.0
  0
LINE
  5
33E4
  8
_0-0_
  6
CONTINUOUS
 62
     4
 10
1038.1897112957849
 20
2375.8376366149341
 30
0.0
 11
1038.5380883400801
 21
2375.8840868875068
 31
0.0
  0
LINE
  5
33E5
  8
_0-0_
  6
CONTINUOUS
 62
     4
 10
1038.5380883400801
 20
2375.8840868875068
 30
0.0
 11
1039.141941883523
 21
2376.0002125689389
 31
0.0
  0
LINE
  5
33E6
  8
_0-0_
  6
CONTINUOUS
 62
     4
 10
1039.141941883523
 20
2376.0002125689389
 30
0.0
 11
1039.3741932463861
 21
2375.9769874326521
 31
0.0
  0
LINE
  5
33E7
  8
_0-0_
  6
CONTINUOUS
 62
     4
 10
1039.3741932463861
 20
2375.9769874326521
 30
0.0
 11
1039.8619211083981
 21
2375.8144114786478
 31
0.0
  0
LINE
  5
33E8
  8
_0-0_
  6
CONTINUOUS
 62
     4
 10
1039.8619211083981
 20
2375.8144114786478
 30
0.0
 11
1040.0477221986889
 21
2375.582160115785
 31
0.0
  0
LINE
  5
33E9
  8
_0-0_
  6
CONTINUOUS
 62
     4
 10
1040.0477221986889
 20
2375.582160115785
 30
0.0
 11
1040.558675196987
 21
2374.9086311634828
 31
0.0
  0
LINE
  5
33EA
  8
_0-0_
  6
CONTINUOUS
 62
     4
 10
1040.558675196987
 20
2374.9086311634828
 30
0.0
 11
1042.137984464455
 21
2372.2841907631318
 31
0.0
  0
LINE
  5
33EB
  8
_0-0_
  6
CONTINUOUS
 62
     4
 10
1043.256847265241
 20
2370.3940480530241
 30
0.0
 11
1045.50471894627
 21
2366.513693687672
 31
0.0
  0
LINE
  5
33EC
  8
_0-0_
  6
CONTINUOUS
 62
     4
 10
1045.50471894627
 20
2366.513693687672
 30
0.0
 11
1045.7202731786781
 21
2365.9594113757648
 31
0.0
  0
LINE
  5
33ED
  8
_0-0_
  6
CONTINUOUS
 62
     4
 10
1045.7202731786781
 20
2365.9594113757648
 30
0.0
 11
1045.6278927933599
 21
2365.682270219811
 31
0.0
  0
LINE
  5
33EE
  8
_0-0_
  6
CONTINUOUS
 62
     4
 10
1045.6278927933599
 20
2365.682270219811
 30
0.0
 11
1045.350751637407
 21
2365.2973519476532
 31
0.0
  0
LINE
  5
33EF
  8
_0-0_
  6
CONTINUOUS
 62
     4
 10
1045.350751637407
 20
2365.2973519476532
 30
0.0
 11
1044.272980475364
 21
2364.9740205990402
 31
0.0
  0
LINE
  5
33F0
  8
_0-0_
  6
CONTINUOUS
 62
     4
 10
1044.272980475364
 20
2364.9740205990402
 30
0.0
 11
1043.6263177781391
 21
2364.7430696357451
 31
0.0
  0
LINE
  5
33F1
  8
_0-0_
  6
CONTINUOUS
 62
     4
 10
1043.6263177781391
 20
2364.7430696357451
 30
0.0
 11
1043.0566387353449
 21
2364.9740205990402
 31
0.0
  0
LINE
  5
33F2
  8
_0-0_
  6
CONTINUOUS
 62
     4
 10
1043.0566387353449
 20
2364.9740205990402
 30
0.0
 11
1042.179025074824
 21
2365.9132211831061
 31
0.0
  0
LINE
  5
33F3
  8
_0-0_
  6
CONTINUOUS
 62
     4
 10
1042.179025074824
 20
2365.9132211831061
 30
0.0
 11
1042.1482316130521
 21
2366.421313302355
 31
0.0
  0
LINE
  5
33F4
  8
_0-0_
  6
CONTINUOUS
 62
     4
 10
1042.1482316130521
 20
2366.421313302355
 30
0.0
 11
1038.6774391577969
 21
2372.0983896728412
 31
0.0
  0
LINE
  5
33F5
  8
_0-0_
  6
CONTINUOUS
 62
     4
 10
1045.2426986732
 20
2365.2649360583919
 30
0.0
 11
1045.5452469729789
 21
2365.567484358171
 31
0.0
  0
LINE
  5
33F6
  8
_0-0_
  6
CONTINUOUS
 62
     4
 10
1044.838637655381
 20
2365.1437177530452
 30
0.0
 11
1045.7018094465161
 21
2366.0068895441809
 31
0.0
  0
LINE
  5
33F7
  8
_0-0_
  6
CONTINUOUS
 62
     4
 10
1044.4345766375591
 20
2365.022499447698
 30
0.0
 11
1045.622613487023
 21
2366.2105362971629
 31
0.0
  0
LINE
  5
33F8
  8
_0-0_
  6
CONTINUOUS
 62
     4
 10
1044.0089631881269
 20
2364.8797287107409
 30
0.0
 11
1045.54341752753
 21
2366.4141830501449
 31
0.0
  0
LINE
  5
33F9
  8
_0-0_
  6
CONTINUOUS
 62
     4
 10
1043.600093048007
 20
2364.7537012830958
 30
0.0
 11
1045.451666475273
 21
2366.6052747103631
 31
0.0
  0
LINE
  5
33FA
  8
_0-0_
  6
CONTINUOUS
 62
     4
 10
1043.3988395795161
 20
2364.835290527079
 30
0.0
 11
1045.3479179975341
 21
2366.784368945097
 31
0.0
  0
LINE
  5
33FB
  8
_0-0_
  6
CONTINUOUS
 62
     4
 10
1043.1975861110241
 20
2364.9168797710622
 30
0.0
 11
1045.244169519794
 21
2366.9634631798322
 31
0.0
  0
LINE
  5
33FC
  8
_0-0_
  6
CONTINUOUS
 62
     4
 10
1043.0156979980341
 20
2365.017834370547
 30
0.0
 11
1045.140421042054
 21
2367.1425574145669
 31
0.0
  0
LINE
  5
33FD
  8
_0-0_
  6
CONTINUOUS
 62
     4
 10
1042.8790705860761
 20
2365.1640496710652
 30
0.0
 11
1045.0366725643139
 21
2367.3216516493021
 31
0.0
  0
LINE
  5
33FE
  8
_0-0_
  6
CONTINUOUS
 62
     4
 10
1042.7424431741181
 20
2365.3102649715811
 30
0.0
 11
1044.9329240865741
 21
2367.5007458840369
 31
0.0
  0
LINE
  5
33FF
  8
_0-0_
  6
CONTINUOUS
 62
     4
 10
1042.605815762161
 20
2365.456480272097
 30
0.0
 11
1044.8291756088349
 21
2367.6798401187712
 31
0.0
  0
LINE
  5
3400
  8
_0-0_
  6
CONTINUOUS
 62
     4
 10
1042.4691883502021
 20
2365.6026955726138
 30
0.0
 11
1044.7254271310951
 21
2367.8589343535059
 31
0.0
  0
LINE
  5
3401
  8
_0-0_
  6
CONTINUOUS
 62
     4
 10
1042.3325609382439
 20
2365.7489108731311
 30
0.0
 11
1044.621678653355
 21
2368.0380285882411
 31
0.0
  0
LINE
  5
3402
  8
_0-0_
  6
CONTINUOUS
 62
     4
 10
1042.1959335262859
 20
2365.895126173647
 30
0.0
 11
1044.517930175615
 21
2368.2171228229759
 31
0.0
  0
LINE
  5
3403
  8
_0-0_
  6
CONTINUOUS
 62
     4
 10
1042.164862831879
 20
2366.1468981917128
 30
0.0
 11
1044.4141816978761
 21
2368.3962170577111
 31
0.0
  0
LINE
  5
3404
  8
_0-0_
  6
CONTINUOUS
 62
     4
 10
1042.1487003911659
 20
2366.413578463475
 30
0.0
 11
1044.310433220136
 21
2368.5753112924458
 31
0.0
  0
LINE
  5
3405
  8
_0-0_
  6
CONTINUOUS
 62
     4
 10
1042.0440308075231
 20
2366.5917515923079
 30
0.0
 11
1044.206684742396
 21
2368.754405527181
 31
0.0
  0
LINE
  5
3406
  8
_0-0_
  6
CONTINUOUS
 62
     4
 10
1041.936717468079
 20
2366.7672809653391
 30
0.0
 11
1044.1029362646559
 21
2368.9334997619162
 31
0.0
  0
LINE
  5
3407
  8
_0-0_
  6
CONTINUOUS
 62
     4
 10
1041.829404128636
 20
2366.9428103383698
 30
0.0
 11
1043.9991877869161
 21
2369.11259399665
 31
0.0
  0
LINE
  5
3408
  8
_0-0_
  6
CONTINUOUS
 62
     4
 10
1041.7220907891931
 20
2367.1183397114009
 30
0.0
 11
1043.8954393091769
 21
2369.2916882313848
 31
0.0
  0
LINE
  5
3409
  8
_0-0_
  6
CONTINUOUS
 62
     4
 10
1041.614777449749
 20
2367.2938690844321
 30
0.0
 11
1043.7916908314371
 21
2369.47078246612
 31
0.0
  0
LINE
  5
340A
  8
_0-0_
  6
CONTINUOUS
 62
     4
 10
1041.5074641103049
 20
2367.4693984574642
 30
0.0
 11
1043.6879423536971
 21
2369.6498767008552
 31
0.0
  0
LINE
  5
340B
  8
_0-0_
  6
CONTINUOUS
 62
     4
 10
1041.400150770862
 20
2367.6449278304949
 30
0.0
 11
1043.584193875957
 21
2369.8289709355909
 31
0.0
  0
LINE
  5
340C
  8
_0-0_
  6
CONTINUOUS
 62
     4
 10
1041.292837431419
 20
2367.8204572035252
 30
0.0
 11
1043.4804453982181
 21
2370.0080651703238
 31
0.0
  0
LINE
  5
340D
  8
_0-0_
  6
CONTINUOUS
 62
     4
 10
1041.185524091976
 20
2367.9959865765568
 30
0.0
 11
1043.376696920478
 21
2370.187159405059
 31
0.0
  0
LINE
  5
340E
  8
_0-0_
  6
CONTINUOUS
 62
     4
 10
1041.078210752532
 20
2368.171515949588
 30
0.0
 11
1043.272948442738
 21
2370.3662536397942
 31
0.0
  0
LINE
  5
340F
  8
_0-0_
  6
CONTINUOUS
 62
     4
 10
1040.9708974130881
 20
2368.34704532262
 30
0.0
 11
1043.0179001434931
 21
2370.3940480530241
 31
0.0
  0
LINE
  5
3410
  8
_0-0_
  6
CONTINUOUS
 62
     4
 10
1040.8635840736449
 20
2368.5225746956498
 30
0.0
 11
1042.7350574310201
 21
2370.394048053025
 31
0.0
  0
LINE
  5
3411
  8
_0-0_
  6
CONTINUOUS
 62
     4
 10
1040.756270734202
 20
2368.698104068681
 30
0.0
 11
1042.4522147185451
 21
2370.3940480530241
 31
0.0
  0
LINE
  5
3412
  8
_0-0_
  6
CONTINUOUS
 62
     4
 10
1040.6489573947581
 20
2368.8736334417131
 30
0.0
 11
1042.16937200607
 21
2370.394048053025
 31
0.0
  0
LINE
  5
3413
  8
_0-0_
  6
CONTINUOUS
 62
     4
 10
1040.5416440553149
 20
2369.0491628147438
 30
0.0
 11
1041.886529293595
 21
2370.394048053025
 31
0.0
  0
LINE
  5
3414
  8
_0-0_
  6
CONTINUOUS
 62
     4
 10
1040.4343307158711
 20
2369.2246921877759
 30
0.0
 11
1041.60368658112
 21
2370.3940480530241
 31
0.0
  0
LINE
  5
3415
  8
_0-0_
  6
CONTINUOUS
 62
     4
 10
1040.3270173764281
 20
2369.4002215608061
 30
0.0
 11
1041.320843868647
 21
2370.394048053025
 31
0.0
  0
LINE
  5
3416
  8
_0-0_
  6
CONTINUOUS
 62
     4
 10
1040.2197040369849
 20
2369.5757509338382
 30
0.0
 11
1041.058606648525
 21
2370.4146535453779
 31
0.0
  0
LINE
  5
3417
  8
_0-0_
  6
CONTINUOUS
 62
     4
 10
1040.1123906975411
 20
2369.7512803068698
 30
0.0
 11
1041.4449769790399
 21
2371.0838665883671
 31
0.0
  0
LINE
  5
3418
  8
_0-0_
  6
CONTINUOUS
 62
     4
 10
1040.0050773580981
 20
2369.926809679901
 30
0.0
 11
1041.831347309557
 21
2371.7530796313599
 31
0.0
  0
LINE
  5
3419
  8
_0-0_
  6
CONTINUOUS
 62
     4
 10
1039.8977640186549
 20
2370.1023390529308
 30
0.0
 11
1042.1160558787051
 21
2372.320630912981
 31
0.0
  0
LINE
  5
341A
  8
_0-0_
  6
CONTINUOUS
 62
     4
 10
1039.7904506792111
 20
2370.277868425962
 30
0.0
 11
1042.009794528162
 21
2372.4972122749132
 31
0.0
  0
LINE
  5
341B
  8
_0-0_
  6
CONTINUOUS
 62
     4
 10
1039.6831373397681
 20
2370.453397798994
 30
0.0
 11
1041.903533177619
 21
2372.6737936368449
 31
0.0
  0
LINE
  5
341C
  8
_0-0_
  6
CONTINUOUS
 62
     4
 10
1039.575824000324
 20
2370.6289271720252
 30
0.0
 11
1041.797271827076
 21
2372.8503749987772
 31
0.0
  0
LINE
  5
341D
  8
_0-0_
  6
CONTINUOUS
 62
     4
 10
1039.4685106608799
 20
2370.8044565450568
 30
0.0
 11
1041.691010476532
 21
2373.0269563607089
 31
0.0
  0
LINE
  5
341E
  8
_0-0_
  6
CONTINUOUS
 62
     4
 10
1039.3611973214381
 20
2370.9799859180871
 30
0.0
 11
1041.5847491259899
 21
2373.2035377226389
 31
0.0
  0
LINE
  5
341F
  8
_0-0_
  6
CONTINUOUS
 62
     4
 10
1032.6455535460559
 20
2364.5471848551801
 30
0.0
 11
1033.6472607057699
 21
2365.548892014895
 31
0.0
  0
LINE
  5
3420
  8
_0-0_
  6
CONTINUOUS
 62
     4
 10
1039.253883981994
 20
2371.1555152911192
 30
0.0
 11
1041.4784877754471
 21
2373.380119084572
 31
0.0
  0
LINE
  5
3421
  8
_0-0_
  6
CONTINUOUS
 62
     4
 10
1032.183113422346
 20
2364.3675874439459
 30
0.0
 11
1034.5836994159899
 21
2366.7681734375901
 31
0.0
  0
LINE
  5
3422
  8
_0-0_
  6
CONTINUOUS
 62
     4
 10
1039.1465706425499
 20
2371.3310446641499
 30
0.0
 11
1041.3722264249041
 21
2373.5567004465029
 31
0.0
  0
LINE
  5
3423
  8
_0-0_
  6
CONTINUOUS
 62
     4
 10
1031.859069287251
 20
2364.326386021326
 30
0.0
 11
1035.520138126212
 21
2367.987454860287
 31
0.0
  0
LINE
  5
3424
  8
_0-0_
  6
CONTINUOUS
 62
     4
 10
1039.039257303107
 20
2371.506574037182
 30
0.0
 11
1041.2659650743601
 21
2373.7332818084351
 31
0.0
  0
LINE
  5
3425
  8
_0-0_
  6
CONTINUOUS
 62
     4
 10
1031.711499176396
 20
2364.461658622944
 30
0.0
 11
1036.4565768364271
 21
2369.2067362829748
 31
0.0
  0
LINE
  5
3426
  8
_0-0_
  6
CONTINUOUS
 62
     4
 10
1038.931943963664
 20
2371.6821034102122
 30
0.0
 11
1041.159703723818
 21
2373.909863170366
 31
0.0
  0
LINE
  5
3427
  8
_0-0_
  6
CONTINUOUS
 62
     4
 10
1031.579293788649
 20
2364.612295947672
 30
0.0
 11
1037.3930155466501
 21
2370.4260177056731
 31
0.0
  0
LINE
  5
3428
  8
_0-0_
  6
CONTINUOUS
 62
     4
 10
1038.8246306242211
 20
2371.8576327832429
 30
0.0
 11
1041.0534423732749
 21
2374.0864445322982
 31
0.0
  0
LINE
  5
3429
  8
_0-0_
  6
CONTINUOUS
 62
     4
 10
1031.461442658451
 20
2364.7772875299488
 30
0.0
 11
1038.329454256871
 21
2371.6452991283691
 31
0.0
  0
LINE
  5
342A
  8
_0-0_
  6
CONTINUOUS
 62
     4
 10
1038.717317284777
 20
2372.033162156275
 30
0.0
 11
1040.9471810227319
 21
2374.2630258942299
 31
0.0
  0
LINE
  5
342B
  8
_0-0_
  6
CONTINUOUS
 62
     4
 10
1031.3726544870119
 20
2364.971342070985
 30
0.0
 11
1040.8409196721891
 21
2374.4396072561622
 31
0.0
  0
LINE
  5
342C
  8
_0-0_
  6
CONTINUOUS
 62
     4
 10
1031.308004724161
 20
2365.1895350206091
 30
0.0
 11
1040.7346583216461
 21
2374.6161886180939
 31
0.0
  0
LINE
  5
342D
  8
_0-0_
  6
CONTINUOUS
 62
     4
 10
1031.2433549613099
 20
2365.407727970231
 30
0.0
 11
1040.628396971103
 21
2374.7927699800248
 31
0.0
  0
LINE
  5
342E
  8
_0-0_
  6
CONTINUOUS
 62
     4
 10
1031.3116576099189
 20
2365.758873331315
 30
0.0
 11
1040.5167200085989
 21
2374.9639357299948
 31
0.0
  0
LINE
  5
342F
  8
_0-0_
  6
CONTINUOUS
 62
     4
 10
1031.588376951695
 20
2366.3184353855659
 30
0.0
 11
1040.3947094267471
 21
2375.1247678606178
 31
0.0
  0
LINE
  5
3430
  8
_0-0_
  6
CONTINUOUS
 62
     4
 10
1032.271659461629
 20
2367.284560607975
 30
0.0
 11
1040.2726988448951
 21
2375.2855999912408
 31
0.0
  0
LINE
  5
3431
  8
_0-0_
  6
CONTINUOUS
 62
     4
 10
1033.070690124363
 20
2368.366433983183
 30
0.0
 11
1040.150688263044
 21
2375.4464321218629
 31
0.0
  0
LINE
  5
3432
  8
_0-0_
  6
CONTINUOUS
 62
     4
 10
1033.869720787106
 20
2369.4483073584001
 30
0.0
 11
1040.028100574601
 21
2375.6066871458952
 31
0.0
  0
LINE
  5
3433
  8
_0-0_
  6
CONTINUOUS
 62
     4
 10
1034.6687514498469
 20
2370.5301807336159
 30
0.0
 11
1039.90239270239
 21
2375.7638219861601
 31
0.0
  0
LINE
  5
3434
  8
_0-0_
  6
CONTINUOUS
 62
     4
 10
1035.4677821125899
 20
2371.6120541088349
 30
0.0
 11
1039.718084888902
 21
2375.8623568851472
 31
0.0
  0
LINE
  5
3435
  8
_0-0_
  6
CONTINUOUS
 62
     4
 10
1036.2668127753309
 20
2372.6939274840502
 30
0.0
 11
1039.505952854546
 21
2375.933067563265
 31
0.0
  0
LINE
  5
3436
  8
_0-0_
  6
CONTINUOUS
 62
     4
 10
1037.065843438068
 20
2373.77580085926
 30
0.0
 11
1039.2767721237251
 21
2375.9867295449189
 31
0.0
  0
LINE
  5
3437
  8
_0-0_
  6
CONTINUOUS
 62
     4
 10
1037.353606389479
 20
2374.3464065231469
 30
0.0
 11
1038.9753816142579
 21
2375.968181747925
 31
0.0
  0
LINE
  5
3438
  8
_0-0_
  6
CONTINUOUS
 62
     4
 10
1037.353606389479
 20
2374.629249235622
 30
0.0
 11
1038.625195398813
 21
2375.900838244956
 31
0.0
  0
LINE
  5
3439
  8
_0-0_
  6
CONTINUOUS
 62
     4
 10
1037.9884718345891
 20
2375.5469573932069
 30
0.0
 11
1038.2929110194759
 21
2375.851396578093
 31
0.0
  0
LINE
  5
343A
  8
_0-0_
  6
CONTINUOUS
 62
     4
 10
1031.399964281545
 20
2364.8791715144362
 30
0.0
 11
1031.983965704118
 21
2364.2951700918629
 31
0.0
  0
LINE
  5
343B
  8
_0-0_
  6
CONTINUOUS
 62
     4
 10
1031.280872613135
 20
2365.2811058953212
 30
0.0
 11
1032.191383693267
 21
2364.3705948151901
 31
0.0
  0
LINE
  5
343C
  8
_0-0_
  6
CONTINUOUS
 62
     4
 10
1031.2569401019671
 20
2365.5878811189641
 30
0.0
 11
1032.3988016824151
 21
2364.4460195385168
 31
0.0
  0
LINE
  5
343D
  8
_0-0_
  6
CONTINUOUS
 62
     4
 10
1031.325508032264
 20
2365.8021559011431
 30
0.0
 11
1032.599618627587
 21
2364.528045305819
 31
0.0
  0
LINE
  5
343E
  8
_0-0_
  6
CONTINUOUS
 62
     4
 10
1031.39407596256
 20
2366.0164306833199
 30
0.0
 11
1032.7992723069799
 21
2364.6112343388991
 31
0.0
  0
LINE
  5
343F
  8
_0-0_
  6
CONTINUOUS
 62
     4
 10
1031.5006524398159
 20
2366.1926969185388
 30
0.0
 11
1032.9944471884539
 21
2364.6989021699001
 31
0.0
  0
LINE
  5
3440
  8
_0-0_
  6
CONTINUOUS
 62
     4
 10
1031.6168891709699
 20
2366.3593028998589
 30
0.0
 11
1033.1173132603619
 21
2364.8588788104671
 31
0.0
  0
LINE
  5
3441
  8
_0-0_
  6
CONTINUOUS
 62
     4
 10
1031.7331259021239
 20
2366.5259088811808
 30
0.0
 11
1033.2401793322711
 21
2365.0188554510328
 31
0.0
  0
LINE
  5
3442
  8
_0-0_
  6
CONTINUOUS
 62
     4
 10
1031.849362633277
 20
2366.692514862501
 30
0.0
 11
1033.363045404179
 21
2365.1788320915989
 31
0.0
  0
LINE
  5
3443
  8
_0-0_
  6
CONTINUOUS
 62
     4
 10
1031.965599364431
 20
2366.8591208438211
 30
0.0
 11
1033.485911476087
 21
2365.3388087321659
 31
0.0
  0
LINE
  5
3444
  8
_0-0_
  6
CONTINUOUS
 62
     4
 10
1032.081836095585
 20
2367.0257268251421
 30
0.0
 11
1033.6087775479959
 21
2365.4987853727321
 31
0.0
  0
LINE
  5
3445
  8
_0-0_
  6
CONTINUOUS
 62
     4
 10
1032.2012194942849
 20
2367.1891861389181
 30
0.0
 11
1033.7316436199039
 21
2365.6587620132991
 31
0.0
  0
LINE
  5
3446
  8
_0-0_
  6
CONTINUOUS
 62
     4
 10
1032.321374481163
 20
2367.351873864513
 30
0.0
 11
1033.8545096918119
 21
2365.8187386538639
 31
0.0
  0
LINE
  5
3447
  8
_0-0_
  6
CONTINUOUS
 62
     4
 10
1032.4415294680421
 20
2367.5145615901101
 30
0.0
 11
1033.9773757637199
 21
2365.9787152944309
 31
0.0
  0
LINE
  5
3448
  8
_0-0_
  6
CONTINUOUS
 62
     4
 10
1032.5616844549199
 20
2367.6772493157059
 30
0.0
 11
1034.100241835629
 21
2366.138691934997
 31
0.0
  0
LINE
  5
3449
  8
_0-0_
  6
CONTINUOUS
 62
     4
 10
1032.681839441798
 20
2367.8399370413031
 30
0.0
 11
1034.223107907537
 21
2366.2986685755641
 31
0.0
  0
LINE
  5
344A
  8
_0-0_
  6
CONTINUOUS
 62
     4
 10
1032.8019944286771
 20
2368.0026247669002
 30
0.0
 11
1034.3459739794459
 21
2366.4586452161302
 31
0.0
  0
LINE
  5
344B
  8
_0-0_
  6
CONTINUOUS
 62
     4
 10
1032.922149415554
 20
2368.1653124924951
 30
0.0
 11
1034.468840051353
 21
2366.6186218566959
 31
0.0
  0
LINE
  5
344C
  8
_0-0_
  6
CONTINUOUS
 62
     4
 10
1033.042304402433
 20
2368.3280002180918
 30
0.0
 11
1034.5917061232619
 21
2366.778598497262
 31
0.0
  0
LINE
  5
344D
  8
_0-0_
  6
CONTINUOUS
 62
     4
 10
1033.1624593893109
 20
2368.490687943688
 30
0.0
 11
1034.7145721951699
 21
2366.938575137829
 31
0.0
  0
LINE
  5
344E
  8
_0-0_
  6
CONTINUOUS
 62
     4
 10
1033.2826143761899
 20
2368.6533756692838
 30
0.0
 11
1034.8374382670791
 21
2367.0985517783961
 31
0.0
  0
LINE
  5
344F
  8
_0-0_
  6
CONTINUOUS
 62
     4
 10
1033.402769363068
 20
2368.8160633948801
 30
0.0
 11
1034.960304338987
 21
2367.2585284189609
 31
0.0
  0
LINE
  5
3450
  8
_0-0_
  6
CONTINUOUS
 62
     4
 10
1033.5229243499459
 20
2368.9787511204759
 30
0.0
 11
1035.083170410895
 21
2367.418505059527
 31
0.0
  0
LINE
  5
3451
  8
_0-0_
  6
CONTINUOUS
 62
     4
 10
1033.6430793368249
 20
2369.141438846073
 30
0.0
 11
1035.206036482803
 21
2367.578481700094
 31
0.0
  0
LINE
  5
3452
  8
_0-0_
  6
CONTINUOUS
 62
     4
 10
1033.763234323703
 20
2369.3041265716702
 30
0.0
 11
1035.3289025547119
 21
2367.7384583406611
 31
0.0
  0
LINE
  5
3453
  8
_0-0_
  6
CONTINUOUS
 62
     4
 10
1033.8833893105821
 20
2369.466814297266
 30
0.0
 11
1035.4517686266211
 21
2367.8984349812272
 31
0.0
  0
LINE
  5
3454
  8
_0-0_
  6
CONTINUOUS
 62
     4
 10
1034.003544297459
 20
2369.6295020228622
 30
0.0
 11
1035.5746346985279
 21
2368.0584116217929
 31
0.0
  0
LINE
  5
3455
  8
_0-0_
  6
CONTINUOUS
 62
     4
 10
1034.123699284338
 20
2369.792189748458
 30
0.0
 11
1035.697500770437
 21
2368.218388262359
 31
0.0
  0
LINE
  5
3456
  8
_0-0_
  6
CONTINUOUS
 62
     4
 10
1034.2438542712159
 20
2369.9548774740551
 30
0.0
 11
1035.820366842345
 21
2368.3783649029251
 31
0.0
  0
LINE
  5
3457
  8
_0-0_
  6
CONTINUOUS
 62
     4
 10
1034.3640092580949
 20
2370.1175651996509
 30
0.0
 11
1035.943232914253
 21
2368.5383415434931
 31
0.0
  0
LINE
  5
3458
  8
_0-0_
  6
CONTINUOUS
 62
     4
 10
1034.484164244973
 20
2370.2802529252472
 30
0.0
 11
1036.066098986161
 21
2368.6983181840578
 31
0.0
  0
LINE
  5
3459
  8
_0-0_
  6
CONTINUOUS
 62
     4
 10
1034.6043192318509
 20
2370.442940650843
 30
0.0
 11
1036.1889650580699
 21
2368.8582948246249
 31
0.0
  0
LINE
  5
345A
  8
_0-0_
  6
CONTINUOUS
 62
     4
 10
1034.7244742187299
 20
2370.6056283764401
 30
0.0
 11
1036.3118311299779
 21
2369.018271465191
 31
0.0
  0
LINE
  5
345B
  8
_0-0_
  6
CONTINUOUS
 62
     4
 10
1034.844629205608
 20
2370.7683161020359
 30
0.0
 11
1036.434697201887
 21
2369.1782481057571
 31
0.0
  0
LINE
  5
345C
  8
_0-0_
  6
CONTINUOUS
 62
     4
 10
1034.9647841924859
 20
2370.9310038276321
 30
0.0
 11
1036.557563273795
 21
2369.3382247463242
 31
0.0
  0
LINE
  5
345D
  8
_0-0_
  6
CONTINUOUS
 62
     4
 10
1035.084939179364
 20
2371.0936915532288
 30
0.0
 11
1036.680429345703
 21
2369.4982013868889
 31
0.0
  0
LINE
  5
345E
  8
_0-0_
  6
CONTINUOUS
 62
     4
 10
1035.205094166243
 20
2371.2563792788251
 30
0.0
 11
1036.803295417611
 21
2369.6581780274569
 31
0.0
  0
LINE
  5
345F
  8
_0-0_
  6
CONTINUOUS
 62
     4
 10
1035.3252491531209
 20
2371.4190670044209
 30
0.0
 11
1036.9261614895199
 21
2369.8181546680221
 31
0.0
  0
LINE
  5
3460
  8
_0-0_
  6
CONTINUOUS
 62
     4
 10
1035.4454041399999
 20
2371.5817547300171
 30
0.0
 11
1037.0490275614279
 21
2369.9781313085891
 31
0.0
  0
LINE
  5
3461
  8
_0-0_
  6
CONTINUOUS
 62
     4
 10
1035.565559126878
 20
2371.7444424556129
 30
0.0
 11
1037.1718936333359
 21
2370.1381079491548
 31
0.0
  0
LINE
  5
3462
  8
_0-0_
  6
CONTINUOUS
 62
     4
 10
1035.6857141137559
 20
2371.9071301812101
 30
0.0
 11
1037.294759705245
 21
2370.2980845897209
 31
0.0
  0
LINE
  5
3463
  8
_0-0_
  6
CONTINUOUS
 62
     4
 10
1035.805869100634
 20
2372.0698179068072
 30
0.0
 11
1037.417625777153
 21
2370.458061230288
 31
0.0
  0
LINE
  5
3464
  8
_0-0_
  6
CONTINUOUS
 62
     4
 10
1035.926024087513
 20
2372.232505632403
 30
0.0
 11
1037.540491849061
 21
2370.6180378708541
 31
0.0
  0
LINE
  5
3465
  8
_0-0_
  6
CONTINUOUS
 62
     4
 10
1042.1747487224391
 20
2365.983780997477
 30
0.0
 11
1043.2716934746461
 21
2364.8868362452699
 31
0.0
  0
LINE
  5
3466
  8
_0-0_
  6
CONTINUOUS
 62
     4
 10
1036.0461790743909
 20
2372.3951933579988
 30
0.0
 11
1037.6633579209699
 21
2370.7780145114211
 31
0.0
  0
LINE
  5
3467
  8
_0-0_
  6
CONTINUOUS
 62
     4
 10
1042.156500805504
 20
2366.2848716268868
 30
0.0
 11
1043.679359370723
 21
2364.7620130616679
 31
0.0
  0
LINE
  5
3468
  8
_0-0_
  6
CONTINUOUS
 62
     4
 10
1036.166334061269
 20
2372.557881083595
 30
0.0
 11
1037.7862239928779
 21
2370.9379911519859
 31
0.0
  0
LINE
  5
3469
  8
_0-0_
  6
CONTINUOUS
 62
     4
 10
1041.90491376001
 20
2366.819301384854
 30
0.0
 11
1043.88776979044
 21
2364.836445354425
 31
0.0
  0
LINE
  5
346A
  8
_0-0_
  6
CONTINUOUS
 62
     4
 10
1036.286489048148
 20
2372.7205688091908
 30
0.0
 11
1037.9090900647859
 21
2371.0979677925529
 31
0.0
  0
LINE
  5
346B
  8
_0-0_
  6
CONTINUOUS
 62
     4
 10
1041.4599627064749
 20
2367.5470951508651
 30
0.0
 11
1044.0961802101581
 21
2364.9108776471812
 31
0.0
  0
LINE
  5
346C
  8
_0-0_
  6
CONTINUOUS
 62
     4
 10
1036.4066440350259
 20
2372.883256534788
 30
0.0
 11
1038.031956136695
 21
2371.25794443312
 31
0.0
  0
LINE
  5
346D
  8
_0-0_
  6
CONTINUOUS
 62
     4
 10
1041.0150116529389
 20
2368.2748889168752
 30
0.0
 11
1044.3059800872179
 21
2364.9839204825971
 31
0.0
  0
LINE
  5
346E
  8
_0-0_
  6
CONTINUOUS
 62
     4
 10
1036.5267990219049
 20
2373.0459442603842
 30
0.0
 11
1038.154822208603
 21
2371.4179210736861
 31
0.0
  0
LINE
  5
346F
  8
_0-0_
  6
CONTINUOUS
 62
     4
 10
1040.5700605994009
 20
2369.002682682888
 30
0.0
 11
1044.523551404506
 21
2365.049191877783
 31
0.0
  0
LINE
  5
3470
  8
_0-0_
  6
CONTINUOUS
 62
     4
 10
1036.6469540087819
 20
2373.20863198598
 30
0.0
 11
1038.277688280511
 21
2371.5778977142518
 31
0.0
  0
LINE
  5
3471
  8
_0-0_
  6
CONTINUOUS
 62
     4
 10
1040.1251095458681
 20
2369.7304764488949
 30
0.0
 11
1044.7411227217931
 21
2365.1144632729688
 31
0.0
  0
LINE
  5
3472
  8
_0-0_
  6
CONTINUOUS
 62
     4
 10
1036.7671089956609
 20
2373.3713197115771
 30
0.0
 11
1038.400554352419
 21
2371.7378743548188
 31
0.0
  0
LINE
  5
3473
  8
_0-0_
  6
CONTINUOUS
 62
     4
 10
1039.6801584923321
 20
2370.458270214905
 30
0.0
 11
1044.958694039082
 21
2365.179734668156
 31
0.0
  0
LINE
  5
3474
  8
_0-0_
  6
CONTINUOUS
 62
     4
 10
1036.887263982539
 20
2373.5340074371729
 30
0.0
 11
1038.5234204243279
 21
2371.8978509953849
 31
0.0
  0
LINE
  5
3475
  8
_0-0_
  6
CONTINUOUS
 62
     4
 10
1039.2352074387979
 20
2371.1860639809152
 30
0.0
 11
1045.1762653563701
 21
2365.2450060633419
 31
0.0
  0
LINE
  5
3476
  8
_0-0_
  6
CONTINUOUS
 62
     4
 10
1037.007418969418
 20
2373.6966951627701
 30
0.0
 11
1038.6462864962359
 21
2372.0578276359511
 31
0.0
  0
LINE
  5
3477
  8
_0-0_
  6
CONTINUOUS
 62
     4
 10
1038.790256385262
 20
2371.9138577469248
 30
0.0
 11
1045.3741979129479
 21
2365.3299162192388
 31
0.0
  0
LINE
  5
3478
  8
_0-0_
  6
CONTINUOUS
 62
     4
 10
1037.1275739562959
 20
2373.8593828883659
 30
0.0
 11
1045.4925971879379
 21
2365.494359656725
 31
0.0
  0
LINE
  5
3479
  8
_0-0_
  6
CONTINUOUS
 62
     4
 10
1037.247728943174
 20
2374.0220706139621
 30
0.0
 11
1045.610996462927
 21
2365.6588030942089
 31
0.0
  0
LINE
  5
347A
  8
_0-0_
  6
CONTINUOUS
 62
     4
 10
1037.353606389479
 20
2374.1990358801309
 30
0.0
 11
1041.087662504839
 21
2370.4649797647721
 31
0.0
  0
LINE
  5
347B
  8
_0-0_
  6
CONTINUOUS
 62
     4
 10
1041.1585942165871
 20
2370.3940480530232
 30
0.0
 11
1045.6885126074701
 21
2365.8641296621408
 31
0.0
  0
LINE
  5
347C
  8
_0-0_
  6
CONTINUOUS
 62
     4
 10
1037.353606389479
 20
2374.4818785926068
 30
0.0
 11
1041.19119012288
 21
2370.6442948592062
 31
0.0
  0
LINE
  5
347D
  8
_0-0_
  6
CONTINUOUS
 62
     4
 10
1041.4414369290621
 20
2370.3940480530232
 30
0.0
 11
1045.6211274519969
 21
2366.2143575300888
 31
0.0
  0
LINE
  5
347E
  8
_0-0_
  6
CONTINUOUS
 62
     4
 10
1037.380108840817
 20
2374.7382188537431
 30
0.0
 11
1041.294717740921
 21
2370.8236099536389
 31
0.0
  0
LINE
  5
347F
  8
_0-0_
  6
CONTINUOUS
 62
     4
 10
1041.7242796415369
 20
2370.3940480530241
 30
0.0
 11
1045.367139394933
 21
2366.7511882996291
 31
0.0
  0
LINE
  5
3480
  8
_0-0_
  6
CONTINUOUS
 62
     4
 10
1037.4649616545589
 20
2374.9362087524751
 30
0.0
 11
1041.398245358962
 21
2371.002925048072
 31
0.0
  0
LINE
  5
3481
  8
_0-0_
  6
CONTINUOUS
 62
     4
 10
1042.0071223540101
 20
2370.3940480530232
 30
0.0
 11
1044.977674851352
 21
2367.4234955556822
 31
0.0
  0
LINE
  5
3482
  8
_0-0_
  6
CONTINUOUS
 62
     4
 10
1037.582145067754
 20
2375.101868051755
 30
0.0
 11
1041.5017729770029
 21
2371.1822401425061
 31
0.0
  0
LINE
  5
3483
  8
_0-0_
  6
CONTINUOUS
 62
     4
 10
1042.289965066486
 20
2370.3940480530232
 30
0.0
 11
1044.588210307769
 21
2368.0958028117402
 31
0.0
  0
LINE
  5
3484
  8
_0-0_
  6
CONTINUOUS
 62
     4
 10
1037.7152475206831
 20
2375.2516083113001
 30
0.0
 11
1041.6053005950439
 21
2371.3615552369401
 31
0.0
  0
LINE
  5
3485
  8
_0-0_
  6
CONTINUOUS
 62
     4
 10
1042.5728077789599
 20
2370.3940480530232
 30
0.0
 11
1044.1987457641851
 21
2368.7681100677992
 31
0.0
  0
LINE
  5
3486
  8
_0-0_
  6
CONTINUOUS
 62
     4
 10
1037.848349973613
 20
2375.401348570846
 30
0.0
 11
1041.708828213086
 21
2371.5408703313742
 31
0.0
  0
LINE
  5
3487
  8
_0-0_
  6
CONTINUOUS
 62
     4
 10
1042.855650491435
 20
2370.3940480530241
 30
0.0
 11
1043.809281220601
 21
2369.4404173238581
 31
0.0
  0
LINE
  5
3488
  8
_0-0_
  6
CONTINUOUS
 62
     4
 10
1037.9872903919641
 20
2375.5452508649691
 30
0.0
 11
1041.8123558311261
 21
2371.720185425806
 31
0.0
  0
LINE
  5
3489
  8
_0-0_
  6
CONTINUOUS
 62
     4
 10
1043.138493203908
 20
2370.3940480530232
 30
0.0
 11
1043.4198166770179
 21
2370.1127245799148
 31
0.0
  0
LINE
  5
348A
  8
_0-0_
  6
CONTINUOUS
 62
     4
 10
1038.1029987743391
 20
2375.7123851950678
 30
0.0
 11
1041.915883449167
 21
2371.899500520241
 31
0.0
  0
LINE
  5
348B
  8
_0-0_
  6
CONTINUOUS
 62
     4
 10
1038.2522513879881
 20
2375.8459752938952
 30
0.0
 11
1042.019411067208
 21
2372.0788156146741
 31
0.0
  0
LINE
  5
348C
  8
_0-0_
  6
CONTINUOUS
 62
     4
 10
1038.5018184872299
 20
2375.8792509071268
 30
0.0
 11
1042.122938685249
 21
2372.2581307091068
 31
0.0
  0
LINE
  5
348D
  8
_0-0_
  6
CONTINUOUS
 62
     4
 10
1038.740835400092
 20
2375.9230767067402
 30
0.0
 11
1041.7726931802631
 21
2372.8912189265702
 31
0.0
  0
LINE
  5
348E
  8
_0-0_
  6
CONTINUOUS
 62
     4
 10
1038.978058320231
 20
2375.9686964990742
 30
0.0
 11
1041.3452864147439
 21
2373.6014684045622
 31
0.0
  0
LINE
  5
348F
  8
_0-0_
  6
CONTINUOUS
 62
     4
 10
1039.2391008605441
 20
2375.990496671237
 30
0.0
 11
1040.917879649227
 21
2374.3117178825541
 31
0.0
  0
LINE
  5
3490
  8
_0-0_
  6
CONTINUOUS
 62
     4
 10
1039.616082594212
 20
2375.8963576500441
 30
0.0
 11
1040.416825847944
 21
2375.0956143963108
 31
0.0
  0
LINE
  5
3491
  8
_0-0_
  6
CONTINUOUS
 62
     7
 10
1046.3776916103129
 20
2373.451715444618
 30
0.0
 11
1046.3776916103129
 21
2376.3757390899868
 31
0.0
  0
LINE
  5
3492
  8
_0-0_
  6
CONTINUOUS
 62
     7
 10
1046.1776916103131
 20
2373.4935993135809
 30
0.0
 11
1046.1776916103131
 21
2376.3338552210239
 31
0.0
  0
LINE
  5
3493
  8
_0-0_
  6
CONTINUOUS
 62
     7
 10
1045.9776916103131
 20
2373.5661189264952
 30
0.0
 11
1045.9776916103131
 21
2376.2613356081101
 31
0.0
  0
LINE
  5
3494
  8
_0-0_
  6
CONTINUOUS
 62
     7
 10
1045.777691610313
 20
2373.674641686931
 30
0.0
 11
1045.777691610313
 21
2376.1528128476739
 31
0.0
  0
LINE
  5
3495
  8
_0-0_
  6
CONTINUOUS
 62
     7
 10
1045.577691610313
 20
2373.8299293568261
 30
0.0
 11
1045.577691610313
 21
2375.9975251777792
 31
0.0
  0
LINE
  5
3496
  8
_0-0_
  6
CONTINUOUS
 62
     7
 10
1045.3776916103129
 20
2374.0570460278541
 30
0.0
 11
1045.3776916103129
 21
2375.7704085067521
 31
0.0
  0
LINE
  5
3497
  8
_0-0_
  6
CONTINUOUS
 62
     7
 10
1045.1776916103131
 20
2374.4520048601221
 30
0.0
 11
1045.1776916103131
 21
2375.3754496744832
 31
0.0
  0
LINE
  5
3498
  8
_0-0_
  6
CONTINUOUS
 62
     7
 10
1041.0686505001211
 20
2370.4320500066451
 30
0.0
 11
1045.324769623815
 21
2370.4320500066451
 31
0.0
  0
LINE
  5
3499
  8
_0-0_
  6
CONTINUOUS
 62
     7
 10
1041.184120553959
 20
2370.6320500066458
 30
0.0
 11
1045.209299569977
 21
2370.6320500066458
 31
0.0
  0
LINE
  5
349A
  8
_0-0_
  6
CONTINUOUS
 62
     7
 10
1041.2995906077961
 20
2370.8320500066452
 30
0.0
 11
1045.0938295161391
 21
2370.8320500066452
 31
0.0
  0
LINE
  5
349B
  8
_0-0_
  6
CONTINUOUS
 62
     7
 10
1041.4150606616349
 20
2371.032050006645
 30
0.0
 11
1044.9783594623009
 21
2371.032050006645
 31
0.0
  0
LINE
  5
349C
  8
_0-0_
  6
CONTINUOUS
 62
     7
 10
1041.530530715472
 20
2371.2320500066448
 30
0.0
 11
1044.8628894084629
 21
2371.2320500066448
 31
0.0
  0
LINE
  5
349D
  8
_0-0_
  6
CONTINUOUS
 62
     7
 10
1041.6460007693099
 20
2371.4320500066451
 30
0.0
 11
1044.747419354625
 21
2371.4320500066451
 31
0.0
  0
LINE
  5
349E
  8
_0-0_
  6
CONTINUOUS
 62
     7
 10
1041.7614708231481
 20
2371.6320500066449
 30
0.0
 11
1044.631949300787
 21
2371.6320500066449
 31
0.0
  0
LINE
  5
349F
  8
_0-0_
  6
CONTINUOUS
 62
     7
 10
1041.8769408769861
 20
2371.8320500066461
 30
0.0
 11
1044.5164792469491
 21
2371.8320500066461
 31
0.0
  0
LINE
  5
34A0
  8
_0-0_
  6
CONTINUOUS
 62
     7
 10
1041.992410930824
 20
2372.0320500066459
 30
0.0
 11
1044.4010091931109
 21
2372.0320500066459
 31
0.0
  0
LINE
  5
34A1
  8
_0-0_
  6
CONTINUOUS
 62
     7
 10
1042.107880984662
 20
2372.2320500066448
 30
0.0
 11
1044.2855391392741
 21
2372.2320500066448
 31
0.0
  0
LINE
  5
34A2
  8
_0-0_
  6
CONTINUOUS
 62
     7
 10
1042.2233510384999
 20
2372.4320500066451
 30
0.0
 11
1044.170069085435
 21
2372.4320500066451
 31
0.0
  0
LINE
  5
34A3
  8
_0-0_
  6
CONTINUOUS
 62
     7
 10
1042.3388210923381
 20
2372.6320500066449
 30
0.0
 11
1044.054599031597
 21
2372.6320500066449
 31
0.0
  0
LINE
  5
34A4
  8
_0-0_
  6
CONTINUOUS
 62
     7
 10
1042.454291146176
 20
2372.8320500066461
 30
0.0
 11
1043.9391289777591
 21
2372.8320500066461
 31
0.0
  0
LINE
  5
34A5
  8
_0-0_
  6
CONTINUOUS
 62
     7
 10
1042.569761200014
 20
2373.0320500066459
 30
0.0
 11
1043.823658923922
 21
2373.0320500066459
 31
0.0
  0
LINE
  5
34A6
  8
_0-0_
  6
CONTINUOUS
 62
     7
 10
1042.685231253852
 20
2373.2320500066448
 30
0.0
 11
1043.7081888700841
 21
2373.2320500066448
 31
0.0
  0
LINE
  5
34A7
  8
_0-0_
  6
CONTINUOUS
 62
     7
 10
1042.8007013076899
 20
2373.4320500066451
 30
0.0
 11
1043.5927188162459
 21
2373.4320500066451
 31
0.0
  0
LINE
  5
34A8
  8
_0-0_
  6
CONTINUOUS
 62
     7
 10
1042.9161713615269
 20
2373.6320500066458
 30
0.0
 11
1043.477248762408
 21
2373.6320500066458
 31
0.0
  0
LINE
  5
34A9
  8
_0-0_
  6
CONTINUOUS
 62
     7
 10
1043.031641415366
 20
2373.8320500066461
 30
0.0
 11
1043.36177870857
 21
2373.8320500066461
 31
0.0
  0
LINE
  5
34AA
  8
_0-0_
  6
CONTINUOUS
 62
     7
 10
1043.1471114692031
 20
2374.0320500066459
 30
0.0
 11
1043.246308654732
 21
2374.0320500066459
 31
0.0
  0
LINE
  5
34AB
  8
_0-0_
  6
CONTINUOUS
 62
     7
 10
1045.1776916103131
 20
2370.3940480530241
 30
0.0
 11
1045.1776916103131
 21
2370.6867965987071
 31
0.0
  0
LINE
  5
34AC
  8
_0-0_
  6
CONTINUOUS
 62
     7
 10
1044.9776916103131
 20
2370.3940480530241
 30
0.0
 11
1044.9776916103131
 21
2371.0332067602199
 31
0.0
  0
LINE
  5
34AD
  8
_0-0_
  6
CONTINUOUS
 62
     7
 10
1044.777691610313
 20
2370.3940480530241
 30
0.0
 11
1044.777691610313
 21
2371.3796169217339
 31
0.0
  0
LINE
  5
34AE
  8
_0-0_
  6
CONTINUOUS
 62
     7
 10
1044.577691610313
 20
2370.3940480530241
 30
0.0
 11
1044.577691610313
 21
2371.726027083248
 31
0.0
  0
LINE
  5
34AF
  8
_0-0_
  6
CONTINUOUS
 62
     7
 10
1044.3776916103129
 20
2370.3940480530241
 30
0.0
 11
1044.3776916103129
 21
2372.0724372447621
 31
0.0
  0
LINE
  5
34B0
  8
_0-0_
  6
CONTINUOUS
 62
     7
 10
1044.1776916103131
 20
2370.3940480530241
 30
0.0
 11
1044.1776916103131
 21
2372.4188474062762
 31
0.0
  0
LINE
  5
34B1
  8
_0-0_
  6
CONTINUOUS
 62
     7
 10
1043.9776916103131
 20
2370.3940480530241
 30
0.0
 11
1043.9776916103131
 21
2372.7652575677889
 31
0.0
  0
LINE
  5
34B2
  8
_0-0_
  6
CONTINUOUS
 62
     7
 10
1043.777691610313
 20
2370.3940480530241
 30
0.0
 11
1043.777691610313
 21
2373.111667729303
 31
0.0
  0
LINE
  5
34B3
  8
_0-0_
  6
CONTINUOUS
 62
     7
 10
1043.577691610313
 20
2370.3940480530241
 30
0.0
 11
1043.577691610313
 21
2373.4580778908171
 31
0.0
  0
LINE
  5
34B4
  8
_0-0_
  6
CONTINUOUS
 62
     7
 10
1043.3776916103129
 20
2370.3940480530241
 30
0.0
 11
1043.3776916103129
 21
2373.8044880523298
 31
0.0
  0
LINE
  5
34B5
  8
_0-0_
  6
CONTINUOUS
 62
     7
 10
1043.1776916103131
 20
2370.3940480530241
 30
0.0
 11
1043.1776916103131
 21
2374.0850163647501
 31
0.0
  0
LINE
  5
34B6
  8
_0-0_
  6
CONTINUOUS
 62
     7
 10
1042.9776916103131
 20
2370.3940480530241
 30
0.0
 11
1042.9776916103131
 21
2373.738606203236
 31
0.0
  0
LINE
  5
34B7
  8
_0-0_
  6
CONTINUOUS
 62
     7
 10
1042.777691610313
 20
2370.3940480530241
 30
0.0
 11
1042.777691610313
 21
2373.3921960417219
 31
0.0
  0
LINE
  5
34B8
  8
_0-0_
  6
CONTINUOUS
 62
     7
 10
1042.577691610313
 20
2370.3940480530241
 30
0.0
 11
1042.577691610313
 21
2373.0457858802079
 31
0.0
  0
LINE
  5
34B9
  8
_0-0_
  6
CONTINUOUS
 62
     7
 10
1042.3776916103129
 20
2370.3940480530241
 30
0.0
 11
1042.3776916103129
 21
2372.6993757186951
 31
0.0
  0
LINE
  5
34BA
  8
_0-0_
  6
CONTINUOUS
 62
     7
 10
1042.1776916103131
 20
2370.3940480530241
 30
0.0
 11
1042.1776916103131
 21
2372.3529655571811
 31
0.0
  0
LINE
  5
34BB
  8
_0-0_
  6
CONTINUOUS
 62
     7
 10
1041.9776916103131
 20
2370.3940480530241
 30
0.0
 11
1041.9776916103131
 21
2372.006555395667
 31
0.0
  0
LINE
  5
34BC
  8
_0-0_
  6
CONTINUOUS
 62
     7
 10
1041.777691610313
 20
2370.3940480530241
 30
0.0
 11
1041.777691610313
 21
2371.6601452341529
 31
0.0
  0
LINE
  5
34BD
  8
_0-0_
  6
CONTINUOUS
 62
     7
 10
1041.577691610313
 20
2370.3940480530241
 30
0.0
 11
1041.577691610313
 21
2371.3137350726402
 31
0.0
  0
LINE
  5
34BE
  8
_0-0_
  6
CONTINUOUS
 62
     7
 10
1041.3776916103129
 20
2370.3940480530241
 30
0.0
 11
1041.3776916103129
 21
2370.9673249111261
 31
0.0
  0
LINE
  5
34BF
  8
_0-0_
  6
CONTINUOUS
 62
     7
 10
1041.1776916103131
 20
2370.3940480530241
 30
0.0
 11
1041.1776916103131
 21
2370.620914749612
 31
0.0
  0
TEXT
  5
34C0
  8
_0-0_
 62
     4
 10
1175.400011890712
 20
2370.002583463654
 30
0.0
 40
2.0
  1
SCALE
  7
JAPANESE
  0
TEXT
  5
34C1
  8
_0-0_
 62
     4
 10
1190.1415575805929
 20
2370.0659165607608
 30
0.0
 40
2.0
  1
製図
  7
JAPANESE
  0
LINE
  5
34C2
  8
_0-0_
  6
CONTINUOUS
 62
     2
 10
1172.178653917209
 20
2372.5805582558828
 30
0.0
 11
1172.178653917209
 21
2361.3305582570092
 31
0.0
  0
LINE
  5
34C3
  8
_0-0_
  6
CONTINUOUS
 62
     2
 10
1187.178653917209
 20
2372.5805582558828
 30
0.0
 11
1187.178653917209
 21
2361.3305582570092
 31
0.0
  0
TEXT
  5
34C4
  8
_0-0_
 62
     4
 10
1190.144558708053
 20
2364.0208386715749
 30
0.0
 40
2.0
  1
竹内
  7
JAPANESE
  0
LINE
  5
34C5
  8
_0-0_
  6
CONTINUOUS
 62
     2
 10
1217.178653917209
 20
2369.5805582558828
 30
0.0
 11
1152.178653917209
 21
2369.5805582558828
 31
0.0
  0
LINE
  5
34C6
  8
_0-0_
  6
CONTINUOUS
 62
     2
 10
1197.178653917209
 20
2379.330558255208
 30
0.0
 11
1197.178653917209
 21
2361.3305582570092
 31
0.0
  0
LINE
  5
34C7
  8
_0-0_
  6
CONTINUOUS
 62
     2
 10
1207.178653917209
 20
2379.330558255208
 30
0.0
 11
1207.178653917209
 21
2361.3305582570092
 31
0.0
  0
LINE
  5
34C8
  8
_0-0_
  6
CONTINUOUS
 62
     2
 10
1217.178653917209
 20
2375.9555582555458
 30
0.0
 11
1207.178653917209
 21
2375.9555582555458
 31
0.0
  0
LINE
  5
34C9
  8
_0-0_
  6
CONTINUOUS
 62
     1
 10
1217.178653917209
 20
2372.5805582558828
 30
0.0
 11
1152.178653917209
 21
2372.5805582558828
 31
0.0
  0
CIRCLE
  5
34CA
  8
_0-0_
  6
CONTINUOUS
 62
     2
 10
1199.678653917209
 20
2375.9555582555458
 30
0.0
 40
2.0
  0
CIRCLE
  5
34CB
  8
_0-0_
  6
CONTINUOUS
 62
     2
 10
1199.678653917209
 20
2375.9555582555458
 30
0.0
 40
1.0
  0
LINE
  5
34CC
  8
_0-0_
  6
CENTER1
 62
     7
 10
1199.678653917209
 20
2378.4555582555458
 30
0.0
 11
1199.678653917209
 21
2373.4555582555458
 31
0.0
  0
TEXT
  5
34CD
  8
_0-0_
 62
     4
 10
1159.1882177616301
 20
2370.0613003583121
 30
0.0
 40
2.0
  1
日付
  7
JAPANESE
  0
TEXT
  5
34CE
  8
_0-0_
 62
     4
 10
1210.3154012472251
 20
2376.1127289139981
 30
0.0
 40
2.0
  1
単位
  7
JAPANESE
  0
TEXT
  5
34CF
  8
_0-0_
 62
     4
 10
1210.3008703241039
 20
2373.5572720512382
 30
0.0
 40
1.6000000000000001
  1
mm
  7
JAPANESE
  0
LINE
  5
34D0
  8
_0-0_
  6
CONTINUOUS
 62
     2
 10
1202.678653917209
 20
2376.9555582555458
 30
0.0
 11
1206.178653917209
 21
2377.9555582555458
 31
0.0
  0
LINE
  5
34D1
  8
_0-0_
  6
CONTINUOUS
 62
     2
 10
1206.178653917209
 20
2377.9555582555458
 30
0.0
 11
1206.178653917209
 21
2373.9555582555458
 31
0.0
  0
LINE
  5
34D2
  8
_0-0_
  6
CONTINUOUS
 62
     2
 10
1202.678653917209
 20
2374.9555582555458
 30
0.0
 11
1206.178653917209
 21
2373.9555582555458
 31
0.0
  0
LINE
  5
34D3
  8
_0-0_
  6
CONTINUOUS
 62
     2
 10
1202.678653917209
 20
2376.9555582555458
 30
0.0
 11
1202.678653917209
 21
2374.9555582555458
 31
0.0
  0
LINE
  5
34D4
  8
_0-0_
  6
CENTER1
 62
     7
 10
1197.178653917209
 20
2375.9555582555458
 30
0.0
 11
1206.678653917209
 21
2375.9555582555458
 31
0.0
  0
LINE
  5
34D5
  8
_0-0_
  6
CONTINUOUS
 62
     1
 10
1152.178653917209
 20
2370.3305582561079
 30
0.0
 11
1084.732096966268
 21
2370.3305582561079
 31
0.0
  0
LINE
  5
34D6
  8
_0-0_
  6
CONTINUOUS
 62
     1
 10
1084.732096966268
 20
2361.3305582570092
 30
0.0
 11
1084.732096966268
 21
2379.330558255208
 31
0.0
  0
TEXT
  5
34D7
  8
_0-0_
 62
     4
 10
1086.2032477205109
 20
2376.5691255486231
 30
0.0
 40
2.0
  1
品番
  7
JAPANESE
  0
TEXT
  5
34D8
  8
_0-0_
 62
     4
 10
1085.927678329595
 20
2367.4419149479768
 30
0.0
 40
2.0
  1
名称
  7
JAPANESE
  0
TEXT
  5
34D9
  8
_0-0_
 62
     4
 10
1199.832768140021
 20
2369.9831180190172
 30
0.0
 40
2.0
  1
検図
  7
JAPANESE
  0
TEXT
  5
34DA
  8
_0-0_
 62
     4
 10
1174.260261904041
 20
2364.2308244783881
 30
0.0
 40
2.0
  1
S=1：1
  7
JAPANESE
  0
TEXT
  5
34DB
  8
_0-0_
 62
     3
 10
1101.819498369912
 20
2372.464814134994
 30
0.0
 40
4.0
  1
GI-FLAVABO
  7
JAPANESE
  0
TEXT
  5
34DC
  8
_0-0_
 62
     4
 10
1156.1106151398531
 20
2364.529551972083
 30
0.0
 40
2.0
  1
07.08.24
  7
JAPANESE
  0
LINE
  5
36C8
  8
_0-0_
  6
CONTINUOUS
 62
     1
 10
1217.178653917209
 20
2361.3305582570092
 30
0.0
 11
1217.178653917209
 21
2553.7771152079499
 31
0.0
  0
LINE
  5
36C9
  8
_0-0_
  6
CONTINUOUS
 62
     1
 10
1024.732096966268
 20
2361.3305582570079
 30
0.0
 11
1024.732096966268
 21
2379.330558255208
 31
0.0
  0
TEXT
  5
36CA
  8
_0-0_
 62
     3
 10
1089.1345372642791
 20
2363.0334569145639
 30
0.0
 40
3.2000000000000002
  1
陶器洗面器用壁取り付けネジキット
  7
JAPANESE
  0
LINE
  5
37D2
  8
太線
 10
959.03542421369025
 20
2516.6336288297748
 30
0.0
 11
1067.0354242136871
 21
2516.6336288297748
 31
0.0
  0
LINE
  5
37D3
  8
太線
 10
959.03542421368775
 20
2525.6336288297748
 30
0.0
 11
1067.0354242136871
 21
2525.6336288297748
 31
0.0
  0
LINE
  5
37D4
  8
太線
 10
1067.0354242136871
 20
2525.6336288297748
 30
0.0
 11
1067.0354242136871
 21
2516.6336288297748
 31
0.0
  0
LINE
  5
3A22
  8
太線
 10
1066.507646435909
 20
2526.1336288297762
 30
0.0
 11
1067.0354242136871
 21
2516.6336288297748
 31
0.0
  0
LINE
  5
3A42
  8
太線
 10
952.03542421368729
 20
2521.1336288297762
 30
0.0
 11
1067.0354242136871
 21
2521.1336288297762
 31
0.0
  0
LINE
  5
3A4D
  8
太線
 10
1065.005333404466
 20
2526.1336288297762
 30
0.0
 11
1065.560888960021
 21
2516.1336288297762
 31
0.0
  0
LINE
  5
3A4E
  8
太線
 10
1063.503020373023
 20
2526.1336288297762
 30
0.0
 11
1064.058575928578
 21
2516.1336288297762
 31
0.0
  0
LINE
  5
3A4F
  8
太線
 10
1062.0007073415791
 20
2526.1336288297762
 30
0.0
 11
1062.556262897135
 21
2516.1336288297762
 31
0.0
  0
LINE
  5
3A50
  8
太線
 10
1060.4983943101361
 20
2526.1336288297762
 30
0.0
 11
1061.0539498656919
 21
2516.1336288297762
 31
0.0
  0
LINE
  5
3A51
  8
太線
 10
1058.9960812786931
 20
2526.1336288297762
 30
0.0
 11
1059.551636834248
 21
2516.1336288297762
 31
0.0
  0
LINE
  5
3A52
  8
太線
 10
1057.4937682472489
 20
2526.1336288297762
 30
0.0
 11
1058.049281034838
 21
2516.134398653172
 31
0.0
  0
LINE
  5
3A53
  8
太線
 10
1055.9914552158059
 20
2526.1336288297762
 30
0.0
 11
1056.547010771362
 21
2516.1336288297762
 31
0.0
  0
LINE
  5
3A54
  8
太線
 10
1054.4891421843629
 20
2526.1336288297762
 30
0.0
 11
1055.0446977399181
 21
2516.1336288297762
 31
0.0
  0
LINE
  5
3A55
  8
太線
 10
1052.986829152919
 20
2526.1336288297762
 30
0.0
 11
1053.5423847084751
 21
2516.1336288297762
 31
0.0
  0
LINE
  5
3A56
  8
太線
 10
1051.484516121476
 20
2526.1336288297762
 30
0.0
 11
1052.0400716770321
 21
2516.1336288297762
 31
0.0
  0
LINE
  5
3A57
  8
太線
 10
1049.982203090033
 20
2526.1336288297762
 30
0.0
 11
1050.5377586455891
 21
2516.1336288297762
 31
0.0
  0
LINE
  5
3A5A
  8
太線
 10
1049.909826665714
 20
2525.6336288297762
 30
0.0
 11
1050.4098266657149
 21
2516.6336288297748
 31
0.0
  0
LINE
  5
3A5B
  8
太線
 10
1050.1101350699071
 20
2525.6336288297771
 30
0.0
 11
1050.6101350699071
 21
2516.6336288297748
 31
0.0
  0
LINE
  5
3A5C
  8
太線
 10
1049.982203090033
 20
2526.1336288297748
 30
0.0
 11
1049.909826665714
 21
2525.6336288297748
 31
0.0
  0
LINE
  5
3A5D
  8
太線
 10
1049.982203090033
 20
2526.1336288297748
 30
0.0
 11
1050.1101350699071
 21
2525.6336288297748
 31
0.0
  0
LINE
  5
3A5E
  8
太線
 10
1050.5377586455891
 20
2516.1336288297762
 30
0.0
 11
1050.409826665714
 21
2516.6336288297748
 31
0.0
  0
LINE
  5
3A5F
  8
太線
 10
1050.5377586455891
 20
2516.1336288297762
 30
0.0
 11
1050.6101350699071
 21
2516.6336288297748
 31
0.0
  0
LINE
  5
3A60
  8
太線
 10
1051.6124481013501
 20
2525.6336288297771
 30
0.0
 11
1052.112448101351
 21
2516.6336288297748
 31
0.0
  0
LINE
  5
3A61
  8
太線
 10
1051.412139697158
 20
2525.6336288297762
 30
0.0
 11
1051.912139697158
 21
2516.6336288297748
 31
0.0
  0
LINE
  5
3A62
  8
太線
 10
1051.484516121476
 20
2526.1336288297748
 30
0.0
 11
1051.412139697158
 21
2525.6336288297748
 31
0.0
  0
LINE
  5
3A63
  8
太線
 10
1051.484516121476
 20
2526.1336288297748
 30
0.0
 11
1051.6124481013501
 21
2525.6336288297748
 31
0.0
  0
LINE
  5
3A64
  8
太線
 10
1052.0400716770321
 20
2516.1336288297762
 30
0.0
 11
1051.912139697158
 21
2516.6336288297748
 31
0.0
  0
LINE
  5
3A65
  8
太線
 10
1052.0400716770321
 20
2516.1336288297762
 30
0.0
 11
1052.112448101351
 21
2516.6336288297748
 31
0.0
  0
LINE
  5
3A66
  8
太線
 10
1053.114761132794
 20
2525.6336288297771
 30
0.0
 11
1053.614761132794
 21
2516.6336288297748
 31
0.0
  0
LINE
  5
3A67
  8
太線
 10
1052.914452728601
 20
2525.6336288297762
 30
0.0
 11
1053.4144527286021
 21
2516.6336288297748
 31
0.0
  0
LINE
  5
3A68
  8
太線
 10
1052.986829152919
 20
2526.1336288297748
 30
0.0
 11
1052.914452728601
 21
2525.6336288297748
 31
0.0
  0
LINE
  5
3A69
  8
太線
 10
1052.986829152919
 20
2526.1336288297748
 30
0.0
 11
1053.114761132794
 21
2525.6336288297748
 31
0.0
  0
LINE
  5
3A6A
  8
太線
 10
1053.5423847084751
 20
2516.1336288297762
 30
0.0
 11
1053.414452728601
 21
2516.6336288297748
 31
0.0
  0
LINE
  5
3A6B
  8
太線
 10
1053.5423847084751
 20
2516.1336288297762
 30
0.0
 11
1053.614761132794
 21
2516.6336288297748
 31
0.0
  0
LINE
  5
3A6C
  8
太線
 10
1054.617074164237
 20
2525.6336288297771
 30
0.0
 11
1055.117074164237
 21
2516.6336288297739
 31
0.0
  0
LINE
  5
3A6D
  8
太線
 10
1054.416765760044
 20
2525.6336288297748
 30
0.0
 11
1054.9167657600451
 21
2516.6336288297748
 31
0.0
  0
LINE
  5
3A6E
  8
太線
 10
1054.4891421843629
 20
2526.1336288297748
 30
0.0
 11
1054.416765760044
 21
2525.6336288297748
 31
0.0
  0
LINE
  5
3A6F
  8
太線
 10
1054.4891421843629
 20
2526.1336288297748
 30
0.0
 11
1054.617074164237
 21
2525.6336288297748
 31
0.0
  0
LINE
  5
3A70
  8
太線
 10
1055.044697739919
 20
2516.1336288297748
 30
0.0
 11
1054.9167657600451
 21
2516.6336288297748
 31
0.0
  0
LINE
  5
3A71
  8
太線
 10
1055.044697739919
 20
2516.1336288297748
 30
0.0
 11
1055.117074164237
 21
2516.6336288297748
 31
0.0
  0
LINE
  5
3A72
  8
太線
 10
1056.11938719568
 20
2525.6336288297771
 30
0.0
 11
1056.61938719568
 21
2516.6336288297748
 31
0.0
  0
LINE
  5
3A73
  8
太線
 10
1055.9190787914879
 20
2525.6336288297762
 30
0.0
 11
1056.4190787914879
 21
2516.6336288297748
 31
0.0
  0
LINE
  5
3A74
  8
太線
 10
1055.9914552158059
 20
2526.1336288297748
 30
0.0
 11
1055.9190787914879
 21
2525.6336288297748
 31
0.0
  0
LINE
  5
3A75
  8
太線
 10
1055.9914552158059
 20
2526.1336288297748
 30
0.0
 11
1056.11938719568
 21
2525.6336288297748
 31
0.0
  0
LINE
  5
3A76
  8
太線
 10
1056.547010771362
 20
2516.1336288297762
 30
0.0
 11
1056.4190787914879
 21
2516.6336288297748
 31
0.0
  0
LINE
  5
3A77
  8
太線
 10
1056.547010771362
 20
2516.1336288297762
 30
0.0
 11
1056.61938719568
 21
2516.6336288297748
 31
0.0
  0
LINE
  5
3A78
  8
太線
 10
1057.621700227123
 20
2525.6336288297771
 30
0.0
 11
1058.1217002271239
 21
2516.6336288297739
 31
0.0
  0
LINE
  5
3A79
  8
太線
 10
1057.4213918229309
 20
2525.6336288297748
 30
0.0
 11
1057.9213918229309
 21
2516.6336288297748
 31
0.0
  0
LINE
  5
3A7A
  8
太線
 10
1057.4937682472489
 20
2526.1336288297748
 30
0.0
 11
1057.4213918229309
 21
2525.6336288297748
 31
0.0
  0
LINE
  5
3A7B
  8
太線
 10
1057.4937682472489
 20
2526.1336288297748
 30
0.0
 11
1057.621700227123
 21
2525.6336288297748
 31
0.0
  0
LINE
  5
3A7C
  8
太線
 10
1058.049323802805
 20
2516.1336288297748
 30
0.0
 11
1057.9213918229309
 21
2516.6336288297748
 31
0.0
  0
LINE
  5
3A7D
  8
太線
 10
1058.049323802805
 20
2516.1336288297748
 30
0.0
 11
1058.1217002271239
 21
2516.6336288297748
 31
0.0
  0
LINE
  5
3A7E
  8
太線
 10
1059.1240132585669
 20
2525.6336288297771
 30
0.0
 11
1059.6240132585669
 21
2516.6336288297739
 31
0.0
  0
LINE
  5
3A7F
  8
太線
 10
1058.9237048543739
 20
2525.6336288297748
 30
0.0
 11
1059.423704854375
 21
2516.6336288297748
 31
0.0
  0
LINE
  5
3A80
  8
太線
 10
1058.9960812786931
 20
2526.1336288297748
 30
0.0
 11
1058.9237048543739
 21
2525.6336288297748
 31
0.0
  0
LINE
  5
3A81
  8
太線
 10
1058.9960812786931
 20
2526.1336288297748
 30
0.0
 11
1059.1240132585669
 21
2525.6336288297748
 31
0.0
  0
LINE
  5
3A82
  8
太線
 10
1059.5516368342489
 20
2516.1336288297748
 30
0.0
 11
1059.4237048543739
 21
2516.6336288297748
 31
0.0
  0
LINE
  5
3A83
  8
太線
 10
1059.5516368342489
 20
2516.1336288297748
 30
0.0
 11
1059.6240132585669
 21
2516.6336288297748
 31
0.0
  0
LINE
  5
3A84
  8
太線
 10
1060.62632629001
 20
2525.6336288297771
 30
0.0
 11
1061.12632629001
 21
2516.6336288297748
 31
0.0
  0
LINE
  5
3A85
  8
太線
 10
1060.4260178858181
 20
2525.6336288297762
 30
0.0
 11
1060.9260178858181
 21
2516.6336288297748
 31
0.0
  0
LINE
  5
3A86
  8
太線
 10
1060.4983943101361
 20
2526.1336288297748
 30
0.0
 11
1060.4260178858181
 21
2525.6336288297748
 31
0.0
  0
LINE
  5
3A87
  8
太線
 10
1060.4983943101361
 20
2526.1336288297748
 30
0.0
 11
1060.62632629001
 21
2525.6336288297748
 31
0.0
  0
LINE
  5
3A88
  8
太線
 10
1061.0539498656919
 20
2516.1336288297762
 30
0.0
 11
1060.9260178858181
 21
2516.6336288297748
 31
0.0
  0
LINE
  5
3A89
  8
太線
 10
1061.0539498656919
 20
2516.1336288297762
 30
0.0
 11
1061.12632629001
 21
2516.6336288297748
 31
0.0
  0
LINE
  5
3A8A
  8
太線
 10
1062.128639321453
 20
2525.6336288297771
 30
0.0
 11
1062.628639321453
 21
2516.6336288297739
 31
0.0
  0
LINE
  5
3A8B
  8
太線
 10
1061.9283309172611
 20
2525.6336288297748
 30
0.0
 11
1062.4283309172611
 21
2516.6336288297748
 31
0.0
  0
LINE
  5
3A8C
  8
太線
 10
1062.0007073415791
 20
2526.1336288297748
 30
0.0
 11
1061.9283309172611
 21
2525.6336288297748
 31
0.0
  0
LINE
  5
3A8D
  8
太線
 10
1062.0007073415791
 20
2526.1336288297748
 30
0.0
 11
1062.128639321453
 21
2525.6336288297748
 31
0.0
  0
LINE
  5
3A8E
  8
太線
 10
1062.556262897135
 20
2516.1336288297748
 30
0.0
 11
1062.4283309172611
 21
2516.6336288297748
 31
0.0
  0
LINE
  5
3A8F
  8
太線
 10
1062.556262897135
 20
2516.1336288297748
 30
0.0
 11
1062.628639321453
 21
2516.6336288297748
 31
0.0
  0
LINE
  5
3A90
  8
太線
 10
1063.630952352896
 20
2525.6336288297771
 30
0.0
 11
1064.1309523528971
 21
2516.6336288297739
 31
0.0
  0
LINE
  5
3A91
  8
太線
 10
1063.4306439487041
 20
2525.6336288297748
 30
0.0
 11
1063.930643948705
 21
2516.6336288297748
 31
0.0
  0
LINE
  5
3A92
  8
太線
 10
1063.503020373023
 20
2526.1336288297748
 30
0.0
 11
1063.4306439487041
 21
2525.6336288297748
 31
0.0
  0
LINE
  5
3A93
  8
太線
 10
1063.503020373023
 20
2526.1336288297748
 30
0.0
 11
1063.6309523528971
 21
2525.6336288297748
 31
0.0
  0
LINE
  5
3A94
  8
太線
 10
1064.058575928578
 20
2516.1336288297748
 30
0.0
 11
1063.9306439487041
 21
2516.6336288297748
 31
0.0
  0
LINE
  5
3A95
  8
太線
 10
1064.058575928578
 20
2516.1336288297748
 30
0.0
 11
1064.1309523528971
 21
2516.6336288297748
 31
0.0
  0
LINE
  5
3A96
  8
太線
 10
1065.1332653843399
 20
2525.6336288297771
 30
0.0
 11
1065.6332653843399
 21
2516.6336288297739
 31
0.0
  0
LINE
  5
3A97
  8
太線
 10
1064.932956980148
 20
2525.6336288297748
 30
0.0
 11
1065.432956980148
 21
2516.6336288297748
 31
0.0
  0
LINE
  5
3A98
  8
太線
 10
1065.005333404466
 20
2526.1336288297748
 30
0.0
 11
1064.932956980148
 21
2525.6336288297748
 31
0.0
  0
LINE
  5
3A99
  8
太線
 10
1065.005333404466
 20
2526.1336288297748
 30
0.0
 11
1065.1332653843399
 21
2525.6336288297748
 31
0.0
  0
LINE
  5
3A9A
  8
太線
 10
1065.5608889600221
 20
2516.1336288297748
 30
0.0
 11
1065.432956980148
 21
2516.6336288297748
 31
0.0
  0
LINE
  5
3A9B
  8
太線
 10
1065.5608889600221
 20
2516.1336288297748
 30
0.0
 11
1065.6332653843399
 21
2516.6336288297748
 31
0.0
  0
LINE
  5
3A9C
  8
太線
 10
1066.6355784157829
 20
2525.6336288297771
 30
0.0
 11
1067.135578415784
 21
2516.6336288297739
 31
0.0
  0
LINE
  5
3A9D
  8
太線
 10
1066.435270011591
 20
2525.6336288297748
 30
0.0
 11
1066.935270011591
 21
2516.6336288297748
 31
0.0
  0
LINE
  5
3A9E
  8
太線
 10
1066.507646435909
 20
2526.1336288297748
 30
0.0
 11
1066.435270011591
 21
2525.6336288297748
 31
0.0
  0
LINE
  5
3A9F
  8
太線
 10
1066.507646435909
 20
2526.1336288297748
 30
0.0
 11
1066.6355784157829
 21
2525.6336288297748
 31
0.0
  0
LINE
  5
3AA0
  8
太線
 10
1067.0632019914649
 20
2516.1336288297748
 30
0.0
 11
1066.935270011591
 21
2516.6336288297748
 31
0.0
  0
LINE
  5
3AA1
  8
太線
 10
1067.0632019914649
 20
2516.1336288297748
 30
0.0
 11
1067.135578415784
 21
2516.6336288297748
 31
0.0
  0
LINE
  5
3AA2
  8
太線
 10
1048.479890058589
 20
2526.1336288297762
 30
0.0
 11
1049.0354456141449
 21
2516.1336288297762
 31
0.0
  0
LINE
  5
3AA3
  8
太線
 10
1046.977577027146
 20
2526.1336288297762
 30
0.0
 11
1047.5331325827019
 21
2516.1336288297762
 31
0.0
  0
LINE
  5
3AA4
  8
太線
 10
1045.475263995703
 20
2526.1336288297762
 30
0.0
 11
1046.030819551258
 21
2516.1336288297762
 31
0.0
  0
LINE
  5
3AA5
  8
太線
 10
1043.97295096426
 20
2526.1336288297762
 30
0.0
 11
1044.528506519815
 21
2516.1336288297762
 31
0.0
  0
LINE
  5
3AA6
  8
太線
 10
1042.4706379328161
 20
2526.1336288297762
 30
0.0
 11
1043.026193488372
 21
2516.1336288297762
 31
0.0
  0
LINE
  5
3AA7
  8
太線
 10
1042.59856991269
 20
2525.633628829778
 30
0.0
 11
1043.09856991269
 21
2516.6336288297748
 31
0.0
  0
LINE
  5
3AA8
  8
太線
 10
1042.3982615084981
 20
2525.6336288297771
 30
0.0
 11
1042.8982615084981
 21
2516.6336288297748
 31
0.0
  0
LINE
  5
3AA9
  8
太線
 10
1042.4706379328161
 20
2526.1336288297762
 30
0.0
 11
1042.3982615084981
 21
2525.6336288297762
 31
0.0
  0
LINE
  5
3AAA
  8
太線
 10
1042.4706379328161
 20
2526.1336288297762
 30
0.0
 11
1042.59856991269
 21
2525.6336288297762
 31
0.0
  0
LINE
  5
3AAB
  8
太線
 10
1043.026193488372
 20
2516.1336288297762
 30
0.0
 11
1042.8982615084981
 21
2516.6336288297762
 31
0.0
  0
LINE
  5
3AAC
  8
太線
 10
1043.026193488372
 20
2516.1336288297762
 30
0.0
 11
1043.09856991269
 21
2516.6336288297762
 31
0.0
  0
LINE
  5
3AAD
  8
太線
 10
1044.1008829441339
 20
2525.633628829778
 30
0.0
 11
1044.6008829441339
 21
2516.6336288297748
 31
0.0
  0
LINE
  5
3AAE
  8
太線
 10
1043.9005745399411
 20
2525.6336288297771
 30
0.0
 11
1044.400574539942
 21
2516.6336288297748
 31
0.0
  0
LINE
  5
3AAF
  8
太線
 10
1043.97295096426
 20
2526.1336288297762
 30
0.0
 11
1043.9005745399411
 21
2525.6336288297762
 31
0.0
  0
LINE
  5
3AB0
  8
太線
 10
1043.97295096426
 20
2526.1336288297762
 30
0.0
 11
1044.1008829441339
 21
2525.6336288297762
 31
0.0
  0
LINE
  5
3AB1
  8
太線
 10
1044.528506519815
 20
2516.1336288297762
 30
0.0
 11
1044.4005745399411
 21
2516.6336288297762
 31
0.0
  0
LINE
  5
3AB2
  8
太線
 10
1044.528506519815
 20
2516.1336288297762
 30
0.0
 11
1044.6008829441339
 21
2516.6336288297762
 31
0.0
  0
LINE
  5
3AB3
  8
太線
 10
1045.6031959755769
 20
2525.633628829778
 30
0.0
 11
1046.1031959755769
 21
2516.6336288297748
 31
0.0
  0
LINE
  5
3AB4
  8
太線
 10
1045.4028875713841
 20
2525.6336288297771
 30
0.0
 11
1045.902887571385
 21
2516.6336288297748
 31
0.0
  0
LINE
  5
3AB5
  8
太線
 10
1045.475263995703
 20
2526.1336288297762
 30
0.0
 11
1045.4028875713841
 21
2525.6336288297762
 31
0.0
  0
LINE
  5
3AB6
  8
太線
 10
1045.475263995703
 20
2526.1336288297762
 30
0.0
 11
1045.6031959755769
 21
2525.6336288297762
 31
0.0
  0
LINE
  5
3AB7
  8
太線
 10
1046.0308195512589
 20
2516.1336288297762
 30
0.0
 11
1045.902887571385
 21
2516.6336288297762
 31
0.0
  0
LINE
  5
3AB8
  8
太線
 10
1046.0308195512589
 20
2516.1336288297762
 30
0.0
 11
1046.1031959755769
 21
2516.6336288297762
 31
0.0
  0
LINE
  5
3AB9
  8
太線
 10
1047.1055090070199
 20
2525.6336288297771
 30
0.0
 11
1047.6055090070211
 21
2516.6336288297748
 31
0.0
  0
LINE
  5
3ABA
  8
太線
 10
1046.905200602828
 20
2525.6336288297762
 30
0.0
 11
1047.405200602828
 21
2516.6336288297748
 31
0.0
  0
LINE
  5
3ABB
  8
太線
 10
1046.977577027146
 20
2526.1336288297748
 30
0.0
 11
1046.905200602828
 21
2525.6336288297748
 31
0.0
  0
LINE
  5
3ABC
  8
太線
 10
1046.977577027146
 20
2526.1336288297748
 30
0.0
 11
1047.1055090070199
 21
2525.6336288297748
 31
0.0
  0
LINE
  5
3ABD
  8
太線
 10
1047.5331325827019
 20
2516.1336288297762
 30
0.0
 11
1047.405200602828
 21
2516.6336288297748
 31
0.0
  0
LINE
  5
3ABE
  8
太線
 10
1047.5331325827019
 20
2516.1336288297762
 30
0.0
 11
1047.6055090070211
 21
2516.6336288297748
 31
0.0
  0
LINE
  5
3ABF
  8
太線
 10
1048.6078220384629
 20
2525.633628829778
 30
0.0
 11
1049.1078220384641
 21
2516.6336288297748
 31
0.0
  0
LINE
  5
3AC0
  8
太線
 10
1048.407513634271
 20
2525.6336288297771
 30
0.0
 11
1048.9075136342719
 21
2516.6336288297748
 31
0.0
  0
LINE
  5
3AC1
  8
太線
 10
1048.479890058589
 20
2526.1336288297762
 30
0.0
 11
1048.407513634271
 21
2525.6336288297762
 31
0.0
  0
LINE
  5
3AC2
  8
太線
 10
1048.479890058589
 20
2526.1336288297762
 30
0.0
 11
1048.6078220384629
 21
2525.6336288297762
 31
0.0
  0
LINE
  5
3AC3
  8
太線
 10
1049.0354456141449
 20
2516.1336288297762
 30
0.0
 11
1048.907513634271
 21
2516.6336288297762
 31
0.0
  0
LINE
  5
3AC4
  8
太線
 10
1049.0354456141449
 20
2516.1336288297762
 30
0.0
 11
1049.1078220384641
 21
2516.6336288297762
 31
0.0
  0
LINE
  5
3AC5
  8
太線
 10
1040.9683249013731
 20
2526.1336288297762
 30
0.0
 11
1041.523880456929
 21
2516.1336288297762
 31
0.0
  0
LINE
  5
3AC6
  8
太線
 10
1039.4660118699301
 20
2526.1336288297762
 30
0.0
 11
1040.021567425485
 21
2516.1336288297762
 31
0.0
  0
LINE
  5
3AC7
  8
太線
 10
1037.9636988384871
 20
2526.1336288297762
 30
0.0
 11
1038.519254394042
 21
2516.1336288297762
 31
0.0
  0
LINE
  5
3AC8
  8
太線
 10
1036.4613858070429
 20
2526.1336288297762
 30
0.0
 11
1037.0169413625979
 21
2516.1336288297762
 31
0.0
  0
LINE
  5
3AC9
  8
太線
 10
1034.9590727755999
 20
2526.1336288297762
 30
0.0
 11
1035.514628331156
 21
2516.1336288297762
 31
0.0
  0
LINE
  5
3ACA
  8
太線
 10
1035.087004755474
 20
2525.633628829778
 30
0.0
 11
1035.587004755474
 21
2516.6336288297748
 31
0.0
  0
LINE
  5
3ACB
  8
太線
 10
1034.886696351281
 20
2525.6336288297771
 30
0.0
 11
1035.3866963512819
 21
2516.6336288297748
 31
0.0
  0
LINE
  5
3ACC
  8
太線
 10
1034.9590727755999
 20
2526.1336288297762
 30
0.0
 11
1034.886696351281
 21
2525.6336288297762
 31
0.0
  0
LINE
  5
3ACD
  8
太線
 10
1034.9590727755999
 20
2526.1336288297762
 30
0.0
 11
1035.087004755474
 21
2525.6336288297762
 31
0.0
  0
LINE
  5
3ACE
  8
太線
 10
1035.514628331156
 20
2516.1336288297762
 30
0.0
 11
1035.386696351281
 21
2516.6336288297762
 31
0.0
  0
LINE
  5
3ACF
  8
太線
 10
1035.514628331156
 20
2516.1336288297762
 30
0.0
 11
1035.587004755474
 21
2516.6336288297762
 31
0.0
  0
LINE
  5
3AD0
  8
太線
 10
1036.589317786917
 20
2525.633628829778
 30
0.0
 11
1037.0893177869179
 21
2516.6336288297748
 31
0.0
  0
LINE
  5
3AD1
  8
太線
 10
1036.3890093827249
 20
2525.6336288297771
 30
0.0
 11
1036.8890093827249
 21
2516.6336288297748
 31
0.0
  0
LINE
  5
3AD2
  8
太線
 10
1036.4613858070429
 20
2526.1336288297762
 30
0.0
 11
1036.3890093827249
 21
2525.6336288297762
 31
0.0
  0
LINE
  5
3AD3
  8
太線
 10
1036.4613858070429
 20
2526.1336288297762
 30
0.0
 11
1036.589317786917
 21
2525.6336288297762
 31
0.0
  0
LINE
  5
3AD4
  8
太線
 10
1037.016941362599
 20
2516.1336288297762
 30
0.0
 11
1036.8890093827249
 21
2516.6336288297762
 31
0.0
  0
LINE
  5
3AD5
  8
太線
 10
1037.016941362599
 20
2516.1336288297762
 30
0.0
 11
1037.0893177869179
 21
2516.6336288297762
 31
0.0
  0
LINE
  5
3AD6
  8
太線
 10
1038.09163081836
 20
2525.633628829778
 30
0.0
 11
1038.591630818361
 21
2516.6336288297748
 31
0.0
  0
LINE
  5
3AD7
  8
太線
 10
1037.8913224141679
 20
2525.6336288297771
 30
0.0
 11
1038.3913224141679
 21
2516.6336288297748
 31
0.0
  0
LINE
  5
3AD8
  8
太線
 10
1037.9636988384871
 20
2526.1336288297762
 30
0.0
 11
1037.8913224141679
 21
2525.6336288297762
 31
0.0
  0
LINE
  5
3AD9
  8
太線
 10
1037.9636988384871
 20
2526.1336288297762
 30
0.0
 11
1038.09163081836
 21
2525.6336288297762
 31
0.0
  0
LINE
  5
3ADA
  8
太線
 10
1038.519254394042
 20
2516.1336288297762
 30
0.0
 11
1038.3913224141679
 21
2516.6336288297762
 31
0.0
  0
LINE
  5
3ADB
  8
太線
 10
1038.519254394042
 20
2516.1336288297762
 30
0.0
 11
1038.591630818361
 21
2516.6336288297762
 31
0.0
  0
LINE
  5
3ADC
  8
太線
 10
1039.593943849804
 20
2525.6336288297771
 30
0.0
 11
1040.093943849804
 21
2516.6336288297748
 31
0.0
  0
LINE
  5
3ADD
  8
太線
 10
1039.3936354456109
 20
2525.6336288297762
 30
0.0
 11
1039.8936354456121
 21
2516.6336288297748
 31
0.0
  0
LINE
  5
3ADE
  8
太線
 10
1039.4660118699301
 20
2526.1336288297748
 30
0.0
 11
1039.3936354456109
 21
2525.6336288297748
 31
0.0
  0
LINE
  5
3ADF
  8
太線
 10
1039.4660118699301
 20
2526.1336288297748
 30
0.0
 11
1039.593943849804
 21
2525.6336288297748
 31
0.0
  0
LINE
  5
3AE0
  8
太線
 10
1040.021567425486
 20
2516.1336288297762
 30
0.0
 11
1039.8936354456121
 21
2516.6336288297748
 31
0.0
  0
LINE
  5
3AE1
  8
太線
 10
1040.021567425486
 20
2516.1336288297762
 30
0.0
 11
1040.093943849804
 21
2516.6336288297748
 31
0.0
  0
LINE
  5
3AE2
  8
太線
 10
1041.096256881247
 20
2525.633628829778
 30
0.0
 11
1041.596256881247
 21
2516.6336288297748
 31
0.0
  0
LINE
  5
3AE3
  8
太線
 10
1040.8959484770551
 20
2525.6336288297771
 30
0.0
 11
1041.3959484770551
 21
2516.6336288297748
 31
0.0
  0
LINE
  5
3AE4
  8
太線
 10
1040.9683249013731
 20
2526.1336288297762
 30
0.0
 11
1040.8959484770551
 21
2525.6336288297762
 31
0.0
  0
LINE
  5
3AE5
  8
太線
 10
1040.9683249013731
 20
2526.1336288297762
 30
0.0
 11
1041.096256881247
 21
2525.6336288297762
 31
0.0
  0
LINE
  5
3AE6
  8
太線
 10
1041.523880456929
 20
2516.1336288297762
 30
0.0
 11
1041.3959484770551
 21
2516.6336288297762
 31
0.0
  0
LINE
  5
3AE7
  8
太線
 10
1041.523880456929
 20
2516.1336288297762
 30
0.0
 11
1041.596256881247
 21
2516.6336288297762
 31
0.0
  0
LINE
  5
3AE8
  8
太線
 10
1033.456759744156
 20
2526.1336288297762
 30
0.0
 11
1034.0123152997121
 21
2516.1336288297762
 31
0.0
  0
LINE
  5
3AE9
  8
太線
 10
1031.954446712713
 20
2526.1336288297762
 30
0.0
 11
1032.5100022682691
 21
2516.1336288297762
 31
0.0
  0
LINE
  5
3AEA
  8
太線
 10
1030.45213368127
 20
2526.1336288297762
 30
0.0
 11
1031.0076892368249
 21
2516.1336288297762
 31
0.0
  0
LINE
  5
3AEB
  8
太線
 10
1028.949820649827
 20
2526.1336288297762
 30
0.0
 11
1029.5053762053819
 21
2516.1336288297762
 31
0.0
  0
LINE
  5
3AEC
  8
太線
 10
1027.447507618383
 20
2526.1336288297762
 30
0.0
 11
1028.0030631739389
 21
2516.1336288297762
 31
0.0
  0
LINE
  5
3AED
  8
太線
 10
1027.5754395982569
 20
2525.633628829778
 30
0.0
 11
1028.0754395982581
 21
2516.6336288297748
 31
0.0
  0
LINE
  5
3AEE
  8
太線
 10
1027.375131194065
 20
2525.6336288297771
 30
0.0
 11
1027.8751311940659
 21
2516.6336288297748
 31
0.0
  0
LINE
  5
3AEF
  8
太線
 10
1027.447507618383
 20
2526.1336288297762
 30
0.0
 11
1027.375131194065
 21
2525.6336288297762
 31
0.0
  0
LINE
  5
3AF0
  8
太線
 10
1027.447507618383
 20
2526.1336288297762
 30
0.0
 11
1027.5754395982569
 21
2525.6336288297762
 31
0.0
  0
LINE
  5
3AF1
  8
太線
 10
1028.0030631739389
 20
2516.1336288297762
 30
0.0
 11
1027.875131194065
 21
2516.6336288297762
 31
0.0
  0
LINE
  5
3AF2
  8
太線
 10
1028.0030631739389
 20
2516.1336288297762
 30
0.0
 11
1028.0754395982581
 21
2516.6336288297762
 31
0.0
  0
LINE
  5
3AF3
  8
太線
 10
1029.0777526297011
 20
2525.633628829778
 30
0.0
 11
1029.5777526297011
 21
2516.6336288297748
 31
0.0
  0
LINE
  5
3AF4
  8
太線
 10
1028.877444225508
 20
2525.6336288297771
 30
0.0
 11
1029.377444225509
 21
2516.6336288297748
 31
0.0
  0
LINE
  5
3AF5
  8
太線
 10
1028.949820649827
 20
2526.1336288297762
 30
0.0
 11
1028.877444225508
 21
2525.6336288297762
 31
0.0
  0
LINE
  5
3AF6
  8
太線
 10
1028.949820649827
 20
2526.1336288297762
 30
0.0
 11
1029.0777526297011
 21
2525.6336288297762
 31
0.0
  0
LINE
  5
3AF7
  8
太線
 10
1029.5053762053831
 20
2516.1336288297762
 30
0.0
 11
1029.377444225509
 21
2516.6336288297762
 31
0.0
  0
LINE
  5
3AF8
  8
太線
 10
1029.5053762053831
 20
2516.1336288297762
 30
0.0
 11
1029.5777526297011
 21
2516.6336288297762
 31
0.0
  0
LINE
  5
3AF9
  8
太線
 10
1030.5800656611441
 20
2525.633628829778
 30
0.0
 11
1031.0800656611441
 21
2516.6336288297748
 31
0.0
  0
LINE
  5
3AFA
  8
太線
 10
1030.379757256952
 20
2525.6336288297771
 30
0.0
 11
1030.879757256952
 21
2516.6336288297748
 31
0.0
  0
LINE
  5
3AFB
  8
太線
 10
1030.45213368127
 20
2526.1336288297762
 30
0.0
 11
1030.379757256952
 21
2525.6336288297762
 31
0.0
  0
LINE
  5
3AFC
  8
太線
 10
1030.45213368127
 20
2526.1336288297762
 30
0.0
 11
1030.5800656611441
 21
2525.6336288297762
 31
0.0
  0
LINE
  5
3AFD
  8
太線
 10
1031.0076892368261
 20
2516.1336288297762
 30
0.0
 11
1030.879757256952
 21
2516.6336288297762
 31
0.0
  0
LINE
  5
3AFE
  8
太線
 10
1031.0076892368261
 20
2516.1336288297762
 30
0.0
 11
1031.0800656611441
 21
2516.6336288297762
 31
0.0
  0
LINE
  5
3AFF
  8
太線
 10
1032.0823786925871
 20
2525.6336288297771
 30
0.0
 11
1032.582378692588
 21
2516.6336288297748
 31
0.0
  0
LINE
  5
3B00
  8
太線
 10
1031.882070288395
 20
2525.6336288297762
 30
0.0
 11
1032.3820702883961
 21
2516.6336288297748
 31
0.0
  0
LINE
  5
3B01
  8
太線
 10
1031.954446712713
 20
2526.1336288297748
 30
0.0
 11
1031.882070288395
 21
2525.6336288297748
 31
0.0
  0
LINE
  5
3B02
  8
太線
 10
1031.954446712713
 20
2526.1336288297748
 30
0.0
 11
1032.082378692588
 21
2525.6336288297748
 31
0.0
  0
LINE
  5
3B03
  8
太線
 10
1032.5100022682691
 20
2516.1336288297762
 30
0.0
 11
1032.382070288395
 21
2516.6336288297748
 31
0.0
  0
LINE
  5
3B04
  8
太線
 10
1032.5100022682691
 20
2516.1336288297762
 30
0.0
 11
1032.582378692588
 21
2516.6336288297748
 31
0.0
  0
LINE
  5
3B05
  8
太線
 10
1033.5846917240301
 20
2525.633628829778
 30
0.0
 11
1034.084691724031
 21
2516.6336288297748
 31
0.0
  0
LINE
  5
3B06
  8
太線
 10
1033.384383319838
 20
2525.6336288297771
 30
0.0
 11
1033.8843833198389
 21
2516.6336288297748
 31
0.0
  0
LINE
  5
3B07
  8
太線
 10
1033.456759744156
 20
2526.1336288297762
 30
0.0
 11
1033.384383319838
 21
2525.6336288297762
 31
0.0
  0
LINE
  5
3B08
  8
太線
 10
1033.456759744156
 20
2526.1336288297762
 30
0.0
 11
1033.584691724031
 21
2525.6336288297762
 31
0.0
  0
LINE
  5
3B09
  8
太線
 10
1034.0123152997121
 20
2516.1336288297762
 30
0.0
 11
1033.884383319838
 21
2516.6336288297762
 31
0.0
  0
LINE
  5
3B0A
  8
太線
 10
1034.0123152997121
 20
2516.1336288297762
 30
0.0
 11
1034.084691724031
 21
2516.6336288297762
 31
0.0
  0
LINE
  5
3B0B
  8
太線
 10
1025.94519458694
 20
2526.1336288297762
 30
0.0
 11
1026.5007501424959
 21
2516.1336288297762
 31
0.0
  0
LINE
  5
3B0C
  8
太線
 10
1024.442881555497
 20
2526.1336288297762
 30
0.0
 11
1024.998437111052
 21
2516.1336288297762
 31
0.0
  0
LINE
  5
3B0D
  8
太線
 10
1022.940568524054
 20
2526.1336288297762
 30
0.0
 11
1023.496124079609
 21
2516.1336288297762
 31
0.0
  0
LINE
  5
3B0E
  8
太線
 10
1021.43825549261
 20
2526.1336288297762
 30
0.0
 11
1021.993811048166
 21
2516.1336288297762
 31
0.0
  0
LINE
  5
3B0F
  8
太線
 10
1019.935942461167
 20
2526.1336288297762
 30
0.0
 11
1020.491498016723
 21
2516.1336288297762
 31
0.0
  0
LINE
  5
3B10
  8
太線
 10
1020.063874441041
 20
2525.633628829778
 30
0.0
 11
1020.563874441041
 21
2516.6336288297748
 31
0.0
  0
LINE
  5
3B11
  8
太線
 10
1019.8635660368481
 20
2525.6336288297771
 30
0.0
 11
1020.363566036849
 21
2516.6336288297748
 31
0.0
  0
LINE
  5
3B12
  8
太線
 10
1019.935942461167
 20
2526.1336288297762
 30
0.0
 11
1019.8635660368481
 21
2525.6336288297762
 31
0.0
  0
LINE
  5
3B13
  8
太線
 10
1019.935942461167
 20
2526.1336288297762
 30
0.0
 11
1020.063874441041
 21
2525.6336288297762
 31
0.0
  0
LINE
  5
3B14
  8
太線
 10
1020.491498016723
 20
2516.1336288297762
 30
0.0
 11
1020.363566036849
 21
2516.6336288297762
 31
0.0
  0
LINE
  5
3B15
  8
太線
 10
1020.491498016723
 20
2516.1336288297762
 30
0.0
 11
1020.563874441041
 21
2516.6336288297762
 31
0.0
  0
LINE
  5
3B16
  8
太線
 10
1021.566187472484
 20
2525.633628829778
 30
0.0
 11
1022.066187472485
 21
2516.6336288297748
 31
0.0
  0
LINE
  5
3B17
  8
太線
 10
1021.365879068292
 20
2525.6336288297771
 30
0.0
 11
1021.865879068293
 21
2516.6336288297748
 31
0.0
  0
LINE
  5
3B18
  8
太線
 10
1021.43825549261
 20
2526.1336288297762
 30
0.0
 11
1021.365879068292
 21
2525.6336288297762
 31
0.0
  0
LINE
  5
3B19
  8
太線
 10
1021.43825549261
 20
2526.1336288297762
 30
0.0
 11
1021.566187472484
 21
2525.6336288297762
 31
0.0
  0
LINE
  5
3B1A
  8
太線
 10
1021.993811048166
 20
2516.1336288297762
 30
0.0
 11
1021.865879068292
 21
2516.6336288297762
 31
0.0
  0
LINE
  5
3B1B
  8
太線
 10
1021.993811048166
 20
2516.1336288297762
 30
0.0
 11
1022.066187472485
 21
2516.6336288297762
 31
0.0
  0
LINE
  5
3B1C
  8
太線
 10
1023.068500503927
 20
2525.633628829778
 30
0.0
 11
1023.568500503928
 21
2516.6336288297748
 31
0.0
  0
LINE
  5
3B1D
  8
太線
 10
1022.868192099735
 20
2525.6336288297771
 30
0.0
 11
1023.368192099736
 21
2516.6336288297748
 31
0.0
  0
LINE
  5
3B1E
  8
太線
 10
1022.940568524054
 20
2526.1336288297762
 30
0.0
 11
1022.868192099735
 21
2525.6336288297762
 31
0.0
  0
LINE
  5
3B1F
  8
太線
 10
1022.940568524054
 20
2526.1336288297762
 30
0.0
 11
1023.068500503928
 21
2525.6336288297762
 31
0.0
  0
LINE
  5
3B20
  8
太線
 10
1023.496124079609
 20
2516.1336288297762
 30
0.0
 11
1023.368192099735
 21
2516.6336288297762
 31
0.0
  0
LINE
  5
3B21
  8
太線
 10
1023.496124079609
 20
2516.1336288297762
 30
0.0
 11
1023.568500503928
 21
2516.6336288297762
 31
0.0
  0
LINE
  5
3B22
  8
太線
 10
1024.5708135353709
 20
2525.6336288297771
 30
0.0
 11
1025.0708135353709
 21
2516.6336288297748
 31
0.0
  0
LINE
  5
3B23
  8
太線
 10
1024.370505131179
 20
2525.6336288297762
 30
0.0
 11
1024.870505131179
 21
2516.6336288297748
 31
0.0
  0
LINE
  5
3B24
  8
太線
 10
1024.442881555497
 20
2526.1336288297748
 30
0.0
 11
1024.370505131179
 21
2525.6336288297748
 31
0.0
  0
LINE
  5
3B25
  8
太線
 10
1024.442881555497
 20
2526.1336288297748
 30
0.0
 11
1024.5708135353709
 21
2525.6336288297748
 31
0.0
  0
LINE
  5
3B26
  8
太線
 10
1024.9984371110529
 20
2516.1336288297762
 30
0.0
 11
1024.870505131179
 21
2516.6336288297748
 31
0.0
  0
LINE
  5
3B27
  8
太線
 10
1024.9984371110529
 20
2516.1336288297762
 30
0.0
 11
1025.0708135353709
 21
2516.6336288297748
 31
0.0
  0
LINE
  5
3B28
  8
太線
 10
1026.0731265668139
 20
2525.633628829778
 30
0.0
 11
1026.5731265668139
 21
2516.6336288297748
 31
0.0
  0
LINE
  5
3B29
  8
太線
 10
1025.8728181626209
 20
2525.6336288297771
 30
0.0
 11
1026.372818162622
 21
2516.6336288297748
 31
0.0
  0
LINE
  5
3B2A
  8
太線
 10
1025.94519458694
 20
2526.1336288297762
 30
0.0
 11
1025.8728181626209
 21
2525.6336288297762
 31
0.0
  0
LINE
  5
3B2B
  8
太線
 10
1025.94519458694
 20
2526.1336288297762
 30
0.0
 11
1026.0731265668139
 21
2525.6336288297762
 31
0.0
  0
LINE
  5
3B2C
  8
太線
 10
1026.5007501424959
 20
2516.1336288297762
 30
0.0
 11
1026.372818162622
 21
2516.6336288297762
 31
0.0
  0
LINE
  5
3B2D
  8
太線
 10
1026.5007501424959
 20
2516.1336288297762
 30
0.0
 11
1026.5731265668139
 21
2516.6336288297762
 31
0.0
  0
LINE
  5
3B2E
  8
太線
 10
1020.035424213687
 20
2525.6336288297748
 30
0.0
 11
1020.035424213687
 21
2516.6336288297748
 31
0.0
  0
LINE
  5
3B2F
  8
太線
 10
1005.035424213687
 20
2525.6336288297748
 30
0.0
 11
1005.035424213687
 21
2516.1336288297762
 31
0.0
  0
LINE
  5
3B32
  8
太線
 10
1008.035424213687
 20
2523.6336288297762
 30
0.0
 11
1017.035424213687
 21
2523.1336288297748
 31
0.0
  0
LINE
  5
3B33
  8
太線
 10
1008.035424213686
 20
2518.6336288297762
 30
0.0
 11
1017.035424213687
 21
2519.1336288297748
 31
0.0
  0
ARC
  5
3B35
  8
太線
 10
1010.660424213687
 20
2521.1336288297762
 30
0.0
 40
3.6250000000003131
 50
136.3971810272925
 51
223.60281897269809
  0
ARC
  5
3B37
  8
太線
 10
1015.5921351742099
 20
2521.1336288297762
 30
0.0
 40
2.466390733739507
 50
305.81589369844647
 51
54.184106301553498
  0
LINE
  5
3B3A
  8
太線
 10
1008.035424213687
 20
2523.6336288297762
 30
0.0
 11
1008.035424213687
 21
2518.6336288297748
 31
0.0
  0
LINE
  5
3B3B
  8
太線
 10
1017.035424213687
 20
2523.1336288297748
 30
0.0
 11
1017.035424213687
 21
2519.1336288297748
 31
0.0
  0
LINE
  5
3B3C
  8
太線
 10
1008.606086122131
 20
2523.6019253904178
 30
0.0
 11
1008.035424213687
 21
2522.9367588372411
 31
0.0
  0
LINE
  5
3B3D
  8
太線
 10
1009.863729645849
 20
2523.5320563057671
 30
0.0
 11
1008.035424213687
 21
2521.400973777791
 31
0.0
  0
LINE
  5
3B3E
  8
太線
 10
1011.121373169568
 20
2523.462187221116
 30
0.0
 11
1008.035424213687
 21
2519.865188718341
 31
0.0
  0
LINE
  5
3B3F
  8
太線
 10
1009.23490788399
 20
2523.5669908480918
 30
0.0
 11
1008.035424213687
 21
2522.1688663075161
 31
0.0
  0
LINE
  5
3B40
  8
太線
 10
1010.492551407709
 20
2523.4971217634411
 30
0.0
 11
1008.035424213687
 21
2520.633081248066
 31
0.0
  0
LINE
  5
3B41
  8
太線
 10
1011.750194931427
 20
2523.4272526787909
 30
0.0
 11
1008.035424213687
 21
2519.0972961886141
 31
0.0
  0
LINE
  5
3B42
  8
太線
 10
1012.379016693287
 20
2523.3923181364648
 30
0.0
 11
1008.309488658525
 21
2518.6488546322671
 31
0.0
  0
LINE
  5
3B43
  8
太線
 10
1013.007838455147
 20
2523.3573835941388
 30
0.0
 11
1009.001252720131
 21
2518.6872859690229
 31
0.0
  0
LINE
  5
3B44
  8
太線
 10
1013.636660217006
 20
2523.3224490518128
 30
0.0
 11
1009.693016781737
 21
2518.7257173057792
 31
0.0
  0
LINE
  5
3B45
  8
太線
 10
1014.265481978866
 20
2523.2875145094881
 30
0.0
 11
1010.384780843343
 21
2518.7641486425341
 31
0.0
  0
LINE
  5
3B46
  8
太線
 10
1014.894303740725
 20
2523.2525799671621
 30
0.0
 11
1011.076544904948
 21
2518.8025799792899
 31
0.0
  0
LINE
  5
3B47
  8
太線
 10
1015.523125502584
 20
2523.217645424837
 30
0.0
 11
1011.7683089665539
 21
2518.8410113160448
 31
0.0
  0
LINE
  5
3B48
  8
太線
 10
1016.151947264443
 20
2523.1827108825109
 30
0.0
 11
1012.4600730281589
 21
2518.879442652802
 31
0.0
  0
LINE
  5
3B49
  8
太線
 10
1016.780769026303
 20
2523.1477763401858
 30
0.0
 11
1013.151837089765
 21
2518.9178739895578
 31
0.0
  0
LINE
  5
3B4A
  8
太線
 10
1017.035424213687
 20
2522.6767112502012
 30
0.0
 11
1013.84360115137
 21
2518.9563053263132
 31
0.0
  0
LINE
  5
3B4B
  8
太線
 10
1017.035424213687
 20
2521.908818720477
 30
0.0
 11
1014.535365212976
 21
2518.994736663069
 31
0.0
  0
LINE
  5
3B4C
  8
太線
 10
1017.035424213687
 20
2521.140926190752
 30
0.0
 11
1015.227129274581
 21
2519.0331679998249
 31
0.0
  0
LINE
  5
3B4D
  8
太線
 10
1017.035424213687
 20
2520.3730336610261
 30
0.0
 11
1015.918893336187
 21
2519.0715993365811
 31
0.0
  0
LINE
  5
3B4E
  8
太線
 10
1017.035424213687
 20
2519.605141131301
 30
0.0
 11
1016.610657397792
 21
2519.110030673337
 31
0.0
  0
LINE
  5
3B50
  8
太線
 10
1004.7342182924079
 20
2516.6336288297771
 30
0.0
 11
1002.9802399445661
 21
2525.6336288297748
 31
0.0
  0
LINE
  5
3B52
  8
太線
 10
1005.035424213687
 20
2517.179174300647
 30
0.0
 11
1003.3877653040309
 21
2525.6336288297748
 31
0.0
  0
LINE
  5
3B53
  8
太線
 10
1003.086559382751
 20
2526.1336288297748
 30
0.0
 11
1002.9802399445661
 21
2525.6336288297748
 31
0.0
  0
LINE
  5
3B54
  8
太線
 10
1003.086559382751
 20
2526.1336288297762
 30
0.0
 11
1003.3877653040309
 21
2525.6336288297748
 31
0.0
  0
LINE
  5
3B70
  8
太線
 10
1001.978984017702
 20
2516.1336288297762
 30
0.0
 11
1000.030119186767
 21
2526.1336288297748
 31
0.0
  0
LINE
  5
3B71
  8
太線
 10
1005.035424213687
 20
2516.1336288297762
 30
0.0
 11
1003.0865593827519
 21
2526.1336288297748
 31
0.0
  0
LINE
  5
3B72
  8
太線
 10
998.92254382171677
 20
2516.1336288297762
 30
0.0
 11
996.97367899078142
 21
2526.1336288297762
 31
0.0
  0
LINE
  5
3B76
  8
太線
 10
1004.7342182924079
 20
2516.6336288297748
 30
0.0
 11
1005.035424213687
 21
2516.1336288297762
 31
0.0
  0
LINE
  5
3B77
  8
太線
 10
1001.677778096422
 20
2516.6336288297762
 30
0.0
 11
999.92379974858125
 21
2525.6336288297748
 31
0.0
  0
LINE
  5
3B78
  8
太線
 10
1002.085303455888
 20
2516.6336288297748
 30
0.0
 11
1000.331325108046
 21
2525.6336288297748
 31
0.0
  0
LINE
  5
3B79
  8
太線
 10
1000.030119186766
 20
2526.1336288297748
 30
0.0
 11
999.92379974858125
 21
2525.6336288297748
 31
0.0
  0
LINE
  5
3B7A
  8
太線
 10
1000.030119186766
 20
2526.1336288297748
 30
0.0
 11
1000.331325108046
 21
2525.6336288297748
 31
0.0
  0
LINE
  5
3B7B
  8
太線
 10
1001.677778096423
 20
2516.6336288297748
 30
0.0
 11
1001.978984017702
 21
2516.1336288297748
 31
0.0
  0
LINE
  5
3B7C
  8
太線
 10
1002.085303455888
 20
2516.6336288297748
 30
0.0
 11
1001.978984017702
 21
2516.1336288297748
 31
0.0
  0
LINE
  5
3B7D
  8
太線
 10
998.62715242545926
 20
2516.6037933843982
 30
0.0
 11
996.87317407761759
 21
2525.6037933843968
 31
0.0
  0
LINE
  5
3B7E
  8
太線
 10
999.02886325990301
 20
2516.6336288297762
 30
0.0
 11
997.28069943708238
 21
2525.6037933843968
 31
0.0
  0
LINE
  5
3B7F
  8
太線
 10
996.97367899078165
 20
2526.1336288297748
 30
0.0
 11
996.87317407761759
 21
2525.6037933843968
 31
0.0
  0
LINE
  5
3B80
  8
太線
 10
996.97367899078165
 20
2526.1336288297748
 30
0.0
 11
997.28069943708238
 21
2525.6037933843968
 31
0.0
  0
LINE
  5
3B81
  8
太線
 10
998.62715242545994
 20
2516.6037933843959
 30
0.0
 11
998.922543821717
 21
2516.1336288297762
 31
0.0
  0
LINE
  5
3B82
  8
太線
 10
999.02886325990278
 20
2516.6336288297748
 30
0.0
 11
998.92254382171677
 21
2516.1336288297762
 31
0.0
  0
LINE
  5
3BAD
  8
太線
 10
995.86610362573197
 20
2516.1336288297762
 30
0.0
 11
993.91723879479684
 21
2526.1336288297748
 31
0.0
  0
LINE
  5
3BAE
  8
太線
 10
992.80966342974671
 20
2516.1336288297762
 30
0.0
 11
990.86079859881136
 21
2526.1336288297762
 31
0.0
  0
LINE
  5
3BAF
  8
太線
 10
995.56489770445273
 20
2516.6336288297762
 30
0.0
 11
993.81091935661107
 21
2525.6336288297748
 31
0.0
  0
LINE
  5
3BB0
  8
太線
 10
995.97242306391763
 20
2516.6336288297748
 30
0.0
 11
994.21844471607574
 21
2525.6336288297748
 31
0.0
  0
LINE
  5
3BB1
  8
太線
 10
993.91723879479639
 20
2526.1336288297748
 30
0.0
 11
993.81091935661107
 21
2525.6336288297748
 31
0.0
  0
LINE
  5
3BB2
  8
太線
 10
993.91723879479639
 20
2526.1336288297748
 30
0.0
 11
994.21844471607574
 21
2525.6336288297748
 31
0.0
  0
LINE
  5
3BB3
  8
太線
 10
995.56489770445319
 20
2516.6336288297748
 30
0.0
 11
995.86610362573208
 21
2516.1336288297748
 31
0.0
  0
LINE
  5
3BB4
  8
太線
 10
995.97242306391763
 20
2516.6336288297748
 30
0.0
 11
995.86610362573208
 21
2516.1336288297748
 31
0.0
  0
LINE
  5
3BB5
  8
太線
 10
992.51427203348931
 20
2516.6037933843982
 30
0.0
 11
990.76029368564753
 21
2525.6037933843968
 31
0.0
  0
LINE
  5
3BB6
  8
太線
 10
992.91598286793294
 20
2516.6336288297762
 30
0.0
 11
991.16781904511231
 21
2525.6037933843968
 31
0.0
  0
LINE
  5
3BB7
  8
太線
 10
990.86079859881147
 20
2526.1336288297748
 30
0.0
 11
990.76029368564753
 21
2525.6037933843968
 31
0.0
  0
LINE
  5
3BB8
  8
太線
 10
990.86079859881147
 20
2526.1336288297748
 30
0.0
 11
991.16781904511231
 21
2525.6037933843968
 31
0.0
  0
LINE
  5
3BB9
  8
太線
 10
992.51427203348976
 20
2516.6037933843959
 30
0.0
 11
992.80966342974693
 21
2516.1336288297762
 31
0.0
  0
LINE
  5
3BBA
  8
太線
 10
992.91598286793283
 20
2516.6336288297748
 30
0.0
 11
992.80966342974671
 21
2516.1336288297762
 31
0.0
  0
LINE
  5
3BBB
  8
太線
 10
989.75322323376213
 20
2516.1336288297762
 30
0.0
 11
987.80435840282667
 21
2526.1336288297748
 31
0.0
  0
LINE
  5
3BBC
  8
太線
 10
986.69678303777687
 20
2516.1336288297762
 30
0.0
 11
984.74791820684152
 21
2526.1336288297748
 31
0.0
  0
LINE
  5
3BBD
  8
太線
 10
989.45201731248278
 20
2516.6336288297762
 30
0.0
 11
987.698038964641
 21
2525.6336288297748
 31
0.0
  0
LINE
  5
3BBE
  8
太線
 10
989.85954267194768
 20
2516.6336288297748
 30
0.0
 11
988.10556432410579
 21
2525.6336288297748
 31
0.0
  0
LINE
  5
3BBF
  8
太線
 10
987.80435840282655
 20
2526.1336288297748
 30
0.0
 11
987.698038964641
 21
2525.6336288297748
 31
0.0
  0
LINE
  5
3BC0
  8
太線
 10
987.80435840282655
 20
2526.1336288297748
 30
0.0
 11
988.10556432410579
 21
2525.6336288297748
 31
0.0
  0
LINE
  5
3BC1
  8
太線
 10
989.45201731248312
 20
2516.6336288297748
 30
0.0
 11
989.75322323376224
 21
2516.1336288297739
 31
0.0
  0
LINE
  5
3BC2
  8
太線
 10
989.85954267194768
 20
2516.6336288297748
 30
0.0
 11
989.75322323376224
 21
2516.1336288297739
 31
0.0
  0
LINE
  5
3BC3
  8
太線
 10
986.40139164151935
 20
2516.6037933843982
 30
0.0
 11
984.64741329367757
 21
2525.6037933843959
 31
0.0
  0
LINE
  5
3BC4
  8
太線
 10
986.80310247596287
 20
2516.6336288297762
 30
0.0
 11
985.05493865314236
 21
2525.6037933843959
 31
0.0
  0
LINE
  5
3BC5
  8
太線
 10
984.74791820684175
 20
2526.1336288297748
 30
0.0
 11
984.64741329367757
 21
2525.6037933843959
 31
0.0
  0
LINE
  5
3BC6
  8
太線
 10
984.74791820684175
 20
2526.1336288297748
 30
0.0
 11
985.05493865314236
 21
2525.6037933843959
 31
0.0
  0
LINE
  5
3BC7
  8
太線
 10
986.40139164151969
 20
2516.6037933843959
 30
0.0
 11
986.69678303777698
 21
2516.1336288297748
 31
0.0
  0
LINE
  5
3BC8
  8
太線
 10
986.80310247596287
 20
2516.6336288297748
 30
0.0
 11
986.69678303777687
 21
2516.1336288297762
 31
0.0
  0
LINE
  5
3BC9
  8
太線
 10
983.64034284179195
 20
2516.1336288297748
 30
0.0
 11
981.69147801085683
 21
2526.1336288297748
 31
0.0
  0
LINE
  5
3BCA
  8
太線
 10
980.58390264580703
 20
2516.1336288297748
 30
0.0
 11
978.63503781487157
 21
2526.1336288297748
 31
0.0
  0
LINE
  5
3BCB
  8
太線
 10
983.33913692051294
 20
2516.6336288297748
 30
0.0
 11
981.58515857267105
 21
2525.6336288297739
 31
0.0
  0
LINE
  5
3BCC
  8
太線
 10
983.74666227997773
 20
2516.6336288297748
 30
0.0
 11
981.99268393213572
 21
2525.6336288297739
 31
0.0
  0
LINE
  5
3BCD
  8
太線
 10
981.6914780108566
 20
2526.1336288297739
 30
0.0
 11
981.58515857267105
 21
2525.6336288297739
 31
0.0
  0
LINE
  5
3BCE
  8
太線
 10
981.6914780108566
 20
2526.1336288297748
 30
0.0
 11
981.99268393213572
 21
2525.6336288297739
 31
0.0
  0
LINE
  5
3BCF
  8
太線
 10
983.33913692051317
 20
2516.6336288297739
 30
0.0
 11
983.64034284179218
 21
2516.1336288297739
 31
0.0
  0
LINE
  5
3BD0
  8
太線
 10
983.74666227997773
 20
2516.6336288297748
 30
0.0
 11
983.64034284179218
 21
2516.1336288297739
 31
0.0
  0
LINE
  5
3BD1
  8
太線
 10
980.28851124954929
 20
2516.6037933843968
 30
0.0
 11
978.53453290170773
 21
2525.6037933843959
 31
0.0
  0
LINE
  5
3BD2
  8
太線
 10
980.69022208399304
 20
2516.6336288297748
 30
0.0
 11
978.94205826117229
 21
2525.6037933843959
 31
0.0
  0
LINE
  5
3BD3
  8
太線
 10
978.63503781487157
 20
2526.1336288297748
 30
0.0
 11
978.53453290170773
 21
2525.6037933843959
 31
0.0
  0
LINE
  5
3BD4
  8
太線
 10
978.63503781487157
 20
2526.1336288297748
 30
0.0
 11
978.94205826117229
 21
2525.6037933843959
 31
0.0
  0
LINE
  5
3BD5
  8
太線
 10
980.28851124954986
 20
2516.6037933843959
 30
0.0
 11
980.58390264580703
 21
2516.1336288297739
 31
0.0
  0
LINE
  5
3BD6
  8
太線
 10
980.69022208399281
 20
2516.6336288297748
 30
0.0
 11
980.58390264580703
 21
2516.1336288297748
 31
0.0
  0
LINE
  5
3BD7
  8
太線
 10
977.52746244982211
 20
2516.1336288297739
 30
0.0
 11
975.57859761888687
 21
2526.1336288297739
 31
0.0
  0
LINE
  5
3BD8
  8
太線
 10
974.47102225383685
 20
2516.1336288297739
 30
0.0
 11
972.5221574229015
 21
2526.1336288297748
 31
0.0
  0
LINE
  5
3BD9
  8
太線
 10
977.22625652854276
 20
2516.6336288297748
 30
0.0
 11
975.47227818070132
 21
2525.6336288297739
 31
0.0
  0
LINE
  5
3BDA
  8
太線
 10
977.63378188800777
 20
2516.6336288297739
 30
0.0
 11
975.87980354016588
 21
2525.6336288297739
 31
0.0
  0
LINE
  5
3BDB
  8
太線
 10
975.57859761888665
 20
2526.1336288297739
 30
0.0
 11
975.47227818070132
 21
2525.6336288297739
 31
0.0
  0
LINE
  5
3BDC
  8
太線
 10
975.57859761888665
 20
2526.1336288297739
 30
0.0
 11
975.87980354016588
 21
2525.6336288297739
 31
0.0
  0
LINE
  5
3BDD
  8
太線
 10
977.22625652854344
 20
2516.6336288297739
 30
0.0
 11
977.52746244982234
 21
2516.1336288297739
 31
0.0
  0
LINE
  5
3BDE
  8
太線
 10
977.63378188800777
 20
2516.6336288297739
 30
0.0
 11
977.52746244982234
 21
2516.1336288297739
 31
0.0
  0
LINE
  5
3BDF
  8
太線
 10
974.17563085757945
 20
2516.6037933843959
 30
0.0
 11
972.42165250973767
 21
2525.603793384395
 31
0.0
  0
LINE
  5
3BE0
  8
太線
 10
974.57734169202308
 20
2516.6336288297748
 30
0.0
 11
972.82917786920245
 21
2525.603793384395
 31
0.0
  0
LINE
  5
3BE1
  8
太線
 10
972.52215742290173
 20
2526.1336288297739
 30
0.0
 11
972.42165250973767
 21
2525.603793384395
 31
0.0
  0
LINE
  5
3BE2
  8
太線
 10
972.52215742290173
 20
2526.1336288297739
 30
0.0
 11
972.82917786920245
 21
2525.603793384395
 31
0.0
  0
LINE
  5
3BE3
  8
太線
 10
974.17563085758002
 20
2516.603793384395
 30
0.0
 11
974.47102225383708
 21
2516.1336288297739
 31
0.0
  0
LINE
  5
3BE4
  8
太線
 10
974.57734169202286
 20
2516.6336288297739
 30
0.0
 11
974.47102225383685
 21
2516.1336288297739
 31
0.0
  0
LINE
  5
3BE5
  8
太線
 10
971.41458205785204
 20
2516.1336288297739
 30
0.0
 11
969.46571722691692
 21
2526.1336288297739
 31
0.0
  0
LINE
  5
3BE6
  8
太線
 10
968.35814186186701
 20
2516.1336288297739
 30
0.0
 11
966.40927703093155
 21
2526.1336288297739
 31
0.0
  0
LINE
  5
3BE7
  8
太線
 10
971.11337613657292
 20
2516.6336288297748
 30
0.0
 11
969.35939778873114
 21
2525.633628829773
 31
0.0
  0
LINE
  5
3BE8
  8
太線
 10
971.52090149603771
 20
2516.6336288297739
 30
0.0
 11
969.76692314819604
 21
2525.633628829773
 31
0.0
  0
LINE
  5
3BE9
  8
太線
 10
969.46571722691669
 20
2526.133628829773
 30
0.0
 11
969.35939778873114
 21
2525.633628829773
 31
0.0
  0
LINE
  5
3BEA
  8
太線
 10
969.46571722691669
 20
2526.1336288297739
 30
0.0
 11
969.76692314819604
 21
2525.633628829773
 31
0.0
  0
LINE
  5
3BEB
  8
太線
 10
971.11337613657327
 20
2516.633628829773
 30
0.0
 11
971.41458205785239
 21
2516.133628829773
 31
0.0
  0
LINE
  5
3BEC
  8
太線
 10
971.52090149603771
 20
2516.6336288297739
 30
0.0
 11
971.41458205785239
 21
2516.133628829773
 31
0.0
  0
LINE
  5
3BED
  8
太線
 10
968.0627504656095
 20
2516.6037933843959
 30
0.0
 11
966.30877211776783
 21
2525.603793384395
 31
0.0
  0
LINE
  5
3BEE
  8
太線
 10
968.46446130005302
 20
2516.6336288297748
 30
0.0
 11
966.71629747723239
 21
2525.603793384395
 31
0.0
  0
LINE
  5
3BEF
  8
太線
 10
966.40927703093178
 20
2526.1336288297739
 30
0.0
 11
966.30877211776783
 21
2525.603793384395
 31
0.0
  0
LINE
  5
3BF0
  8
太線
 10
966.40927703093178
 20
2526.1336288297739
 30
0.0
 11
966.71629747723239
 21
2525.603793384395
 31
0.0
  0
LINE
  5
3BF1
  8
太線
 10
968.06275046560995
 20
2516.6037933843941
 30
0.0
 11
968.35814186186701
 21
2516.1336288297739
 31
0.0
  0
LINE
  5
3BF2
  8
太線
 10
968.46446130005302
 20
2516.6336288297739
 30
0.0
 11
968.35814186186701
 21
2516.1336288297739
 31
0.0
  0
LINE
  5
3BF3
  8
太線
 10
965.30170166588107
 20
2516.1336288297762
 30
0.0
 11
963.35283683494595
 21
2526.1336288297748
 31
0.0
  0
LINE
  5
3BF4
  8
太線
 10
962.24526146989615
 20
2516.1336288297762
 30
0.0
 11
960.29639663896069
 21
2526.1336288297748
 31
0.0
  0
LINE
  5
3BF5
  8
太線
 10
965.00049574460195
 20
2516.6336288297762
 30
0.0
 11
963.24651739676017
 21
2525.6336288297748
 31
0.0
  0
LINE
  5
3BF6
  8
太線
 10
965.40802110406685
 20
2516.6336288297748
 30
0.0
 11
963.65404275622495
 21
2525.6336288297748
 31
0.0
  0
LINE
  5
3BF7
  8
太線
 10
963.35283683494572
 20
2526.1336288297748
 30
0.0
 11
963.24651739676017
 21
2525.6336288297748
 31
0.0
  0
LINE
  5
3BF8
  8
太線
 10
963.35283683494572
 20
2526.1336288297748
 30
0.0
 11
963.65404275622495
 21
2525.6336288297748
 31
0.0
  0
LINE
  5
3BF9
  8
太線
 10
965.00049574460229
 20
2516.6336288297748
 30
0.0
 11
965.30170166588141
 21
2516.1336288297739
 31
0.0
  0
LINE
  5
3BFA
  8
太線
 10
965.40802110406685
 20
2516.6336288297748
 30
0.0
 11
965.30170166588141
 21
2516.1336288297739
 31
0.0
  0
LINE
  5
3BFB
  8
太線
 10
961.94987007363841
 20
2516.6037933843982
 30
0.0
 11
960.19589172579686
 21
2525.6037933843959
 31
0.0
  0
LINE
  5
3BFC
  8
太線
 10
962.35158090808216
 20
2516.6336288297762
 30
0.0
 11
960.60341708526141
 21
2525.6037933843959
 31
0.0
  0
LINE
  5
3BFD
  8
太線
 10
960.29639663896069
 20
2526.1336288297748
 30
0.0
 11
960.19589172579686
 21
2525.6037933843959
 31
0.0
  0
LINE
  5
3BFE
  8
太線
 10
960.29639663896069
 20
2526.1336288297748
 30
0.0
 11
960.60341708526141
 21
2525.6037933843959
 31
0.0
  0
LINE
  5
3BFF
  8
太線
 10
961.94987007363886
 20
2516.6037933843959
 30
0.0
 11
962.24526146989615
 21
2516.1336288297748
 31
0.0
  0
LINE
  5
3C00
  8
太線
 10
962.35158090808216
 20
2516.6336288297748
 30
0.0
 11
962.24526146989615
 21
2516.1336288297762
 31
0.0
  0
LINE
  5
3C01
  8
太線
 10
959.188821273911
 20
2516.1336288297762
 30
0.0
 11
957.3499424364511
 21
2525.5692695590351
 31
0.0
  0
LINE
  5
3C02
  8
太線
 10
955.90308716125628
 20
2517.3101799842188
 30
0.0
 11
954.54387540081825
 21
2524.284556754033
 31
0.0
  0
LINE
  5
3C03
  8
太線
 10
958.88761535263166
 20
2516.6336288297762
 30
0.0
 11
957.2580063032118
 21
2524.9954660570279
 31
0.0
  0
LINE
  5
3C04
  8
太線
 10
959.29514071209667
 20
2516.6336288297748
 30
0.0
 11
957.63660165675753
 21
2525.1439114774589
 31
0.0
  0
LINE
  5
3C07
  8
太線
 10
958.88761535263234
 20
2516.6336288297748
 30
0.0
 11
959.18882127391123
 21
2516.1336288297739
 31
0.0
  0
LINE
  5
3C08
  8
太線
 10
959.29514071209667
 20
2516.6336288297748
 30
0.0
 11
959.18882127391123
 21
2516.1336288297739
 31
0.0
  0
LINE
  5
3C09
  8
太線
 10
955.55982770249386
 20
2518.025964767322
 30
0.0
 11
954.45974627079147
 21
2523.6706940181148
 31
0.0
  0
LINE
  5
3C0A
  8
太線
 10
956.00905573966691
 20
2517.8119803131608
 30
0.0
 11
954.82851939160605
 21
2523.8695392024251
 31
0.0
  0
ARC
  5
3C1F
  8
太線
 10
966.78620706056392
 20
2501.251740707829
 30
0.0
 40
25.584196354987551
 50
107.63499223964421
 51
123.9724909913533
  0
ARC
  5
3C20
  8
太線
 10
954.22414393862198
 20
2521.1336288297748
 30
0.0
 40
2.1887197249350612
 50
142.40655508392391
 51
217.5934449160593
  0
LINE
  5
3C42
  8
太線
 10
957.3499424364511
 20
2525.5692695590351
 30
0.0
 11
957.2580063032118
 21
2524.995466057027
 31
0.0
  0
LINE
  5
3C43
  8
太線
 10
957.3499424364511
 20
2525.569269559036
 30
0.0
 11
957.63660165675742
 21
2525.1439114774589
 31
0.0
  0
LINE
  5
3C44
  8
太線
 10
954.54387540081814
 20
2524.2845567540339
 30
0.0
 11
954.45974627079136
 21
2523.6706940181139
 31
0.0
  0
LINE
  5
3C45
  8
太線
 10
954.54387540081814
 20
2524.2845567540339
 30
0.0
 11
954.82851939160605
 21
2523.869539202426
 31
0.0
  0
ARC
  5
3C46
  8
太線
 10
966.78620706056392
 20
2541.015516951722
 30
0.0
 40
25.584196354987551
 50
236.02750900865041
 51
252.3650077603626
  0
LINE
  5
3C48
  8
太線
 10
955.55982770249375
 20
2518.025964767322
 30
0.0
 11
955.90308716125662
 21
2517.3101799842202
 31
0.0
  0
LINE
  5
3C49
  8
太線
 10
955.90308716125662
 20
2517.3101799842202
 30
0.0
 11
956.00905573966691
 21
2517.8119803131608
 31
0.0
  0
CIRCLE
  5
3C4A
  8
太線
 10
1173.7658929042329
 20
2495.3486908447539
 30
0.0
 40
18.5
  0
CIRCLE
  5
3C4B
  8
太線
 10
1173.7658929042329
 20
2495.3486908447539
 30
0.0
 40
5.0
  0
LINE
  5
3C6D
  8
中心線
 10
1155.2658929042329
 20
2495.3486908447539
 30
0.0
 11
1155.2658929042329
 21
2429.1287829096691
 31
0.0
  0
LINE
  5
3C6E
  8
中心線
 10
1192.2658929042341
 20
2495.3486908447539
 30
0.0
 11
1192.2658929042341
 21
2429.1287829096691
 31
0.0
  0
LINE
  5
3C6F
  8
太線
 10
1155.2658929042329
 20
2439.1287829096691
 30
0.0
 11
1192.2658929042341
 21
2439.1287829096691
 31
0.0
  0
LINE
  5
3C70
  8
太線
 10
1155.2658929042329
 20
2442.1287829096691
 30
0.0
 11
1192.2658929042341
 21
2442.1287829096691
 31
0.0
  0
LINE
  5
3C71
  8
太線
 10
1155.2658929042329
 20
2442.1287829096691
 30
0.0
 11
1155.2658929042329
 21
2439.1287829096691
 31
0.0
  0
LINE
  5
3C72
  8
太線
 10
1192.2658929042341
 20
2442.1287829096691
 30
0.0
 11
1192.2658929042341
 21
2439.1287829096691
 31
0.0
  0
LINE
  5
3C73
  8
太線
 10
1167.2658929042329
 20
2454.1287829096691
 30
0.0
 11
1180.2658929042329
 21
2454.1287829096691
 31
0.0
  0
LINE
  5
3C74
  8
中心線
 10
1173.7658929042329
 20
2464.1287829096691
 30
0.0
 11
1173.7658929042329
 21
2429.1287829096691
 31
0.0
  0
LINE
  5
3C75
  8
太線
 10
1167.2658929042329
 20
2454.1287829096691
 30
0.0
 11
1167.2658929042329
 21
2442.1287829096691
 31
0.0
  0
LINE
  5
3C76
  8
太線
 10
1180.2658929042329
 20
2454.1287829096691
 30
0.0
 11
1180.2658929042329
 21
2442.1287829096691
 31
0.0
  0
LINE
  5
3C77
  8
中心線
 10
1173.7658929042329
 20
2518.8486908447539
 30
0.0
 11
1173.7658929042329
 21
2471.8486908447539
 31
0.0
  0
LINE
  5
3C78
  8
中心線
 10
1150.2658929042329
 20
2495.3486908447539
 30
0.0
 11
1197.2658929042329
 21
2495.3486908447539
 31
0.0
  0
CIRCLE
  5
3CA3
  8
太線
 10
1113.814856850845
 20
2495.3486908447539
 30
0.0
 40
17.5
  0
CIRCLE
  5
3CA4
  8
太線
 10
1113.814856850845
 20
2495.3486908447539
 30
0.0
 40
5.5
  0
LINE
  5
3CA5
  8
中心線
 10
1096.314856850845
 20
2495.3486908447539
 30
0.0
 11
1096.314856850845
 21
2429.1287829096691
 31
0.0
  0
LINE
  5
3CA6
  8
中心線
 10
1131.314856850845
 20
2495.3486908447539
 30
0.0
 11
1131.314856850845
 21
2429.1287829096691
 31
0.0
  0
LINE
  5
3CA7
  8
太線
 10
1131.314856850845
 20
2439.1287829096691
 30
0.0
 11
1096.314856850845
 21
2439.1287829096691
 31
0.0
  0
LINE
  5
3CA8
  8
太線
 10
1131.314856850845
 20
2441.1287829096691
 30
0.0
 11
1096.314856850845
 21
2441.1287829096691
 31
0.0
  0
LINE
  5
3CA9
  8
太線
 10
1096.314856850845
 20
2441.1287829096691
 30
0.0
 11
1096.314856850845
 21
2439.1287829096691
 31
0.0
  0
LINE
  5
3CAA
  8
太線
 10
1131.314856850845
 20
2441.1287829096691
 30
0.0
 11
1131.314856850845
 21
2439.1287829096691
 31
0.0
  0
POLYLINE
  5
3CAD
  8
太線
 66
     1
 10
0.0
 20
0.0
 30
0.0
 70
     1
  0
VERTEX
  5
41D0
  8
太線
 10
1001.007445923787
 20
2450.0956242148109
 30
0.0
  0
VERTEX
  5
41D1
  8
太線
 10
996.2574459237876
 20
2441.8683828788589
 30
0.0
  0
VERTEX
  5
41D2
  8
太線
 10
1001.007445923787
 20
2433.641141542907
 30
0.0
  0
VERTEX
  5
41D3
  8
太線
 10
1010.507445923787
 20
2433.641141542907
 30
0.0
  0
VERTEX
  5
41D4
  8
太線
 10
1015.257445923787
 20
2441.8683828788589
 30
0.0
  0
VERTEX
  5
41D5
  8
太線
 10
1010.507445923787
 20
2450.0956242148109
 30
0.0
  0
SEQEND
  5
41D6
  8
太線
  0
LINE
  5
3CF6
  8
中心線
 10
1005.757445923787
 20
2455.0956242148109
 30
0.0
 11
1005.757445923787
 21
2428.641141542907
 31
0.0
  0
CIRCLE
  5
3CF7
  8
太線
 10
1005.757445923787
 20
2441.8683828788589
 30
0.0
 40
4.0
  0
CIRCLE
  5
3CF8
  8
太線
 10
1005.757445923787
 20
2441.8683828788589
 30
0.0
 40
5.5
  0
LINE
  5
3D14
  8
中心線
 10
992.53020458783521
 20
2441.8683828788589
 30
0.0
 11
1018.98468725974
 21
2441.8683828788589
 31
0.0
  0
LINE
  5
3D57
  8
太線
 10
1062.812445278277
 20
2490.6950141762181
 30
0.0
 11
1062.812445278277
 21
2471.6950141762181
 31
0.0
  0
LINE
  5
3D58
  8
太線
 10
1002.812445278277
 20
2484.6950141762181
 30
0.0
 11
1002.812445278277
 21
2481.6950141762181
 31
0.0
  0
LINE
  5
3D59
  8
中心線
 10
1062.812445278277
 20
2481.1950141762181
 30
0.0
 11
1002.812445278277
 21
2481.1950141762181
 31
0.0
  0
LINE
  5
3D5B
  8
太線
 10
1038.8124452782779
 20
2486.1950141762181
 30
0.0
 11
1034.812445278277
 21
2486.1950141762181
 31
0.0
  0
LINE
  5
3D5C
  8
太線
 10
1038.812445278277
 20
2476.1950141762181
 30
0.0
 11
1034.8124452782749
 21
2476.1950141762181
 31
0.0
  0
LINE
  5
3D5D
  8
太線
 10
1007.812445278277
 20
2486.1950141762181
 30
0.0
 11
1007.812445278277
 21
2481.6950141762181
 31
0.0
  0
LINE
  5
3D5E
  8
太線
 10
1031.312445278277
 20
2484.695014176219
 30
0.0
 11
1029.812445278277
 21
2484.695014176219
 31
0.0
  0
LINE
  5
3D5F
  8
太線
 10
1031.312445278277
 20
2477.6950141762181
 30
0.0
 11
1029.812445278277
 21
2477.6950141762181
 31
0.0
  0
LINE
  5
3D60
  8
太線
 10
1002.812445278277
 20
2484.6950141762181
 30
0.0
 11
1007.812445278277
 21
2486.1950141762181
 31
0.0
  0
LINE
  5
3D61
  8
太線
 10
1007.812445278277
 20
2476.1950141762181
 30
0.0
 11
1002.812445278277
 21
2477.6950141762181
 31
0.0
  0
LINE
  5
3D62
  8
太線
 10
1011.812445278277
 20
2486.1950141762181
 30
0.0
 11
1011.812445278277
 21
2481.6950141762181
 31
0.0
  0
LINE
  5
3DD7
  8
太線
 10
1016.812445278278
 20
2486.1950141762181
 30
0.0
 11
1016.812445278278
 21
2481.6950141762181
 31
0.0
  0
LINE
  5
3DD8
  8
太線
 10
1020.812445278277
 20
2486.1950141762181
 30
0.0
 11
1020.812445278277
 21
2481.6950141762181
 31
0.0
  0
LINE
  5
3DD9
  8
太線
 10
1013.312445278278
 20
2484.6950141762181
 30
0.0
 11
1016.812445278278
 21
2486.1950141762181
 31
0.0
  0
LINE
  5
3DDA
  8
太線
 10
1016.812445278278
 20
2476.1950141762181
 30
0.0
 11
1013.312445278278
 21
2477.6950141762181
 31
0.0
  0
LINE
  5
3DDB
  8
太線
 10
1025.812445278277
 20
2486.1950141762181
 30
0.0
 11
1025.812445278277
 21
2481.6950141762181
 31
0.0
  0
LINE
  5
3DDC
  8
太線
 10
1029.812445278277
 20
2486.1950141762181
 30
0.0
 11
1029.812445278277
 21
2481.6950141762181
 31
0.0
  0
LINE
  5
3DDF
  8
太線
 10
1034.812445278277
 20
2486.1950141762181
 30
0.0
 11
1034.812445278277
 21
2481.6950141762181
 31
0.0
  0
LINE
  5
3DE0
  8
太線
 10
1038.812445278277
 20
2486.1950141762181
 30
0.0
 11
1038.812445278277
 21
2481.6950141762181
 31
0.0
  0
LINE
  5
3DE3
  8
太線
 10
1011.812445278277
 20
2486.195014176219
 30
0.0
 11
1007.812445278275
 21
2486.1950141762181
 31
0.0
  0
LINE
  5
3DE4
  8
太線
 10
1011.812445278277
 20
2476.1950141762181
 30
0.0
 11
1007.812445278278
 21
2476.1950141762181
 31
0.0
  0
LINE
  5
3DE5
  8
太線
 10
1020.812445278277
 20
2476.1950141762181
 30
0.0
 11
1016.812445278278
 21
2476.1950141762181
 31
0.0
  0
LINE
  5
3DE6
  8
太線
 10
1020.812445278277
 20
2486.1950141762181
 30
0.0
 11
1016.812445278278
 21
2486.1950141762181
 31
0.0
  0
LINE
  5
3DE7
  8
太線
 10
1029.812445278277
 20
2486.1950141762181
 30
0.0
 11
1025.812445278279
 21
2486.1950141762181
 31
0.0
  0
LINE
  5
3DE8
  8
太線
 10
1029.812445278277
 20
2476.1950141762181
 30
0.0
 11
1025.8124452782749
 21
2476.1950141762181
 31
0.0
  0
LINE
  5
3DE9
  8
太線
 10
1013.312445278278
 20
2484.6950141762181
 30
0.0
 11
1013.312445278278
 21
2481.6950141762181
 31
0.0
  0
LINE
  5
3DEA
  8
太線
 10
1022.312445278277
 20
2484.6950141762181
 30
0.0
 11
1022.312445278277
 21
2481.6950141762181
 31
0.0
  0
LINE
  5
3DEB
  8
太線
 10
1022.312445278277
 20
2484.6950141762181
 30
0.0
 11
1025.812445278277
 21
2486.1950141762181
 31
0.0
  0
LINE
  5
3DEC
  8
太線
 10
1025.812445278277
 20
2476.1950141762181
 30
0.0
 11
1022.312445278277
 21
2477.6950141762181
 31
0.0
  0
LINE
  5
3DED
  8
太線
 10
1031.312445278277
 20
2484.6950141762181
 30
0.0
 11
1031.312445278277
 21
2481.6950141762181
 31
0.0
  0
LINE
  5
3DEE
  8
太線
 10
1031.312445278277
 20
2484.6950141762181
 30
0.0
 11
1034.812445278277
 21
2486.1950141762181
 31
0.0
  0
LINE
  5
3DEF
  8
太線
 10
1034.812445278277
 20
2476.1950141762181
 30
0.0
 11
1031.312445278277
 21
2477.6950141762181
 31
0.0
  0
LINE
  5
3DF0
  8
太線
 10
1047.812445278277
 20
2481.6950141762181
 30
0.0
 11
1047.812445278277
 21
2480.6950141762181
 31
0.0
  0
LINE
  5
3DF1
  8
太線
 10
1047.812445278277
 20
2481.6950141762181
 30
0.0
 11
1002.812445278277
 21
2481.6950141762181
 31
0.0
  0
LINE
  5
3DF2
  8
太線
 10
1047.812445278277
 20
2480.6950141762181
 30
0.0
 11
1002.812445278277
 21
2480.6950141762181
 31
0.0
  0
LINE
  5
3DF3
  8
太線
 10
1007.812445278277
 20
2480.6950141762181
 30
0.0
 11
1007.812445278277
 21
2476.1950141762181
 31
0.0
  0
LINE
  5
3DF4
  8
太線
 10
1002.812445278277
 20
2480.6950141762181
 30
0.0
 11
1002.812445278277
 21
2477.6950141762181
 31
0.0
  0
LINE
  5
3DF5
  8
太線
 10
1011.812445278277
 20
2480.6950141762181
 30
0.0
 11
1011.812445278277
 21
2476.1950141762181
 31
0.0
  0
LINE
  5
3DF6
  8
太線
 10
1013.312445278278
 20
2480.6950141762181
 30
0.0
 11
1013.312445278278
 21
2477.6950141762181
 31
0.0
  0
LINE
  5
3DF7
  8
太線
 10
1016.812445278278
 20
2480.6950141762181
 30
0.0
 11
1016.812445278278
 21
2476.1950141762181
 31
0.0
  0
LINE
  5
3DF8
  8
太線
 10
1020.812445278277
 20
2480.6950141762181
 30
0.0
 11
1020.812445278277
 21
2476.1950141762181
 31
0.0
  0
LINE
  5
3DF9
  8
太線
 10
1022.312445278277
 20
2480.6950141762181
 30
0.0
 11
1022.312445278277
 21
2477.6950141762181
 31
0.0
  0
LINE
  5
3DFA
  8
太線
 10
1029.812445278277
 20
2480.6950141762181
 30
0.0
 11
1029.812445278277
 21
2476.1950141762181
 31
0.0
  0
LINE
  5
3DFB
  8
太線
 10
1025.812445278277
 20
2480.6950141762181
 30
0.0
 11
1025.812445278277
 21
2476.1950141762181
 31
0.0
  0
LINE
  5
3DFC
  8
太線
 10
1031.312445278277
 20
2480.6950141762181
 30
0.0
 11
1031.312445278277
 21
2477.6950141762181
 31
0.0
  0
LINE
  5
3DFD
  8
太線
 10
1034.812445278277
 20
2480.6950141762181
 30
0.0
 11
1034.812445278277
 21
2476.1950141762181
 31
0.0
  0
LINE
  5
3DFE
  8
太線
 10
1038.812445278277
 20
2480.6950141762181
 30
0.0
 11
1038.812445278277
 21
2476.1950141762181
 31
0.0
  0
LINE
  5
3E20
  8
太線
 10
1052.812445278277
 20
2487.6950141762181
 30
0.0
 11
1042.8124452782761
 21
2487.6950141762181
 31
0.0
  0
LINE
  5
3E3B
  8
太線
 10
1062.812445278277
 20
2490.6950141762181
 30
0.0
 11
1061.8124452782779
 21
2490.6950141762181
 31
0.0
  0
LINE
  5
3E3C
  8
太線
 10
1062.812445278277
 20
2471.6950141762181
 30
0.0
 11
1061.8124452782779
 21
2471.6950141762181
 31
0.0
  0
LINE
  5
3E3D
  8
太線
 10
1061.8124452782779
 20
2490.6950141762181
 30
0.0
 11
1061.8124452782779
 21
2471.6950141762181
 31
0.0
  0
LINE
  5
3E3F
  8
太線
 10
1052.812445278277
 20
2487.6950141762181
 30
0.0
 11
1061.8124452782779
 21
2490.6950141762181
 31
0.0
  0
LINE
  5
3E40
  8
太線
 10
1052.812445278277
 20
2474.6950141762181
 30
0.0
 11
1061.8124452782779
 21
2471.6950141762181
 31
0.0
  0
ARC
  5
3E43
  8
太線
 10
1048.9594455834369
 20
2467.8606358750781
 30
0.0
 40
20.765071041158631
 50
107.2190692403737
 51
119.25235768693609
  0
LINE
  5
3E44
  8
太線
 10
1022.312445278277
 20
2484.695014176219
 30
0.0
 11
1020.812445278277
 21
2484.695014176219
 31
0.0
  0
LINE
  5
3E45
  8
太線
 10
1022.312445278277
 20
2477.6950141762181
 30
0.0
 11
1020.812445278277
 21
2477.6950141762181
 31
0.0
  0
LINE
  5
3E46
  8
太線
 10
1013.312445278278
 20
2484.69501417622
 30
0.0
 11
1011.812445278277
 21
2484.69501417622
 31
0.0
  0
LINE
  5
3E47
  8
太線
 10
1013.312445278278
 20
2477.6950141762181
 30
0.0
 11
1011.812445278277
 21
2477.6950141762181
 31
0.0
  0
LINE
  5
3E48
  8
太線
 10
1052.812445278277
 20
2474.6950141762181
 30
0.0
 11
1042.8124452782761
 21
2474.695014176219
 31
0.0
  0
ARC
  5
3E49
  8
太線
 10
1048.9594455834369
 20
2494.5293924773591
 30
0.0
 40
20.765071041158631
 50
240.74764231306071
 51
252.7809307596236
  0
LINE
  5
3E4A
  8
太線
 10
1052.812445278277
 20
2481.945014176219
 30
0.0
 11
1052.812445278277
 21
2480.445014176219
 31
0.0
  0
LINE
  5
3E4B
  8
太線
 10
1061.812445278277
 20
2481.9450141762181
 30
0.0
 11
1052.812445278277
 21
2481.9450141762181
 31
0.0
  0
LINE
  5
3E4C
  8
太線
 10
1061.812445278277
 20
2480.4450141762181
 30
0.0
 11
1052.812445278277
 21
2480.4450141762181
 31
0.0
  0
LINE
  5
3F13
  8
中心線
 10
996.2574459237876
 20
2441.8683828788589
 30
0.0
 11
996.25744592378771
 21
2400.6445974485769
 31
0.0
  0
LINE
  5
3F14
  8
中心線
 10
1015.257445923787
 20
2441.8683828788589
 30
0.0
 11
1015.257445923787
 21
2400.6445974485769
 31
0.0
  0
LINE
  5
3F15
  8
太線
 10
996.2574459237876
 20
2407.8447055342558
 30
0.0
 11
1015.257445923787
 21
2407.8447055342558
 31
0.0
  0
LINE
  5
3F16
  8
太線
 10
996.2574459237876
 20
2414.8447055342558
 30
0.0
 11
1015.257445923787
 21
2414.8447055342558
 31
0.0
  0
LINE
  5
3F17
  8
太線
 10
1001.007445923787
 20
2414.8447055342558
 30
0.0
 11
1001.007445923787
 21
2407.8447055342558
 31
0.0
  0
LINE
  5
3F18
  8
太線
 10
1010.507445923787
 20
2414.8447055342558
 30
0.0
 11
1010.507445923787
 21
2407.8447055342558
 31
0.0
  0
LINE
  5
3F19
  8
太線
 10
996.2574459237876
 20
2414.8447055342558
 30
0.0
 11
996.2574459237876
 21
2407.8447055342558
 31
0.0
  0
LINE
  5
3F1A
  8
太線
 10
1015.257445923787
 20
2414.8447055342558
 30
0.0
 11
1015.257445923787
 21
2407.8447055342558
 31
0.0
  0
LINE
  5
3F37
  8
中心線
 10
1113.769626086837
 20
2518.8486908447539
 30
0.0
 11
1113.769626086837
 21
2471.8486908447539
 31
0.0
  0
LINE
  5
3F38
  8
中心線
 10
1090.2696260868361
 20
2495.3486908447539
 30
0.0
 11
1137.2696260868361
 21
2495.3486908447539
 31
0.0
  0
LINE
  5
3F39
  8
中心線
 10
1113.814856850845
 20
2464.1287829096691
 30
0.0
 11
1113.814856850845
 21
2429.1287829096691
 31
0.0
  0
LINE
  5
3F3A
  8
中心線
 10
1137.314856850845
 20
2495.3486908447539
 30
0.0
 11
1090.314856850845
 21
2495.3486908447539
 31
0.0
  0
TEXT
  5
3F98
  8
_0-0_
 62
     3
 10
1041.7033187791531
 20
2388.6035923301429
 30
0.0
 40
3.839999999999999
  1
参考図
  7
JAPANESE
  0
TEXT
  5
3F99
  8
_0-0_
 62
     3
 10
1118.6815028445781
 20
2384.5779834970081
 30
0.0
 40
3.2000000000000002
  1
コンクリート・木下地兼用
  7
JAPANESE
  0
LINE
  5
40FD
  8
寸法線
 10
952.03542421368729
 20
2523.1336288297748
 30
0.0
 11
952.03542421368729
 21
2533.2701660924199
 31
0.0
  0
LINE
  5
40FE
  8
寸法線
 10
1005.035424213687
 20
2523.1336288297748
 30
0.0
 11
1005.035424213687
 21
2533.2701660924199
 31
0.0
  0
LINE
  5
40FF
  8
寸法線
 10
955.03542421368718
 20
2533.2701660924199
 30
0.0
 11
1002.035424213687
 21
2533.2701660924199
 31
0.0
  0
LINE
  5
4103
  8
寸法線
 10
1168.7658929042329
 20
2497.3486908447539
 30
0.0
 11
1168.7658929042329
 21
2523.7392288307892
 31
0.0
  0
LINE
  5
4104
  8
寸法線
 10
1178.7658929042329
 20
2497.3486908447539
 30
0.0
 11
1178.7658929042329
 21
2523.7392288307892
 31
0.0
  0
LINE
  5
4105
  8
寸法線
 10
1171.7658929042329
 20
2523.7392288307892
 30
0.0
 11
1175.7658929042329
 21
2523.7392288307892
 31
0.0
  0
LINE
  5
4109
  8
寸法線
 10
1108.314856850845
 20
2497.3486908447539
 30
0.0
 11
1108.314856850845
 21
2521.111632811756
 31
0.0
  0
LINE
  5
410A
  8
寸法線
 10
1119.314856850845
 20
2497.3486908447539
 30
0.0
 11
1119.314856850845
 21
2521.111632811756
 31
0.0
  0
LINE
  5
410B
  8
寸法線
 10
1111.314856850845
 20
2521.111632811756
 30
0.0
 11
1116.314856850845
 21
2521.111632811756
 31
0.0
  0
LINE
  5
410F
  8
寸法線
 10
1133.314856850845
 20
2439.1287829096691
 30
0.0
 11
1141.3991606014599
 21
2439.1287829096691
 31
0.0
  0
LINE
  5
4110
  8
寸法線
 10
1133.314856850845
 20
2441.1287829096691
 30
0.0
 11
1141.3991606014599
 21
2441.1287829096691
 31
0.0
  0
LINE
  5
4111
  8
寸法線
 10
1141.3991606014599
 20
2436.12878290967
 30
0.0
 11
1141.3991606014599
 21
2433.1287829096691
 31
0.0
  0
LINE
  5
4112
  8
寸法線
 10
1141.3991606014599
 20
2444.1287829096691
 30
0.0
 11
1141.3991606014599
 21
2451.1287829096691
 31
0.0
  0
LINE
  5
4113
  8
寸法線
 10
1141.3991606014599
 20
2439.1287829096691
 30
0.0
 11
1141.3991606014599
 21
2441.1287829096691
 31
0.0
  0
LINE
  5
4117
  8
寸法線
 10
957.03542421368695
 20
2525.6336288297748
 30
0.0
 11
949.14804245176481
 21
2525.6336288297748
 31
0.0
  0
LINE
  5
4118
  8
寸法線
 10
957.0354242136907
 20
2516.6336288297748
 30
0.0
 11
949.14804245176481
 21
2516.6336288297748
 31
0.0
  0
LINE
  5
4119
  8
寸法線
 10
949.14804245176481
 20
2522.6336288297748
 30
0.0
 11
949.14804245176481
 21
2519.6336288297748
 31
0.0
  0
LINE
  5
411D
  8
寸法線
 10
1002.812445278277
 20
2486.6950141762181
 30
0.0
 11
1002.812445278277
 21
2501.8926662540598
 31
0.0
  0
LINE
  5
411E
  8
寸法線
 10
1062.812445278277
 20
2492.6950141762181
 30
0.0
 11
1062.812445278277
 21
2501.8926662540598
 31
0.0
  0
LINE
  5
411F
  8
寸法線
 10
1005.812445278277
 20
2501.8926662540598
 30
0.0
 11
1059.8124452782779
 21
2501.8926662540598
 31
0.0
  0
LINE
  5
4123
  8
寸法線
 10
1005.812445278276
 20
2486.1950141762181
 30
0.0
 11
985.70505975137883
 21
2486.1950141762181
 31
0.0
  0
LINE
  5
4124
  8
寸法線
 10
1005.812445278276
 20
2476.1950141762181
 30
0.0
 11
985.70505975137883
 21
2476.1950141762181
 31
0.0
  0
LINE
  5
4125
  8
寸法線
 10
985.70505975137883
 20
2483.1950141762181
 30
0.0
 11
985.70505975137883
 21
2479.1950141762181
 31
0.0
  0
LINE
  5
4129
  8
寸法線
 10
1096.314856850845
 20
2497.3486908447539
 30
0.0
 11
1096.314856850845
 21
2533.6231789468902
 31
0.0
  0
LINE
  5
412A
  8
寸法線
 10
1131.314856850845
 20
2497.3486908447539
 30
0.0
 11
1131.314856850845
 21
2533.6231789468902
 31
0.0
  0
LINE
  5
412B
  8
寸法線
 10
1099.314856850845
 20
2533.6231789468902
 30
0.0
 11
1128.314856850845
 21
2533.6231789468902
 31
0.0
  0
LINE
  5
412F
  8
寸法線
 10
1182.2658929042341
 20
2454.1287829096691
 30
0.0
 11
1205.7337421218649
 21
2454.1287829096691
 31
0.0
  0
LINE
  5
4130
  8
寸法線
 10
1194.2658929042329
 20
2439.1287829096691
 30
0.0
 11
1205.7337421218649
 21
2439.1287829096691
 31
0.0
  0
LINE
  5
4131
  8
寸法線
 10
1205.7337421218649
 20
2451.1287829096691
 30
0.0
 11
1205.7337421218649
 21
2442.1287829096691
 31
0.0
  0
LINE
  5
4135
  8
寸法線
 10
1003.757445923787
 20
2433.641141542907
 30
0.0
 11
971.79009104398938
 21
2433.641141542907
 31
0.0
  0
LINE
  5
4136
  8
寸法線
 10
1003.757445923787
 20
2450.0956242148109
 30
0.0
 11
971.79009104398938
 21
2450.0956242148109
 31
0.0
  0
LINE
  5
4137
  8
寸法線
 10
971.79009104398938
 20
2436.641141542907
 30
0.0
 11
971.79009104398938
 21
2447.0956242148109
 31
0.0
  0
LINE
  5
413B
  8
寸法線
 10
996.2574459237876
 20
2443.8683828788589
 30
0.0
 11
996.2574459237876
 21
2462.7252698675902
 31
0.0
  0
LINE
  5
413C
  8
寸法線
 10
1015.257445923787
 20
2443.8683828788589
 30
0.0
 11
1015.257445923787
 21
2462.7252698675902
 31
0.0
  0
LINE
  5
413D
  8
寸法線
 10
999.25744592378749
 20
2462.7252698675902
 30
0.0
 11
1012.257445923787
 21
2462.7252698675902
 31
0.0
  0
LINE
  5
4141
  8
寸法線
 10
1155.2658929042329
 20
2497.3486908447539
 30
0.0
 11
1155.2658929042329
 21
2539.024297932538
 31
0.0
  0
LINE
  5
4142
  8
寸法線
 10
1192.2658929042341
 20
2497.3486908447539
 30
0.0
 11
1192.2658929042341
 21
2539.024297932538
 31
0.0
  0
LINE
  5
4143
  8
寸法線
 10
1158.2658929042329
 20
2539.024297932538
 30
0.0
 11
1189.2658929042329
 21
2539.024297932538
 31
0.0
  0
LINE
  5
4147
  8
寸法線
 10
952.03542421368729
 20
2523.1336288297748
 30
0.0
 11
952.03542421368729
 21
2539.6675577896972
 31
0.0
  0
LINE
  5
4148
  8
寸法線
 10
1067.0354242136871
 20
2523.1336288297748
 30
0.0
 11
1067.0354242136871
 21
2539.6675577896972
 31
0.0
  0
LINE
  5
4149
  8
寸法線
 10
955.03542421368718
 20
2539.6675577896972
 30
0.0
 11
1064.0354242136871
 21
2539.6675577896972
 31
0.0
  0
TEXT
  5
414D
  8
寸法線
 10
975.67828135654429
 20
2534.2701660924199
 30
0.0
 40
3.0
  1
53
  7
JAPANESE
  0
LINE
  5
414E
  8
0
  6
BYBLOCK
 62
     0
 10
1002.035424213687
 20
2534.0740136624199
 30
0.0
 11
1005.035424213687
 21
2533.2701660924199
 31
0.0
  0
LINE
  5
414F
  8
0
  6
BYBLOCK
 62
     0
 10
1005.035424213687
 20
2533.2701660924199
 30
0.0
 11
1002.035424213687
 21
2532.4663185224199
 31
0.0
  0
LINE
  5
4150
  8
0
  6
BYBLOCK
 62
     0
 10
1005.035424213687
 20
2533.2701660924199
 30
0.0
 11
1002.035424213687
 21
2533.2701660924199
 31
0.0
  0
LINE
  5
4151
  8
0
  6
BYBLOCK
 62
     0
 10
955.03542421368718
 20
2532.4663185224199
 30
0.0
 11
952.03542421368729
 21
2533.2701660924199
 31
0.0
  0
LINE
  5
4152
  8
0
  6
BYBLOCK
 62
     0
 10
952.03542421368729
 20
2533.2701660924199
 30
0.0
 11
955.03542421368718
 21
2534.0740136624199
 31
0.0
  0
LINE
  5
4153
  8
0
  6
BYBLOCK
 62
     0
 10
952.03542421368729
 20
2533.2701660924199
 30
0.0
 11
955.03542421368718
 21
2533.2701660924199
 31
0.0
  0
TEXT
  5
4154
  8
寸法線
 10
1170.694464332805
 20
2524.7392288307892
 30
0.0
 40
3.0
  1
10
  7
JAPANESE
  0
LINE
  5
4155
  8
0
  6
BYBLOCK
 62
     0
 10
1175.7658929042329
 20
2524.5430764007888
 30
0.0
 11
1178.7658929042329
 21
2523.7392288307892
 31
0.0
  0
LINE
  5
4156
  8
0
  6
BYBLOCK
 62
     0
 10
1178.7658929042329
 20
2523.7392288307892
 30
0.0
 11
1175.7658929042329
 21
2522.9353812607892
 31
0.0
  0
LINE
  5
4157
  8
0
  6
BYBLOCK
 62
     0
 10
1178.7658929042329
 20
2523.7392288307892
 30
0.0
 11
1175.7658929042329
 21
2523.7392288307892
 31
0.0
  0
LINE
  5
4158
  8
0
  6
BYBLOCK
 62
     0
 10
1171.7658929042329
 20
2522.9353812607892
 30
0.0
 11
1168.7658929042329
 21
2523.7392288307892
 31
0.0
  0
LINE
  5
4159
  8
0
  6
BYBLOCK
 62
     0
 10
1168.7658929042329
 20
2523.7392288307892
 30
0.0
 11
1171.7658929042329
 21
2524.5430764007888
 31
0.0
  0
LINE
  5
415A
  8
0
  6
BYBLOCK
 62
     0
 10
1168.7658929042329
 20
2523.7392288307892
 30
0.0
 11
1171.7658929042329
 21
2523.7392288307892
 31
0.0
  0
TEXT
  5
415B
  8
寸法線
 10
1111.1719997079881
 20
2522.111632811756
 30
0.0
 40
3.0
  1
11
  7
JAPANESE
  0
LINE
  5
415C
  8
0
  6
BYBLOCK
 62
     0
 10
1116.314856850845
 20
2521.915480381756
 30
0.0
 11
1119.314856850845
 21
2521.111632811756
 31
0.0
  0
LINE
  5
415D
  8
0
  6
BYBLOCK
 62
     0
 10
1119.314856850845
 20
2521.111632811756
 30
0.0
 11
1116.314856850845
 21
2520.307785241755
 31
0.0
  0
LINE
  5
415E
  8
0
  6
BYBLOCK
 62
     0
 10
1119.314856850845
 20
2521.111632811756
 30
0.0
 11
1116.314856850845
 21
2521.111632811756
 31
0.0
  0
LINE
  5
415F
  8
0
  6
BYBLOCK
 62
     0
 10
1111.314856850845
 20
2520.307785241755
 30
0.0
 11
1108.314856850845
 21
2521.111632811756
 31
0.0
  0
LINE
  5
4160
  8
0
  6
BYBLOCK
 62
     0
 10
1108.314856850845
 20
2521.111632811756
 30
0.0
 11
1111.314856850845
 21
2521.915480381756
 31
0.0
  0
LINE
  5
4161
  8
0
  6
BYBLOCK
 62
     0
 10
1108.314856850845
 20
2521.111632811756
 30
0.0
 11
1111.314856850845
 21
2521.111632811756
 31
0.0
  0
TEXT
  5
4162
  8
寸法線
 10
1140.3991606014599
 20
2447.700211481098
 30
0.0
 40
3.0
  1
2
 50
90.0
  7
JAPANESE
  0
LINE
  5
4163
  8
0
  6
BYBLOCK
 62
     0
 10
1142.2030081714599
 20
2444.1287829096691
 30
0.0
 11
1141.3991606014599
 21
2441.1287829096691
 31
0.0
  0
LINE
  5
4164
  8
0
  6
BYBLOCK
 62
     0
 10
1141.3991606014599
 20
2441.1287829096691
 30
0.0
 11
1140.5953130314599
 21
2444.1287829096691
 31
0.0
  0
LINE
  5
4165
  8
0
  6
BYBLOCK
 62
     0
 10
1141.3991606014599
 20
2441.1287829096691
 30
0.0
 11
1141.3991606014599
 21
2444.1287829096691
 31
0.0
  0
LINE
  5
4166
  8
0
  6
BYBLOCK
 62
     0
 10
1140.5953130314599
 20
2436.12878290967
 30
0.0
 11
1141.3991606014599
 21
2439.1287829096691
 31
0.0
  0
LINE
  5
4167
  8
0
  6
BYBLOCK
 62
     0
 10
1141.3991606014599
 20
2439.1287829096691
 30
0.0
 11
1142.2030081714599
 21
2436.12878290967
 31
0.0
  0
LINE
  5
4168
  8
0
  6
BYBLOCK
 62
     0
 10
1141.3991606014599
 20
2439.1287829096691
 30
0.0
 11
1141.3991606014599
 21
2436.12878290967
 31
0.0
  0
TEXT
  5
4169
  8
寸法線
 10
948.14804245176435
 20
2519.7764859726308
 30
0.0
 40
3.0
  1
9
 50
90.0
  7
JAPANESE
  0
LINE
  5
416A
  8
0
  6
BYBLOCK
 62
     0
 10
949.95189002176483
 20
2519.6336288297748
 30
0.0
 11
949.14804245176481
 21
2516.6336288297748
 31
0.0
  0
LINE
  5
416B
  8
0
  6
BYBLOCK
 62
     0
 10
949.14804245176481
 20
2516.6336288297748
 30
0.0
 11
948.34419488176468
 21
2519.6336288297748
 31
0.0
  0
LINE
  5
416C
  8
0
  6
BYBLOCK
 62
     0
 10
949.14804245176481
 20
2516.6336288297748
 30
0.0
 11
949.14804245176481
 21
2519.6336288297748
 31
0.0
  0
LINE
  5
416D
  8
0
  6
BYBLOCK
 62
     0
 10
948.34419488176468
 20
2522.6336288297748
 30
0.0
 11
949.14804245176481
 21
2525.6336288297748
 31
0.0
  0
LINE
  5
416E
  8
0
  6
BYBLOCK
 62
     0
 10
949.14804245176481
 20
2525.6336288297748
 30
0.0
 11
949.95189002176483
 21
2522.6336288297748
 31
0.0
  0
LINE
  5
416F
  8
0
  6
BYBLOCK
 62
     0
 10
949.14804245176481
 20
2525.6336288297748
 30
0.0
 11
949.14804245176481
 21
2522.6336288297748
 31
0.0
  0
TEXT
  5
4170
  8
寸法線
 10
1029.8838738497061
 20
2502.8926662540598
 30
0.0
 40
3.0
  1
60
  7
JAPANESE
  0
LINE
  5
4171
  8
0
  6
BYBLOCK
 62
     0
 10
1059.8124452782779
 20
2502.6965138240598
 30
0.0
 11
1062.812445278277
 21
2501.8926662540598
 31
0.0
  0
LINE
  5
4172
  8
0
  6
BYBLOCK
 62
     0
 10
1062.812445278277
 20
2501.8926662540598
 30
0.0
 11
1059.8124452782779
 21
2501.0888186840598
 31
0.0
  0
LINE
  5
4173
  8
0
  6
BYBLOCK
 62
     0
 10
1062.812445278277
 20
2501.8926662540598
 30
0.0
 11
1059.8124452782779
 21
2501.8926662540598
 31
0.0
  0
LINE
  5
4174
  8
0
  6
BYBLOCK
 62
     0
 10
1005.812445278277
 20
2501.0888186840598
 30
0.0
 11
1002.812445278277
 21
2501.8926662540598
 31
0.0
  0
LINE
  5
4175
  8
0
  6
BYBLOCK
 62
     0
 10
1002.812445278277
 20
2501.8926662540598
 30
0.0
 11
1005.812445278277
 21
2502.6965138240598
 31
0.0
  0
LINE
  5
4176
  8
0
  6
BYBLOCK
 62
     0
 10
1002.812445278277
 20
2501.8926662540598
 30
0.0
 11
1005.812445278277
 21
2501.8926662540598
 31
0.0
  0
TEXT
  5
4177
  8
寸法線
 10
984.70505975137849
 20
2478.1235856047902
 30
0.0
 40
3.0
  1
10
 50
90.0
  7
JAPANESE
  0
LINE
  5
4178
  8
0
  6
BYBLOCK
 62
     0
 10
986.50890732137896
 20
2479.1950141762181
 30
0.0
 11
985.70505975137883
 21
2476.1950141762181
 31
0.0
  0
LINE
  5
4179
  8
0
  6
BYBLOCK
 62
     0
 10
985.70505975137883
 20
2476.1950141762181
 30
0.0
 11
984.90121218137892
 21
2479.1950141762181
 31
0.0
  0
LINE
  5
417A
  8
0
  6
BYBLOCK
 62
     0
 10
985.70505975137883
 20
2476.1950141762181
 30
0.0
 11
985.70505975137883
 21
2479.1950141762181
 31
0.0
  0
LINE
  5
417B
  8
0
  6
BYBLOCK
 62
     0
 10
984.90121218137892
 20
2483.1950141762181
 30
0.0
 11
985.70505975137883
 21
2486.1950141762181
 31
0.0
  0
LINE
  5
417C
  8
0
  6
BYBLOCK
 62
     0
 10
985.70505975137883
 20
2486.1950141762181
 30
0.0
 11
986.50890732137896
 21
2483.1950141762181
 31
0.0
  0
LINE
  5
417D
  8
0
  6
BYBLOCK
 62
     0
 10
985.70505975137883
 20
2486.1950141762181
 30
0.0
 11
985.70505975137883
 21
2483.1950141762181
 31
0.0
  0
TEXT
  5
417E
  8
寸法線
 10
1110.957713993703
 20
2534.6231789468902
 30
0.0
 40
3.0
  1
35
  7
JAPANESE
  0
LINE
  5
417F
  8
0
  6
BYBLOCK
 62
     0
 10
1128.314856850845
 20
2534.4270265168898
 30
0.0
 11
1131.314856850845
 21
2533.6231789468902
 31
0.0
  0
LINE
  5
4180
  8
0
  6
BYBLOCK
 62
     0
 10
1131.314856850845
 20
2533.6231789468902
 30
0.0
 11
1128.314856850845
 21
2532.8193313768888
 31
0.0
  0
LINE
  5
4181
  8
0
  6
BYBLOCK
 62
     0
 10
1131.314856850845
 20
2533.6231789468902
 30
0.0
 11
1128.314856850845
 21
2533.6231789468902
 31
0.0
  0
LINE
  5
4182
  8
0
  6
BYBLOCK
 62
     0
 10
1099.314856850845
 20
2532.8193313768888
 30
0.0
 11
1096.314856850845
 21
2533.6231789468902
 31
0.0
  0
LINE
  5
4183
  8
0
  6
BYBLOCK
 62
     0
 10
1096.314856850845
 20
2533.6231789468902
 30
0.0
 11
1099.314856850845
 21
2534.4270265168898
 31
0.0
  0
LINE
  5
4184
  8
0
  6
BYBLOCK
 62
     0
 10
1096.314856850845
 20
2533.6231789468902
 30
0.0
 11
1099.314856850845
 21
2533.6231789468902
 31
0.0
  0
TEXT
  5
4185
  8
寸法線
 10
1204.7337421218649
 20
2443.5573543382411
 30
0.0
 40
3.0
  1
15
 50
90.0
  7
JAPANESE
  0
LINE
  5
4186
  8
0
  6
BYBLOCK
 62
     0
 10
1206.5375896918649
 20
2442.1287829096691
 30
0.0
 11
1205.7337421218649
 21
2439.1287829096691
 31
0.0
  0
LINE
  5
4187
  8
0
  6
BYBLOCK
 62
     0
 10
1205.7337421218649
 20
2439.1287829096691
 30
0.0
 11
1204.9298945518649
 21
2442.1287829096691
 31
0.0
  0
LINE
  5
4188
  8
0
  6
BYBLOCK
 62
     0
 10
1205.7337421218649
 20
2439.1287829096691
 30
0.0
 11
1205.7337421218649
 21
2442.1287829096691
 31
0.0
  0
LINE
  5
4189
  8
0
  6
BYBLOCK
 62
     0
 10
1204.9298945518649
 20
2451.1287829096691
 30
0.0
 11
1205.7337421218649
 21
2454.1287829096691
 31
0.0
  0
LINE
  5
418A
  8
0
  6
BYBLOCK
 62
     0
 10
1205.7337421218649
 20
2454.1287829096691
 30
0.0
 11
1206.5375896918649
 21
2451.1287829096691
 31
0.0
  0
LINE
  5
418B
  8
0
  6
BYBLOCK
 62
     0
 10
1205.7337421218649
 20
2454.1287829096691
 30
0.0
 11
1205.7337421218649
 21
2451.1287829096691
 31
0.0
  0
TEXT
  5
418C
  8
寸法線
 10
970.79009104398892
 20
2435.2255257360021
 30
0.0
 40
3.0
  1
16.45
 50
90.0
  7
JAPANESE
  0
LINE
  5
418D
  8
0
  6
BYBLOCK
 62
     0
 10
970.98624347398925
 20
2447.0956242148109
 30
0.0
 11
971.79009104398938
 21
2450.0956242148109
 31
0.0
  0
LINE
  5
418E
  8
0
  6
BYBLOCK
 62
     0
 10
971.79009104398938
 20
2450.0956242148109
 30
0.0
 11
972.59393861398928
 21
2447.0956242148109
 31
0.0
  0
LINE
  5
418F
  8
0
  6
BYBLOCK
 62
     0
 10
971.79009104398938
 20
2450.0956242148109
 30
0.0
 11
971.79009104398938
 21
2447.0956242148109
 31
0.0
  0
LINE
  5
4190
  8
0
  6
BYBLOCK
 62
     0
 10
972.59393861398928
 20
2436.641141542907
 30
0.0
 11
971.79009104398938
 21
2433.641141542907
 31
0.0
  0
LINE
  5
4191
  8
0
  6
BYBLOCK
 62
     0
 10
971.79009104398938
 20
2433.641141542907
 30
0.0
 11
970.98624347398925
 21
2436.641141542907
 31
0.0
  0
LINE
  5
4192
  8
0
  6
BYBLOCK
 62
     0
 10
971.79009104398938
 20
2433.641141542907
 30
0.0
 11
971.79009104398938
 21
2436.641141542907
 31
0.0
  0
TEXT
  5
4193
  8
寸法線
 10
1002.757445923787
 20
2463.7252698675902
 30
0.0
 40
3.0
  1
19
  7
JAPANESE
  0
LINE
  5
4194
  8
0
  6
BYBLOCK
 62
     0
 10
1012.257445923787
 20
2463.5291174375911
 30
0.0
 11
1015.257445923787
 21
2462.7252698675902
 31
0.0
  0
LINE
  5
4195
  8
0
  6
BYBLOCK
 62
     0
 10
1015.257445923787
 20
2462.7252698675902
 30
0.0
 11
1012.257445923787
 21
2461.9214222975902
 31
0.0
  0
LINE
  5
4196
  8
0
  6
BYBLOCK
 62
     0
 10
1015.257445923787
 20
2462.7252698675902
 30
0.0
 11
1012.257445923787
 21
2462.7252698675902
 31
0.0
  0
LINE
  5
4197
  8
0
  6
BYBLOCK
 62
     0
 10
999.25744592378749
 20
2461.9214222975902
 30
0.0
 11
996.2574459237876
 21
2462.7252698675902
 31
0.0
  0
LINE
  5
4198
  8
0
  6
BYBLOCK
 62
     0
 10
996.2574459237876
 20
2462.7252698675902
 30
0.0
 11
999.25744592378749
 21
2463.5291174375911
 31
0.0
  0
LINE
  5
4199
  8
0
  6
BYBLOCK
 62
     0
 10
996.2574459237876
 20
2462.7252698675902
 30
0.0
 11
999.25744592378749
 21
2462.7252698675902
 31
0.0
  0
TEXT
  5
419A
  8
寸法線
 10
1170.908750047091
 20
2540.024297932538
 30
0.0
 40
3.0
  1
37
  7
JAPANESE
  0
LINE
  5
419B
  8
0
  6
BYBLOCK
 62
     0
 10
1189.2658929042329
 20
2539.8281455025381
 30
0.0
 11
1192.2658929042341
 21
2539.024297932538
 31
0.0
  0
LINE
  5
419C
  8
0
  6
BYBLOCK
 62
     0
 10
1192.2658929042341
 20
2539.024297932538
 30
0.0
 11
1189.2658929042329
 21
2538.220450362538
 31
0.0
  0
LINE
  5
419D
  8
0
  6
BYBLOCK
 62
     0
 10
1192.2658929042341
 20
2539.024297932538
 30
0.0
 11
1189.2658929042329
 21
2539.024297932538
 31
0.0
  0
LINE
  5
419E
  8
0
  6
BYBLOCK
 62
     0
 10
1158.2658929042329
 20
2538.220450362538
 30
0.0
 11
1155.2658929042329
 21
2539.024297932538
 31
0.0
  0
LINE
  5
419F
  8
0
  6
BYBLOCK
 62
     0
 10
1155.2658929042329
 20
2539.024297932538
 30
0.0
 11
1158.2658929042329
 21
2539.8281455025381
 31
0.0
  0
LINE
  5
41A0
  8
0
  6
BYBLOCK
 62
     0
 10
1155.2658929042329
 20
2539.024297932538
 30
0.0
 11
1158.2658929042329
 21
2539.024297932538
 31
0.0
  0
TEXT
  5
41A1
  8
寸法線
 10
1005.035424213687
 20
2540.6675577896972
 30
0.0
 40
3.0
  1
115
  7
JAPANESE
  0
LINE
  5
41A2
  8
0
  6
BYBLOCK
 62
     0
 10
1064.0354242136871
 20
2540.4714053596972
 30
0.0
 11
1067.0354242136871
 21
2539.6675577896972
 31
0.0
  0
LINE
  5
41A3
  8
0
  6
BYBLOCK
 62
     0
 10
1067.0354242136871
 20
2539.6675577896972
 30
0.0
 11
1064.0354242136871
 21
2538.8637102196972
 31
0.0
  0
LINE
  5
41A4
  8
0
  6
BYBLOCK
 62
     0
 10
1067.0354242136871
 20
2539.6675577896972
 30
0.0
 11
1064.0354242136871
 21
2539.6675577896972
 31
0.0
  0
LINE
  5
41A5
  8
0
  6
BYBLOCK
 62
     0
 10
955.03542421368718
 20
2538.8637102196972
 30
0.0
 11
952.03542421368729
 21
2539.6675577896972
 31
0.0
  0
LINE
  5
41A6
  8
0
  6
BYBLOCK
 62
     0
 10
952.03542421368729
 20
2539.6675577896972
 30
0.0
 11
955.03542421368718
 21
2540.4714053596972
 31
0.0
  0
LINE
  5
41A7
  8
0
  6
BYBLOCK
 62
     0
 10
952.03542421368729
 20
2539.6675577896972
 30
0.0
 11
955.03542421368718
 21
2539.6675577896972
 31
0.0
  0
VIEWPORT
  5
45
 67
     1
  8
0
 10
145.02464583518139
 20
114.1827592269839
 30
0.0
 40
394.60064832787788
 41
238.39148865595169
 68
     1
 69
     1
1001
ACAD
1000
MVIEW
1002
{
1070
    16
1010
0.0
1020
0.0
1030
0.0
1010
0.0
1020
0.0
1030
1.0
1040
0.0
1040
238.39148865595169
1040
145.02464583518139
1040
114.1827592269839
1040
50.0
1040
0.0
1040
0.0
1070
     0
1070
  1000
1070
     1
1070
     1
1070
     0
1070
     0
1070
     0
1070
     0
1040
0.0
1040
0.0
1040
0.0
1040
10.0
1040
10.0
1040
10.0
1040
10.0
1070
     0
1002
{
1002
}
1002
}
  0
VIEWPORT
  5
48
 67
     1
  8
DEFPOINTS
 10
144.1041208897276
 20
100.9551887970493
 30
0.0
 40
295.73573742630037
 41
209.39189425936181
 68
     2
 69
     2
1001
ACAD
1000
MVIEW
1002
{
1070
    16
1010
0.0
1020
0.0
1030
0.0
1010
0.0
1020
0.0
1030
1.0
1040
0.0
1040
209.39189425936181
1040
1078.0081220298071
1040
2457.5095021827742
1040
50.0
1040
0.0
1040
0.0
1070
     0
1070
  1000
1070
     1
1070
     3
1070
     0
1070
     0
1070
     0
1070
     0
1040
0.0
1040
0.0
1040
0.0
1040
10.0
1040
10.0
1040
10.0
1040
10.0
1070
     0
1002
{
1002
}
1002
}
  0
ENDSEC
  0
EOF
