0
SECTION
2
HEADER
9
$ACADVER
1
AC1009
9
$DWGCODEPAGE
3
ANSI_932
9
$EXTMIN
10
0.000
20
0.000
30
0.0
9
$EXTMAX
10
11880.000
20
8400.000
30
0.0
9
$LTSCALE
40
20.000
9
$PDMODE
70
0
9
$PDSIZE
40
40.0
0
ENDSEC
0
SECTION
2
TABLES
0
TABLE
2
LTYPE
70
9
0
LTYPE
5
1f4
2
CONTINUOUS
70
64
3
SolidLine
72
65
73
0
40
0.0
0
LTYPE
5
1f5
2
DOT
70
64
3
--  --  --  --  --  --  --  --     
72
65
73
2
40
3.000
49
1.000
49
-2.000
0
LTYPE
5
1f6
2
DASHED
70
64
3
----    ----    ----    ----    
72
65
73
2
40
5.000
49
2.000
49
-3.000
0
LTYPE
5
1f7
2
DASHED2
70
64
3
------  ------  ------  ------ 
72
65
73
2
40
10.000
49
4.000
49
-6.000
0
LTYPE
5
1f8
2
CENTER
70
64
3
----- - ----- - ----- - ----- - 
72
65
73
4
40
10.000
49
6.000
49
-3.000
49
1.000
49
-3.000
0
LTYPE
5
1f9
2
CENTER2
70
64
3
----------  --  ----------  -- 
72
65
73
4
40
17.000
49
12.000
49
-5.000
49
2.000
49
-5.000
0
LTYPE
5
1fa
2
PHANTOM
70
64
3
--- - - --- - - --- - - --- - -
72
65
73
6
40
13.000
49
5.000
49
-3.000
49
1.000
49
-3.000
49
1.000
49
-3.000
0
LTYPE
5
1fb
2
PHANTOM2
70
64
3
--------  -  -  --------  -  -
72
65
73
6
40
20.000
49
6.000
49
-5.000
49
2.000
49
-5.000
49
2.000
49
-5.000
0
LTYPE
5
1fc
2
HIDDEN
70
64
3
-   -   -   -   -   -   -   -   
72
65
73
2
40
3.000
49
0.500
49
-2.500
0
ENDTAB
0
TABLE
2
STYLE
70
1
0
STYLE
5
1fd
100
AcDbSymbolTableRecord
100
AcDbTextStyleTableRecord
2
STANDARD
70
0
40
0.0
41
1.0
50
0.0
71
0
42
0.0
3
txt.shx
4
extfont.shx
0
STYLE
5
1fe
100
AcDbSymbolTableRecord
100
AcDbTextStyleTableRecord
2
TATEGAKI
70
4
40
0.0
41
1.0
50
0.0
71
0
42
0.0
3
txt.shx
4
extfont.shx
0
STYLE
5
1ff
100
AcDbSymbolTableRecord
100
AcDbTextStyleTableRecord
2
DIM
70
0
40
0.0
41
0.75
50
0.0
71
0
42
0.0
3
txt.shx
4
extfont.shx
0
STYLE
5
200
100
AcDbSymbolTableRecord
100
AcDbTextStyleTableRecord
2
_Gothic__
70
0
40
0.0
41
1.0
50
0.0
71
0
42
0.0
3
MS Gothic
4

0
STYLE
5
201
100
AcDbSymbolTableRecord
100
AcDbTextStyleTableRecord
2
_TateGothic_
70
4
40
0.0
41
1.0
50
0.0
71
0
42
0.0
3
@MS Gothic
4

0
ENDTAB
0
TABLE
2
LAYER
5
403
100
AcDbSymbolTable
70
10
0
LAYER
5
404
100
AcDbSymbolTableRecord
100
AcDbLayerTableRecord
2
2-0
70
0
62
7
6
CONTINUOUS
0
LAYER
5
405
100
AcDbSymbolTableRecord
100
AcDbLayerTableRecord
2
3-0
70
0
62
7
6
CONTINUOUS
0
LAYER
5
406
100
AcDbSymbolTableRecord
100
AcDbLayerTableRecord
2
4-0
70
0
62
7
6
CONTINUOUS
0
LAYER
5
407
100
AcDbSymbolTableRecord
100
AcDbLayerTableRecord
2
5-0
70
0
62
-7
6
CONTINUOUS
0
LAYER
5
408
100
AcDbSymbolTableRecord
100
AcDbLayerTableRecord
2
6-0
70
0
62
-7
6
CONTINUOUS
0
LAYER
5
409
100
AcDbSymbolTableRecord
100
AcDbLayerTableRecord
2
7-0
70
0
62
3
6
CONTINUOUS
0
LAYER
5
40a
100
AcDbSymbolTableRecord
100
AcDbLayerTableRecord
2
E-0
70
0
62
6
6
CONTINUOUS
0
LAYER
5
40b
100
AcDbSymbolTableRecord
100
AcDbLayerTableRecord
2
F-0
70
0
62
6
6
CONTINUOUS
0
LAYER
5
40c
100
AcDbSymbolTableRecord
100
AcDbLayerTableRecord
2
0-1
70
0
62
3
6
CONTINUOUS
0
LAYER
5
40d
100
AcDbSymbolTableRecord
100
AcDbLayerTableRecord
2
1-1
70
0
62
1
6
CENTER2
0
LAYER
5
40e
100
AcDbSymbolTableRecord
100
AcDbLayerTableRecord
2
2-1
70
0
62
4
6
CONTINUOUS
0
ENDTAB
0
ENDSEC
0
SECTION
2
ENTITIES
0
LINE
5
40f
100
AcDbEntity
8
6-0
6
CONTINUOUS
62
7
100
AcDbLine
10
0.000000000000
20
0.000000243530
30
0.0
11
2100.000000000000
21
0.000000243530
31
0.0
0
LINE
5
410
100
AcDbEntity
8
6-0
6
CONTINUOUS
62
7
100
AcDbLine
10
2100.000000000000
20
0.000000243530
30
0.0
11
2100.000000000000
21
2970.000000243530
31
0.0
0
LINE
5
411
100
AcDbEntity
8
6-0
6
CONTINUOUS
62
7
100
AcDbLine
10
2100.000000000000
20
2970.000000243530
30
0.0
11
0.000000000000
21
2970.000000243530
31
0.0
0
LINE
5
412
100
AcDbEntity
8
6-0
6
CONTINUOUS
62
7
100
AcDbLine
10
0.000000000000
20
2970.000000243530
30
0.0
11
0.000000000000
21
0.000000243530
31
0.0
0
LINE
5
413
100
AcDbEntity
8
1-1
6
CENTER2
62
16
100
AcDbLine
10
237.614521000000
20
2370.824391243530
30
0.0
11
1037.614521000000
21
2370.824391243530
31
0.0
0
LINE
5
414
100
AcDbEntity
8
4-0
6
CONTINUOUS
62
5
100
AcDbLine
10
637.642521000000
20
2148.504391243530
30
0.0
11
671.979521000000
21
2150.083391243530
31
0.0
0
LINE
5
415
100
AcDbEntity
8
4-0
6
CONTINUOUS
62
5
100
AcDbLine
10
671.979521000000
20
2150.083391243530
30
0.0
11
708.479521000000
21
2155.001391243530
31
0.0
0
LINE
5
416
100
AcDbEntity
8
4-0
6
CONTINUOUS
62
5
100
AcDbLine
10
708.479521000000
20
2155.001391243530
30
0.0
11
745.779521000000
21
2163.532391243530
31
0.0
0
LINE
5
417
100
AcDbEntity
8
4-0
6
CONTINUOUS
62
5
100
AcDbLine
10
745.779521000000
20
2163.532391243530
30
0.0
11
782.519521000000
21
2175.948391243530
31
0.0
0
LINE
5
418
100
AcDbEntity
8
4-0
6
CONTINUOUS
62
5
100
AcDbLine
10
782.519521000000
20
2175.948391243530
30
0.0
11
810.595521000000
21
2188.862391243530
31
0.0
0
LINE
5
419
100
AcDbEntity
8
4-0
6
CONTINUOUS
62
5
100
AcDbLine
10
810.595521000000
20
2188.862391243530
30
0.0
11
830.426521000000
21
2200.378391243530
31
0.0
0
LINE
5
41a
100
AcDbEntity
8
4-0
6
CONTINUOUS
62
5
100
AcDbLine
10
830.426521000000
20
2200.378391243530
30
0.0
11
848.881521000000
21
2213.529391243530
31
0.0
0
LINE
5
41b
100
AcDbEntity
8
4-0
6
CONTINUOUS
62
5
100
AcDbLine
10
848.881521000000
20
2213.529391243530
30
0.0
11
865.664521000000
21
2228.373391243530
31
0.0
0
LINE
5
41c
100
AcDbEntity
8
4-0
6
CONTINUOUS
62
5
100
AcDbLine
10
865.664521000000
20
2228.373391243530
30
0.0
11
880.484521000000
21
2244.970391243530
31
0.0
0
LINE
5
41d
100
AcDbEntity
8
4-0
6
CONTINUOUS
62
5
100
AcDbLine
10
880.484521000000
20
2244.970391243530
30
0.0
11
889.127521000000
21
2257.037391243530
31
0.0
0
LINE
5
41e
100
AcDbEntity
8
4-0
6
CONTINUOUS
62
5
100
AcDbLine
10
889.127521000000
20
2257.037391243530
30
0.0
11
896.679521000000
21
2269.926391243530
31
0.0
0
LINE
5
41f
100
AcDbEntity
8
4-0
6
CONTINUOUS
62
5
100
AcDbLine
10
896.679521000000
20
2269.926391243530
30
0.0
11
903.053521000000
21
2283.656391243530
31
0.0
0
LINE
5
420
100
AcDbEntity
8
4-0
6
CONTINUOUS
62
5
100
AcDbLine
10
903.053521000000
20
2283.656391243530
30
0.0
11
908.162521000000
21
2298.243391243530
31
0.0
0
LINE
5
421
100
AcDbEntity
8
4-0
6
CONTINUOUS
62
5
100
AcDbLine
10
908.162521000000
20
2298.243391243530
30
0.0
11
911.920521000000
21
2313.705391243530
31
0.0
0
LINE
5
422
100
AcDbEntity
8
4-0
6
CONTINUOUS
62
5
100
AcDbLine
10
911.920521000000
20
2313.705391243530
30
0.0
11
914.238521000000
21
2330.060391243530
31
0.0
0
LINE
5
423
100
AcDbEntity
8
4-0
6
CONTINUOUS
62
5
100
AcDbLine
10
914.238521000000
20
2330.060391243530
30
0.0
11
915.030521000000
21
2347.324391243530
31
0.0
0
LINE
5
424
100
AcDbEntity
8
4-0
6
CONTINUOUS
62
5
100
AcDbLine
10
915.030521000000
20
2347.324391243530
30
0.0
11
913.875521000000
21
2367.132391243530
31
0.0
0
LINE
5
425
100
AcDbEntity
8
4-0
6
CONTINUOUS
62
5
100
AcDbLine
10
913.875521000000
20
2367.132391243530
30
0.0
11
911.891521000000
21
2379.134391243530
31
0.0
0
LINE
5
426
100
AcDbEntity
8
4-0
6
CONTINUOUS
62
5
100
AcDbLine
10
911.891521000000
20
2379.134391243530
30
0.0
11
909.016521000000
21
2390.215391243531
31
0.0
0
LINE
5
427
100
AcDbEntity
8
4-0
6
CONTINUOUS
62
5
100
AcDbLine
10
909.016521000000
20
2390.215391243531
30
0.0
11
905.317521000000
21
2400.412391243530
31
0.0
0
LINE
5
428
100
AcDbEntity
8
4-0
6
CONTINUOUS
62
5
100
AcDbLine
10
905.317521000000
20
2400.412391243530
30
0.0
11
900.861521000000
21
2409.761391243530
31
0.0
0
LINE
5
429
100
AcDbEntity
8
4-0
6
CONTINUOUS
62
5
100
AcDbLine
10
900.861521000000
20
2409.761391243530
30
0.0
11
895.717521000000
21
2418.298391243529
31
0.0
0
LINE
5
42a
100
AcDbEntity
8
4-0
6
CONTINUOUS
62
5
100
AcDbLine
10
895.717521000000
20
2418.298391243529
30
0.0
11
889.951521000000
21
2426.060391243530
31
0.0
0
LINE
5
42b
100
AcDbEntity
8
4-0
6
CONTINUOUS
62
5
100
AcDbLine
10
889.951521000000
20
2426.060391243530
30
0.0
11
883.632521000000
21
2433.083391243530
31
0.0
0
LINE
5
42c
100
AcDbEntity
8
4-0
6
CONTINUOUS
62
5
100
AcDbLine
10
883.632521000000
20
2433.083391243530
30
0.0
11
873.263521000000
21
2442.309391243530
31
0.0
0
LINE
5
42d
100
AcDbEntity
8
4-0
6
CONTINUOUS
62
5
100
AcDbLine
10
873.263521000000
20
2442.309391243530
30
0.0
11
862.029521000000
21
2450.077391243530
31
0.0
0
LINE
5
42e
100
AcDbEntity
8
4-0
6
CONTINUOUS
62
5
100
AcDbLine
10
862.029521000000
20
2450.077391243530
30
0.0
11
850.158521000000
21
2456.507391243530
31
0.0
0
LINE
5
42f
100
AcDbEntity
8
4-0
6
CONTINUOUS
62
5
100
AcDbLine
10
850.158521000000
20
2456.507391243530
30
0.0
11
837.878521000000
21
2461.723391243530
31
0.0
0
LINE
5
430
100
AcDbEntity
8
4-0
6
CONTINUOUS
62
5
100
AcDbLine
10
837.878521000000
20
2461.723391243530
30
0.0
11
821.264521000000
21
2466.999391243530
31
0.0
0
LINE
5
431
100
AcDbEntity
8
4-0
6
CONTINUOUS
62
5
100
AcDbLine
10
821.264521000000
20
2466.999391243530
30
0.0
11
800.869521000000
21
2471.305391243530
31
0.0
0
LINE
5
432
100
AcDbEntity
8
4-0
6
CONTINUOUS
62
5
100
AcDbLine
10
800.869521000000
20
2471.305391243530
30
0.0
11
778.336521000000
21
2473.863391243530
31
0.0
0
LINE
5
433
100
AcDbEntity
8
4-0
6
CONTINUOUS
62
5
100
AcDbLine
10
778.336521000000
20
2473.863391243530
30
0.0
11
759.647521000000
21
2474.498391243530
31
0.0
0
LINE
5
434
100
AcDbEntity
8
4-0
6
CONTINUOUS
62
5
100
AcDbLine
10
759.647521000000
20
2474.498391243530
30
0.0
11
753.014521000000
21
2474.184391243530
31
0.0
0
LINE
5
435
100
AcDbEntity
8
4-0
6
CONTINUOUS
62
5
100
AcDbLine
10
753.014521000000
20
2474.184391243530
30
0.0
11
744.146521000000
21
2472.882391243530
31
0.0
0
LINE
5
436
100
AcDbEntity
8
4-0
6
CONTINUOUS
62
5
100
AcDbLine
10
744.146521000000
20
2472.882391243530
30
0.0
11
732.969521000000
21
2470.099391243531
31
0.0
0
LINE
5
437
100
AcDbEntity
8
4-0
6
CONTINUOUS
62
5
100
AcDbLine
10
732.969521000000
20
2470.099391243531
30
0.0
11
662.695521000000
21
2446.781391243530
31
0.0
0
LINE
5
438
100
AcDbEntity
8
4-0
6
CONTINUOUS
62
5
100
AcDbLine
10
662.695521000000
20
2446.781391243530
30
0.0
11
651.811521000000
21
2445.037391243530
31
0.0
0
LINE
5
439
100
AcDbEntity
8
4-0
6
CONTINUOUS
62
5
100
AcDbLine
10
651.811521000000
20
2445.037391243530
30
0.0
11
637.642521000000
21
2444.189391243530
31
0.0
0
LINE
5
43a
100
AcDbEntity
8
4-0
6
CONTINUOUS
62
5
100
AcDbLine
10
637.642521000000
20
2444.189391243530
30
0.0
11
626.255521000000
21
2444.740391243530
31
0.0
0
LINE
5
43b
100
AcDbEntity
8
4-0
6
CONTINUOUS
62
5
100
AcDbLine
10
626.255521000000
20
2444.740391243530
30
0.0
11
612.589521000000
21
2446.781391243530
31
0.0
0
LINE
5
43c
100
AcDbEntity
8
4-0
6
CONTINUOUS
62
5
100
AcDbLine
10
612.589521000000
20
2446.781391243530
30
0.0
11
596.932521000000
21
2450.736391243529
31
0.0
0
LINE
5
43d
100
AcDbEntity
8
4-0
6
CONTINUOUS
62
5
100
AcDbLine
10
596.932521000000
20
2450.736391243529
30
0.0
11
531.138521000000
21
2472.882391243530
31
0.0
0
LINE
5
43e
100
AcDbEntity
8
4-0
6
CONTINUOUS
62
5
100
AcDbLine
10
531.138521000000
20
2472.882391243530
30
0.0
11
524.483521000000
21
2473.947391243531
31
0.0
0
LINE
5
43f
100
AcDbEntity
8
4-0
6
CONTINUOUS
62
5
100
AcDbLine
10
524.483521000000
20
2473.947391243531
30
0.0
11
515.637521000000
21
2474.498391243530
31
0.0
0
LINE
5
440
100
AcDbEntity
8
4-0
6
CONTINUOUS
62
5
100
AcDbLine
10
515.637521000000
20
2474.498391243530
30
0.0
11
489.774521000000
21
2473.273391243530
31
0.0
0
LINE
5
441
100
AcDbEntity
8
4-0
6
CONTINUOUS
62
5
100
AcDbLine
10
489.774521000000
20
2473.273391243530
30
0.0
11
466.366521000000
21
2469.857391243530
31
0.0
0
LINE
5
442
100
AcDbEntity
8
4-0
6
CONTINUOUS
62
5
100
AcDbLine
10
466.366521000000
20
2469.857391243530
30
0.0
11
445.707521000000
21
2464.586391243530
31
0.0
0
LINE
5
443
100
AcDbEntity
8
4-0
6
CONTINUOUS
62
5
100
AcDbLine
10
445.707521000000
20
2464.586391243530
30
0.0
11
429.185521000000
21
2458.375391243530
31
0.0
0
LINE
5
444
100
AcDbEntity
8
4-0
6
CONTINUOUS
62
5
100
AcDbLine
10
429.185521000000
20
2458.375391243530
30
0.0
11
417.153521000000
21
2452.363391243530
31
0.0
0
LINE
5
445
100
AcDbEntity
8
4-0
6
CONTINUOUS
62
5
100
AcDbLine
10
417.153521000000
20
2452.363391243530
30
0.0
11
405.681521000000
21
2445.055391243530
31
0.0
0
LINE
5
446
100
AcDbEntity
8
4-0
6
CONTINUOUS
62
5
100
AcDbLine
10
405.681521000000
20
2445.055391243530
30
0.0
11
394.998521000000
21
2436.328391243530
31
0.0
0
LINE
5
447
100
AcDbEntity
8
4-0
6
CONTINUOUS
62
5
100
AcDbLine
10
394.998521000000
20
2436.328391243530
30
0.0
11
388.428521000000
21
2429.661391243531
31
0.0
0
LINE
5
448
100
AcDbEntity
8
4-0
6
CONTINUOUS
62
5
100
AcDbLine
10
388.428521000000
20
2429.661391243531
30
0.0
11
382.377521000000
21
2422.274391243530
31
0.0
0
LINE
5
449
100
AcDbEntity
8
4-0
6
CONTINUOUS
62
5
100
AcDbLine
10
382.377521000000
20
2422.274391243530
30
0.0
11
376.913521000000
21
2414.129391243529
31
0.0
0
LINE
5
44a
100
AcDbEntity
8
4-0
6
CONTINUOUS
62
5
100
AcDbLine
10
376.913521000000
20
2414.129391243529
30
0.0
11
372.105521000000
21
2405.190391243530
31
0.0
0
LINE
5
44b
100
AcDbEntity
8
4-0
6
CONTINUOUS
62
5
100
AcDbLine
10
372.105521000000
20
2405.190391243530
30
0.0
11
368.019521000000
21
2395.422391243530
31
0.0
0
LINE
5
44c
100
AcDbEntity
8
4-0
6
CONTINUOUS
62
5
100
AcDbLine
10
368.019521000000
20
2395.422391243530
30
0.0
11
364.723521000000
21
2384.787391243530
31
0.0
0
LINE
5
44d
100
AcDbEntity
8
4-0
6
CONTINUOUS
62
5
100
AcDbLine
10
364.723521000000
20
2384.787391243530
30
0.0
11
362.285521000000
21
2373.250391243530
31
0.0
0
LINE
5
44e
100
AcDbEntity
8
4-0
6
CONTINUOUS
62
5
100
AcDbLine
10
362.285521000000
20
2373.250391243530
30
0.0
11
360.773521000000
21
2360.775391243530
31
0.0
0
LINE
5
44f
100
AcDbEntity
8
4-0
6
CONTINUOUS
62
5
100
AcDbLine
10
360.773521000000
20
2360.775391243530
30
0.0
11
360.254521000000
21
2347.324391243530
31
0.0
0
LINE
5
450
100
AcDbEntity
8
4-0
6
CONTINUOUS
62
5
100
AcDbLine
10
360.254521000000
20
2347.324391243530
30
0.0
11
361.046521000000
21
2330.060391243530
31
0.0
0
LINE
5
451
100
AcDbEntity
8
4-0
6
CONTINUOUS
62
5
100
AcDbLine
10
361.046521000000
20
2330.060391243530
30
0.0
11
363.364521000000
21
2313.705391243530
31
0.0
0
LINE
5
452
100
AcDbEntity
8
4-0
6
CONTINUOUS
62
5
100
AcDbLine
10
363.364521000000
20
2313.705391243530
30
0.0
11
367.122521000000
21
2298.243391243530
31
0.0
0
LINE
5
453
100
AcDbEntity
8
4-0
6
CONTINUOUS
62
5
100
AcDbLine
10
367.122521000000
20
2298.243391243530
30
0.0
11
372.231521000000
21
2283.656391243530
31
0.0
0
LINE
5
454
100
AcDbEntity
8
4-0
6
CONTINUOUS
62
5
100
AcDbLine
10
372.231521000000
20
2283.656391243530
30
0.0
11
378.605521000000
21
2269.926391243530
31
0.0
0
LINE
5
455
100
AcDbEntity
8
4-0
6
CONTINUOUS
62
5
100
AcDbLine
10
378.605521000000
20
2269.926391243530
30
0.0
11
386.158521000000
21
2257.037391243530
31
0.0
0
LINE
5
456
100
AcDbEntity
8
4-0
6
CONTINUOUS
62
5
100
AcDbLine
10
386.158521000000
20
2257.037391243530
30
0.0
11
394.801521000000
21
2244.970391243530
31
0.0
0
LINE
5
457
100
AcDbEntity
8
4-0
6
CONTINUOUS
62
5
100
AcDbLine
10
394.801521000000
20
2244.970391243530
30
0.0
11
409.620521000000
21
2228.373391243530
31
0.0
0
LINE
5
458
100
AcDbEntity
8
4-0
6
CONTINUOUS
62
5
100
AcDbLine
10
409.620521000000
20
2228.373391243530
30
0.0
11
426.404521000000
21
2213.529391243530
31
0.0
0
LINE
5
459
100
AcDbEntity
8
4-0
6
CONTINUOUS
62
5
100
AcDbLine
10
426.404521000000
20
2213.529391243530
30
0.0
11
444.858521000000
21
2200.378391243530
31
0.0
0
LINE
5
45a
100
AcDbEntity
8
4-0
6
CONTINUOUS
62
5
100
AcDbLine
10
444.858521000000
20
2200.378391243530
30
0.0
11
464.689521000000
21
2188.862391243530
31
0.0
0
LINE
5
45b
100
AcDbEntity
8
4-0
6
CONTINUOUS
62
5
100
AcDbLine
10
464.689521000000
20
2188.862391243530
30
0.0
11
492.765521000000
21
2175.948391243530
31
0.0
0
LINE
5
45c
100
AcDbEntity
8
4-0
6
CONTINUOUS
62
5
100
AcDbLine
10
492.765521000000
20
2175.948391243530
30
0.0
11
522.069521000000
21
2165.696391243530
31
0.0
0
LINE
5
45d
100
AcDbEntity
8
4-0
6
CONTINUOUS
62
5
100
AcDbLine
10
522.069521000000
20
2165.696391243530
30
0.0
11
559.366521000000
21
2156.410391243530
31
0.0
0
LINE
5
45e
100
AcDbEntity
8
4-0
6
CONTINUOUS
62
5
100
AcDbLine
10
559.366521000000
20
2156.410391243530
30
0.0
11
596.134521000000
21
2150.791391243530
31
0.0
0
LINE
5
45f
100
AcDbEntity
8
4-0
6
CONTINUOUS
62
5
100
AcDbLine
10
596.134521000000
20
2150.791391243530
30
0.0
11
617.375521000000
21
2149.066391243530
31
0.0
0
LINE
5
460
100
AcDbEntity
8
4-0
6
CONTINUOUS
62
5
100
AcDbLine
10
617.375521000000
20
2149.066391243530
30
0.0
11
637.642521000000
21
2148.504391243530
31
0.0
0
LINE
5
461
100
AcDbEntity
8
4-0
6
CONTINUOUS
62
5
100
AcDbLine
10
637.642521000000
20
2125.665391243530
30
0.0
11
676.297521000000
21
2127.574391243530
31
0.0
0
LINE
5
462
100
AcDbEntity
8
4-0
6
CONTINUOUS
62
5
100
AcDbLine
10
676.297521000000
20
2127.574391243530
30
0.0
11
717.566521000000
21
2133.559391243530
31
0.0
0
LINE
5
463
100
AcDbEntity
8
4-0
6
CONTINUOUS
62
5
100
AcDbLine
10
717.566521000000
20
2133.559391243530
30
0.0
11
754.491521000000
21
2142.448391243530
31
0.0
0
LINE
5
464
100
AcDbEntity
8
4-0
6
CONTINUOUS
62
5
100
AcDbLine
10
754.491521000000
20
2142.448391243530
30
0.0
11
790.990521000000
21
2155.019391243530
31
0.0
0
LINE
5
465
100
AcDbEntity
8
4-0
6
CONTINUOUS
62
5
100
AcDbLine
10
790.990521000000
20
2155.019391243530
30
0.0
11
821.078521000000
21
2168.923391243530
31
0.0
0
LINE
5
466
100
AcDbEntity
8
4-0
6
CONTINUOUS
62
5
100
AcDbLine
10
821.078521000000
20
2168.923391243530
30
0.0
11
844.762521000000
21
2182.842391243530
31
0.0
0
LINE
5
467
100
AcDbEntity
8
4-0
6
CONTINUOUS
62
5
100
AcDbLine
10
844.762521000000
20
2182.842391243530
30
0.0
11
862.504521000000
21
2195.572391243530
31
0.0
0
LINE
5
468
100
AcDbEntity
8
4-0
6
CONTINUOUS
62
5
100
AcDbLine
10
862.504521000000
20
2195.572391243530
30
0.0
11
882.826521000000
21
2213.559391243530
31
0.0
0
LINE
5
469
100
AcDbEntity
8
4-0
6
CONTINUOUS
62
5
100
AcDbLine
10
882.826521000000
20
2213.559391243530
30
0.0
11
895.196521000000
21
2227.072391243530
31
0.0
0
LINE
5
46a
100
AcDbEntity
8
4-0
6
CONTINUOUS
62
5
100
AcDbLine
10
895.196521000000
20
2227.072391243530
30
0.0
11
906.005521000000
21
2241.305391243530
31
0.0
0
LINE
5
46b
100
AcDbEntity
8
4-0
6
CONTINUOUS
62
5
100
AcDbLine
10
906.005521000000
20
2241.305391243530
30
0.0
11
915.247521000000
21
2256.244391243530
31
0.0
0
LINE
5
46c
100
AcDbEntity
8
4-0
6
CONTINUOUS
62
5
100
AcDbLine
10
915.247521000000
20
2256.244391243530
30
0.0
11
922.918521000000
21
2271.877391243530
31
0.0
0
LINE
5
46d
100
AcDbEntity
8
4-0
6
CONTINUOUS
62
5
100
AcDbLine
10
922.918521000000
20
2271.877391243530
30
0.0
11
929.012521000000
21
2288.192391243530
31
0.0
0
LINE
5
46e
100
AcDbEntity
8
4-0
6
CONTINUOUS
62
5
100
AcDbLine
10
929.012521000000
20
2288.192391243530
30
0.0
11
933.524521000000
21
2305.174391243530
31
0.0
0
LINE
5
46f
100
AcDbEntity
8
4-0
6
CONTINUOUS
62
5
100
AcDbLine
10
933.524521000000
20
2305.174391243530
30
0.0
11
936.448521000000
21
2322.811391243530
31
0.0
0
LINE
5
470
100
AcDbEntity
8
4-0
6
CONTINUOUS
62
5
100
AcDbLine
10
936.448521000000
20
2322.811391243530
30
0.0
11
937.513521000000
21
2334.927391243530
31
0.0
0
LINE
5
471
100
AcDbEntity
8
4-0
6
CONTINUOUS
62
5
100
AcDbLine
10
937.513521000000
20
2334.927391243530
30
0.0
11
937.868521000000
21
2347.324391243530
31
0.0
0
LINE
5
472
100
AcDbEntity
8
4-0
6
CONTINUOUS
62
5
100
AcDbLine
10
937.868521000000
20
2347.324391243530
30
0.0
11
936.899521000000
21
2372.344391243530
31
0.0
0
LINE
5
473
100
AcDbEntity
8
4-0
6
CONTINUOUS
62
5
100
AcDbLine
10
936.899521000000
20
2372.344391243530
30
0.0
11
934.974521000000
21
2386.569391243530
31
0.0
0
LINE
5
474
100
AcDbEntity
8
4-0
6
CONTINUOUS
62
5
100
AcDbLine
10
934.974521000000
20
2386.569391243530
30
0.0
11
932.421521000000
21
2397.321391243530
31
0.0
0
LINE
5
475
100
AcDbEntity
8
4-0
6
CONTINUOUS
62
5
100
AcDbLine
10
932.421521000000
20
2397.321391243530
30
0.0
11
929.677521000000
21
2405.396391243530
31
0.0
0
LINE
5
476
100
AcDbEntity
8
4-0
6
CONTINUOUS
62
5
100
AcDbLine
10
929.677521000000
20
2405.396391243530
30
0.0
11
926.246521000000
21
2413.155391243529
31
0.0
0
LINE
5
477
100
AcDbEntity
8
4-0
6
CONTINUOUS
62
5
100
AcDbLine
10
926.246521000000
20
2413.155391243529
30
0.0
11
920.903521000000
21
2422.618391243530
31
0.0
0
LINE
5
478
100
AcDbEntity
8
4-0
6
CONTINUOUS
62
5
100
AcDbLine
10
920.903521000000
20
2422.618391243530
30
0.0
11
914.283521000000
21
2432.074391243530
31
0.0
0
LINE
5
479
100
AcDbEntity
8
4-0
6
CONTINUOUS
62
5
100
AcDbLine
10
914.283521000000
20
2432.074391243530
30
0.0
11
904.494521000000
21
2443.794391243530
31
0.0
0
LINE
5
47a
100
AcDbEntity
8
4-0
6
CONTINUOUS
62
5
100
AcDbLine
10
904.494521000000
20
2443.794391243530
30
0.0
11
892.508521000000
21
2456.363391243530
31
0.0
0
LINE
5
47b
100
AcDbEntity
8
4-0
6
CONTINUOUS
62
5
100
AcDbLine
10
892.508521000000
20
2456.363391243530
30
0.0
11
886.190521000000
21
2462.142391243530
31
0.0
0
LINE
5
47c
100
AcDbEntity
8
4-0
6
CONTINUOUS
62
5
100
AcDbLine
10
886.190521000000
20
2462.142391243530
30
0.0
11
877.253521000000
21
2468.808391243530
31
0.0
0
LINE
5
47d
100
AcDbEntity
8
4-0
6
CONTINUOUS
62
5
100
AcDbLine
10
877.253521000000
20
2468.808391243530
30
0.0
11
867.838521000000
21
2474.392391243530
31
0.0
0
LINE
5
47e
100
AcDbEntity
8
4-0
6
CONTINUOUS
62
5
100
AcDbLine
10
867.838521000000
20
2474.392391243530
30
0.0
11
858.067521000000
21
2479.009391243530
31
0.0
0
LINE
5
47f
100
AcDbEntity
8
4-0
6
CONTINUOUS
62
5
100
AcDbLine
10
858.067521000000
20
2479.009391243530
30
0.0
11
845.534521000000
21
2483.599391243531
31
0.0
0
LINE
5
480
100
AcDbEntity
8
4-0
6
CONTINUOUS
62
5
100
AcDbLine
10
845.534521000000
20
2483.599391243531
30
0.0
11
827.817521000000
21
2488.223391243530
31
0.0
0
LINE
5
481
100
AcDbEntity
8
4-0
6
CONTINUOUS
62
5
100
AcDbLine
10
827.817521000000
20
2488.223391243530
30
0.0
11
800.997521000000
21
2492.615391243530
31
0.0
0
LINE
5
482
100
AcDbEntity
8
4-0
6
CONTINUOUS
62
5
100
AcDbLine
10
800.997521000000
20
2492.615391243530
30
0.0
11
775.761521000000
21
2495.899391243530
31
0.0
0
LINE
5
483
100
AcDbEntity
8
4-0
6
CONTINUOUS
62
5
100
AcDbLine
10
775.761521000000
20
2495.899391243530
30
0.0
11
775.651521000000
21
2495.904391243530
31
0.0
0
LINE
5
484
100
AcDbEntity
8
4-0
6
CONTINUOUS
62
5
100
AcDbLine
10
775.651521000000
20
2495.904391243530
30
0.0
11
775.528521000000
21
2495.887391243530
31
0.0
0
LINE
5
485
100
AcDbEntity
8
4-0
6
CONTINUOUS
62
5
100
AcDbLine
10
775.528521000000
20
2495.887391243530
30
0.0
11
775.392521000000
21
2495.849391243531
31
0.0
0
LINE
5
486
100
AcDbEntity
8
4-0
6
CONTINUOUS
62
5
100
AcDbLine
10
775.392521000000
20
2495.849391243531
30
0.0
11
775.081521000000
21
2495.715391243531
31
0.0
0
LINE
5
487
100
AcDbEntity
8
4-0
6
CONTINUOUS
62
5
100
AcDbLine
10
775.081521000000
20
2495.715391243531
30
0.0
11
774.725521000000
21
2495.507391243530
31
0.0
0
LINE
5
488
100
AcDbEntity
8
4-0
6
CONTINUOUS
62
5
100
AcDbLine
10
774.725521000000
20
2495.507391243530
30
0.0
11
773.893521000000
21
2494.903391243530
31
0.0
0
LINE
5
489
100
AcDbEntity
8
4-0
6
CONTINUOUS
62
5
100
AcDbLine
10
773.893521000000
20
2494.903391243530
30
0.0
11
771.050521000000
21
2492.353391243530
31
0.0
0
LINE
5
48a
100
AcDbEntity
8
4-0
6
CONTINUOUS
62
5
100
AcDbLine
10
771.050521000000
20
2492.353391243530
30
0.0
11
766.077521000000
21
2487.771391243530
31
0.0
0
LINE
5
48b
100
AcDbEntity
8
4-0
6
CONTINUOUS
62
5
100
AcDbLine
10
766.077521000000
20
2487.771391243530
30
0.0
11
765.319521000000
21
2487.244391243530
31
0.0
0
LINE
5
48c
100
AcDbEntity
8
4-0
6
CONTINUOUS
62
5
100
AcDbLine
10
765.319521000000
20
2487.244391243530
30
0.0
11
765.007521000000
21
2487.083391243530
31
0.0
0
LINE
5
48d
100
AcDbEntity
8
4-0
6
CONTINUOUS
62
5
100
AcDbLine
10
765.007521000000
20
2487.083391243530
30
0.0
11
764.869521000000
21
2487.030391243529
31
0.0
0
LINE
5
48e
100
AcDbEntity
8
4-0
6
CONTINUOUS
62
5
100
AcDbLine
10
764.869521000000
20
2487.030391243529
30
0.0
11
764.745521000000
21
2486.998391243530
31
0.0
0
LINE
5
48f
100
AcDbEntity
8
4-0
6
CONTINUOUS
62
5
100
AcDbLine
10
764.745521000000
20
2486.998391243530
30
0.0
11
764.634521000000
21
2486.988391243530
31
0.0
0
LINE
5
490
100
AcDbEntity
8
4-0
6
CONTINUOUS
62
5
100
AcDbLine
10
764.634521000000
20
2486.988391243530
30
0.0
11
763.978521000000
21
2487.018391243531
31
0.0
0
LINE
5
491
100
AcDbEntity
8
4-0
6
CONTINUOUS
62
5
100
AcDbLine
10
763.978521000000
20
2487.018391243531
30
0.0
11
763.342521000000
21
2487.109391243530
31
0.0
0
LINE
5
492
100
AcDbEntity
8
4-0
6
CONTINUOUS
62
5
100
AcDbLine
10
763.342521000000
20
2487.109391243530
30
0.0
11
761.969521000000
21
2487.383391243530
31
0.0
0
LINE
5
493
100
AcDbEntity
8
4-0
6
CONTINUOUS
62
5
100
AcDbLine
10
761.969521000000
20
2487.383391243530
30
0.0
11
759.647521000000
21
2487.549391243530
31
0.0
0
LINE
5
494
100
AcDbEntity
8
4-0
6
CONTINUOUS
62
5
100
AcDbLine
10
759.647521000000
20
2487.549391243530
30
0.0
11
751.489521000000
21
2487.153391243530
31
0.0
0
LINE
5
495
100
AcDbEntity
8
4-0
6
CONTINUOUS
62
5
100
AcDbLine
10
751.489521000000
20
2487.153391243530
30
0.0
11
742.296521000000
21
2485.828391243530
31
0.0
0
LINE
5
496
100
AcDbEntity
8
4-0
6
CONTINUOUS
62
5
100
AcDbLine
10
742.296521000000
20
2485.828391243530
30
0.0
11
730.916521000000
21
2483.101391243530
31
0.0
0
LINE
5
497
100
AcDbEntity
8
4-0
6
CONTINUOUS
62
5
100
AcDbLine
10
730.916521000000
20
2483.101391243530
30
0.0
11
717.277521000000
21
2478.677391243530
31
0.0
0
LINE
5
498
100
AcDbEntity
8
4-0
6
CONTINUOUS
62
5
100
AcDbLine
10
717.277521000000
20
2478.677391243530
30
0.0
11
702.311521000000
21
2473.069391243530
31
0.0
0
LINE
5
499
100
AcDbEntity
8
4-0
6
CONTINUOUS
62
5
100
AcDbLine
10
702.311521000000
20
2473.069391243530
30
0.0
11
671.140521000000
21
2462.236391243529
31
0.0
0
LINE
5
49a
100
AcDbEntity
8
4-0
6
CONTINUOUS
62
5
100
AcDbLine
10
671.140521000000
20
2462.236391243529
30
0.0
11
658.092521000000
21
2459.188391243531
31
0.0
0
LINE
5
49b
100
AcDbEntity
8
4-0
6
CONTINUOUS
62
5
100
AcDbLine
10
658.092521000000
20
2459.188391243531
30
0.0
11
648.693521000000
21
2457.823391243530
31
0.0
0
LINE
5
49c
100
AcDbEntity
8
4-0
6
CONTINUOUS
62
5
100
AcDbLine
10
648.693521000000
20
2457.823391243530
30
0.0
11
637.642521000000
21
2457.239391243530
31
0.0
0
LINE
5
49d
100
AcDbEntity
8
4-0
6
CONTINUOUS
62
5
100
AcDbLine
10
637.642521000000
20
2457.239391243530
30
0.0
11
627.953521000000
21
2457.690391243530
31
0.0
0
LINE
5
49e
100
AcDbEntity
8
4-0
6
CONTINUOUS
62
5
100
AcDbLine
10
627.953521000000
20
2457.690391243530
30
0.0
11
617.192521000000
21
2459.188391243531
31
0.0
0
LINE
5
49f
100
AcDbEntity
8
4-0
6
CONTINUOUS
62
5
100
AcDbLine
10
617.192521000000
20
2459.188391243531
30
0.0
11
604.144521000000
21
2462.236391243529
31
0.0
0
LINE
5
4a0
100
AcDbEntity
8
4-0
6
CONTINUOUS
62
5
100
AcDbLine
10
604.144521000000
20
2462.236391243529
30
0.0
11
588.971521000000
21
2467.091391243530
31
0.0
0
LINE
5
4a1
100
AcDbEntity
8
4-0
6
CONTINUOUS
62
5
100
AcDbLine
10
588.971521000000
20
2467.091391243530
30
0.0
11
572.973521000000
21
2473.069391243530
31
0.0
0
LINE
5
4a2
100
AcDbEntity
8
4-0
6
CONTINUOUS
62
5
100
AcDbLine
10
572.973521000000
20
2473.069391243530
30
0.0
11
544.368521000000
21
2483.101391243530
31
0.0
0
LINE
5
4a3
100
AcDbEntity
8
4-0
6
CONTINUOUS
62
5
100
AcDbLine
10
544.368521000000
20
2483.101391243530
30
0.0
11
532.988521000000
21
2485.828391243530
31
0.0
0
LINE
5
4a4
100
AcDbEntity
8
4-0
6
CONTINUOUS
62
5
100
AcDbLine
10
532.988521000000
20
2485.828391243530
30
0.0
11
524.951521000000
21
2487.036391243531
31
0.0
0
LINE
5
4a5
100
AcDbEntity
8
4-0
6
CONTINUOUS
62
5
100
AcDbLine
10
524.951521000000
20
2487.036391243531
30
0.0
11
515.637521000000
21
2487.549391243530
31
0.0
0
LINE
5
4a6
100
AcDbEntity
8
4-0
6
CONTINUOUS
62
5
100
AcDbLine
10
515.637521000000
20
2487.549391243530
30
0.0
11
514.175521000000
21
2487.490391243530
31
0.0
0
LINE
5
4a7
100
AcDbEntity
8
4-0
6
CONTINUOUS
62
5
100
AcDbLine
10
514.175521000000
20
2487.490391243530
30
0.0
11
513.131521000000
21
2487.351391243530
31
0.0
0
LINE
5
4a8
100
AcDbEntity
8
4-0
6
CONTINUOUS
62
5
100
AcDbLine
10
513.131521000000
20
2487.351391243530
30
0.0
11
511.943521000000
21
2487.109391243530
31
0.0
0
LINE
5
4a9
100
AcDbEntity
8
4-0
6
CONTINUOUS
62
5
100
AcDbLine
10
511.943521000000
20
2487.109391243530
30
0.0
11
510.650521000000
21
2486.988391243530
31
0.0
0
LINE
5
4aa
100
AcDbEntity
8
4-0
6
CONTINUOUS
62
5
100
AcDbLine
10
510.650521000000
20
2486.988391243530
30
0.0
11
510.539521000000
21
2486.998391243530
31
0.0
0
LINE
5
4ab
100
AcDbEntity
8
4-0
6
CONTINUOUS
62
5
100
AcDbLine
10
510.539521000000
20
2486.998391243530
30
0.0
11
510.415521000000
21
2487.030391243529
31
0.0
0
LINE
5
4ac
100
AcDbEntity
8
4-0
6
CONTINUOUS
62
5
100
AcDbLine
10
510.415521000000
20
2487.030391243529
30
0.0
11
510.277521000000
21
2487.083391243530
31
0.0
0
LINE
5
4ad
100
AcDbEntity
8
4-0
6
CONTINUOUS
62
5
100
AcDbLine
10
510.277521000000
20
2487.083391243530
30
0.0
11
509.965521000000
21
2487.244391243530
31
0.0
0
LINE
5
4ae
100
AcDbEntity
8
4-0
6
CONTINUOUS
62
5
100
AcDbLine
10
509.965521000000
20
2487.244391243530
30
0.0
11
509.412521000000
21
2487.616391243530
31
0.0
0
LINE
5
4af
100
AcDbEntity
8
4-0
6
CONTINUOUS
62
5
100
AcDbLine
10
509.412521000000
20
2487.616391243530
30
0.0
11
508.058521000000
21
2488.738391243530
31
0.0
0
LINE
5
4b0
100
AcDbEntity
8
4-0
6
CONTINUOUS
62
5
100
AcDbLine
10
508.058521000000
20
2488.738391243530
30
0.0
11
500.957521000000
21
2495.234391243530
31
0.0
0
LINE
5
4b1
100
AcDbEntity
8
4-0
6
CONTINUOUS
62
5
100
AcDbLine
10
500.957521000000
20
2495.234391243530
30
0.0
11
500.375521000000
21
2495.620391243529
31
0.0
0
LINE
5
4b2
100
AcDbEntity
8
4-0
6
CONTINUOUS
62
5
100
AcDbLine
10
500.375521000000
20
2495.620391243529
30
0.0
11
500.042521000000
21
2495.791391243530
31
0.0
0
LINE
5
4b3
100
AcDbEntity
8
4-0
6
CONTINUOUS
62
5
100
AcDbLine
10
500.042521000000
20
2495.791391243530
30
0.0
11
499.756521000000
21
2495.887391243530
31
0.0
0
LINE
5
4b4
100
AcDbEntity
8
4-0
6
CONTINUOUS
62
5
100
AcDbLine
10
499.756521000000
20
2495.887391243530
30
0.0
11
499.633521000000
21
2495.904391243530
31
0.0
0
LINE
5
4b5
100
AcDbEntity
8
4-0
6
CONTINUOUS
62
5
100
AcDbLine
10
499.633521000000
20
2495.904391243530
30
0.0
11
499.523521000000
21
2495.899391243530
31
0.0
0
LINE
5
4b6
100
AcDbEntity
8
4-0
6
CONTINUOUS
62
5
100
AcDbLine
10
499.523521000000
20
2495.899391243530
30
0.0
11
439.883521000000
21
2486.466391243530
31
0.0
0
LINE
5
4b7
100
AcDbEntity
8
4-0
6
CONTINUOUS
62
5
100
AcDbLine
10
439.883521000000
20
2486.466391243530
30
0.0
11
424.707521000000
21
2481.908391243530
31
0.0
0
LINE
5
4b8
100
AcDbEntity
8
4-0
6
CONTINUOUS
62
5
100
AcDbLine
10
424.707521000000
20
2481.908391243530
30
0.0
11
412.295521000000
21
2476.814391243530
31
0.0
0
LINE
5
4b9
100
AcDbEntity
8
4-0
6
CONTINUOUS
62
5
100
AcDbLine
10
412.295521000000
20
2476.814391243530
30
0.0
11
402.687521000000
21
2471.728391243530
31
0.0
0
LINE
5
4ba
100
AcDbEntity
8
4-0
6
CONTINUOUS
62
5
100
AcDbLine
10
402.687521000000
20
2471.728391243530
30
0.0
11
393.495521000000
21
2465.617391243531
31
0.0
0
LINE
5
4bb
100
AcDbEntity
8
4-0
6
CONTINUOUS
62
5
100
AcDbLine
10
393.495521000000
20
2465.617391243531
30
0.0
11
389.094521000000
21
2462.142391243530
31
0.0
0
LINE
5
4bc
100
AcDbEntity
8
4-0
6
CONTINUOUS
62
5
100
AcDbLine
10
389.094521000000
20
2462.142391243530
30
0.0
11
382.777521000000
21
2456.363391243530
31
0.0
0
LINE
5
4bd
100
AcDbEntity
8
4-0
6
CONTINUOUS
62
5
100
AcDbLine
10
382.777521000000
20
2456.363391243530
30
0.0
11
365.634521000000
21
2437.857391243530
31
0.0
0
LINE
5
4be
100
AcDbEntity
8
4-0
6
CONTINUOUS
62
5
100
AcDbLine
10
365.634521000000
20
2437.857391243530
30
0.0
11
356.870521000000
21
2426.386391243530
31
0.0
0
LINE
5
4bf
100
AcDbEntity
8
4-0
6
CONTINUOUS
62
5
100
AcDbLine
10
356.870521000000
20
2426.386391243530
30
0.0
11
351.030521000000
21
2416.958391243530
31
0.0
0
LINE
5
4c0
100
AcDbEntity
8
4-0
6
CONTINUOUS
62
5
100
AcDbLine
10
351.030521000000
20
2416.958391243530
30
0.0
11
346.398521000000
21
2407.360391243530
31
0.0
0
LINE
5
4c1
100
AcDbEntity
8
4-0
6
CONTINUOUS
62
5
100
AcDbLine
10
346.398521000000
20
2407.360391243530
30
0.0
11
343.488521000000
21
2399.377391243530
31
0.0
0
LINE
5
4c2
100
AcDbEntity
8
4-0
6
CONTINUOUS
62
5
100
AcDbLine
10
343.488521000000
20
2399.377391243530
30
0.0
11
340.748521000000
21
2388.790391243530
31
0.0
0
LINE
5
4c3
100
AcDbEntity
8
4-0
6
CONTINUOUS
62
5
100
AcDbLine
10
340.748521000000
20
2388.790391243530
30
0.0
11
338.627521000000
21
2374.834391243529
31
0.0
0
LINE
5
4c4
100
AcDbEntity
8
4-0
6
CONTINUOUS
62
5
100
AcDbLine
10
338.627521000000
20
2374.834391243529
30
0.0
11
337.700521000000
21
2361.842391243530
31
0.0
0
LINE
5
4c5
100
AcDbEntity
8
4-0
6
CONTINUOUS
62
5
100
AcDbLine
10
337.700521000000
20
2361.842391243530
30
0.0
11
337.416521000000
21
2347.324391243530
31
0.0
0
LINE
5
4c6
100
AcDbEntity
8
4-0
6
CONTINUOUS
62
5
100
AcDbLine
10
337.416521000000
20
2347.324391243530
30
0.0
11
338.215521000000
21
2328.834391243530
31
0.0
0
LINE
5
4c7
100
AcDbEntity
8
4-0
6
CONTINUOUS
62
5
100
AcDbLine
10
338.215521000000
20
2328.834391243530
30
0.0
11
340.609521000000
21
2310.981391243530
31
0.0
0
LINE
5
4c8
100
AcDbEntity
8
4-0
6
CONTINUOUS
62
5
100
AcDbLine
10
340.609521000000
20
2310.981391243530
30
0.0
11
344.592521000000
21
2293.779391243530
31
0.0
0
LINE
5
4c9
100
AcDbEntity
8
4-0
6
CONTINUOUS
62
5
100
AcDbLine
10
344.592521000000
20
2293.779391243530
30
0.0
11
350.159521000000
21
2277.241391243530
31
0.0
0
LINE
5
4ca
100
AcDbEntity
8
4-0
6
CONTINUOUS
62
5
100
AcDbLine
10
350.159521000000
20
2277.241391243530
30
0.0
11
357.305521000000
21
2261.379391243530
31
0.0
0
LINE
5
4cb
100
AcDbEntity
8
4-0
6
CONTINUOUS
62
5
100
AcDbLine
10
357.305521000000
20
2261.379391243530
30
0.0
11
366.024521000000
21
2246.207391243530
31
0.0
0
LINE
5
4cc
100
AcDbEntity
8
4-0
6
CONTINUOUS
62
5
100
AcDbLine
10
366.024521000000
20
2246.207391243530
30
0.0
11
376.312521000000
21
2231.737391243530
31
0.0
0
LINE
5
4cd
100
AcDbEntity
8
4-0
6
CONTINUOUS
62
5
100
AcDbLine
10
376.312521000000
20
2231.737391243530
30
0.0
11
384.038521000000
21
2222.487391243530
31
0.0
0
LINE
5
4ce
100
AcDbEntity
8
4-0
6
CONTINUOUS
62
5
100
AcDbLine
10
384.038521000000
20
2222.487391243530
30
0.0
11
392.458521000000
21
2213.559391243530
31
0.0
0
LINE
5
4cf
100
AcDbEntity
8
4-0
6
CONTINUOUS
62
5
100
AcDbLine
10
392.458521000000
20
2213.559391243530
30
0.0
11
408.540521000000
21
2198.983391243530
31
0.0
0
LINE
5
4d0
100
AcDbEntity
8
4-0
6
CONTINUOUS
62
5
100
AcDbLine
10
408.540521000000
20
2198.983391243530
30
0.0
11
425.976521000000
21
2185.889391243530
31
0.0
0
LINE
5
4d1
100
AcDbEntity
8
4-0
6
CONTINUOUS
62
5
100
AcDbLine
10
425.976521000000
20
2185.889391243530
30
0.0
11
449.353521000000
21
2171.533391243530
31
0.0
0
LINE
5
4d2
100
AcDbEntity
8
4-0
6
CONTINUOUS
62
5
100
AcDbLine
10
449.353521000000
20
2171.533391243530
30
0.0
11
479.181521000000
21
2157.130391243530
31
0.0
0
LINE
5
4d3
100
AcDbEntity
8
4-0
6
CONTINUOUS
62
5
100
AcDbLine
10
479.181521000000
20
2157.130391243530
30
0.0
11
510.272521000000
21
2145.652391243530
31
0.0
0
LINE
5
4d4
100
AcDbEntity
8
4-0
6
CONTINUOUS
62
5
100
AcDbLine
10
510.272521000000
20
2145.652391243530
30
0.0
11
547.191521000000
21
2135.738391243530
31
0.0
0
LINE
5
4d5
100
AcDbEntity
8
4-0
6
CONTINUOUS
62
5
100
AcDbLine
10
547.191521000000
20
2135.738391243530
30
0.0
11
588.849521000000
21
2128.673391243530
31
0.0
0
LINE
5
4d6
100
AcDbEntity
8
4-0
6
CONTINUOUS
62
5
100
AcDbLine
10
588.849521000000
20
2128.673391243530
30
0.0
11
613.880521000000
21
2126.401391243530
31
0.0
0
LINE
5
4d7
100
AcDbEntity
8
4-0
6
CONTINUOUS
62
5
100
AcDbLine
10
613.880521000000
20
2126.401391243530
30
0.0
11
637.642521000000
21
2125.665391243530
31
0.0
0
CIRCLE
5
4d8
100
AcDbEntity
8
4-0
6
CONTINUOUS
62
5
100
AcDbCircle
10
637.614521000000
20
2370.824391243530
30
0.0
40
35.000000000000
0
CIRCLE
5
4d9
100
AcDbEntity
8
4-0
6
CONTINUOUS
62
5
100
AcDbCircle
10
637.614521000000
20
2370.824391243530
30
0.0
40
23.000000000000
0
LINE
5
4da
100
AcDbEntity
8
4-0
6
CONTINUOUS
62
5
100
AcDbLine
10
637.605521000000
20
2164.079391243530
30
0.0
11
640.879521000000
21
2164.239391243530
31
0.0
0
LINE
5
4db
100
AcDbEntity
8
4-0
6
CONTINUOUS
62
5
100
AcDbLine
10
640.879521000000
20
2164.239391243530
30
0.0
11
643.480521000000
21
2164.614391243530
31
0.0
0
LINE
5
4dc
100
AcDbEntity
8
4-0
6
CONTINUOUS
62
5
100
AcDbLine
10
643.480521000000
20
2164.614391243530
30
0.0
11
645.838521000000
21
2165.185391243530
31
0.0
0
LINE
5
4dd
100
AcDbEntity
8
4-0
6
CONTINUOUS
62
5
100
AcDbLine
10
645.838521000000
20
2165.185391243530
30
0.0
11
647.579521000000
21
2165.794391243530
31
0.0
0
LINE
5
4de
100
AcDbEntity
8
4-0
6
CONTINUOUS
62
5
100
AcDbLine
10
647.579521000000
20
2165.794391243530
30
0.0
11
648.804521000000
21
2166.360391243530
31
0.0
0
LINE
5
4df
100
AcDbEntity
8
4-0
6
CONTINUOUS
62
5
100
AcDbLine
10
648.804521000000
20
2166.360391243530
30
0.0
11
649.863521000000
21
2166.987391243530
31
0.0
0
LINE
5
4e0
100
AcDbEntity
8
4-0
6
CONTINUOUS
62
5
100
AcDbLine
10
649.863521000000
20
2166.987391243530
30
0.0
11
650.540521000000
21
2167.494391243530
31
0.0
0
LINE
5
4e1
100
AcDbEntity
8
4-0
6
CONTINUOUS
62
5
100
AcDbLine
10
650.540521000000
20
2167.494391243530
30
0.0
11
651.107521000000
21
2168.029391243530
31
0.0
0
LINE
5
4e2
100
AcDbEntity
8
4-0
6
CONTINUOUS
62
5
100
AcDbLine
10
651.107521000000
20
2168.029391243530
30
0.0
11
651.422521000000
21
2168.401391243530
31
0.0
0
LINE
5
4e3
100
AcDbEntity
8
4-0
6
CONTINUOUS
62
5
100
AcDbLine
10
651.422521000000
20
2168.401391243530
30
0.0
11
651.685521000000
21
2168.783391243530
31
0.0
0
LINE
5
4e4
100
AcDbEntity
8
4-0
6
CONTINUOUS
62
5
100
AcDbLine
10
651.685521000000
20
2168.783391243530
30
0.0
11
651.892521000000
21
2169.174391243530
31
0.0
0
LINE
5
4e5
100
AcDbEntity
8
4-0
6
CONTINUOUS
62
5
100
AcDbLine
10
651.892521000000
20
2169.174391243530
30
0.0
11
652.042521000000
21
2169.574391243530
31
0.0
0
LINE
5
4e6
100
AcDbEntity
8
4-0
6
CONTINUOUS
62
5
100
AcDbLine
10
652.042521000000
20
2169.574391243530
30
0.0
11
652.134521000000
21
2169.983391243530
31
0.0
0
LINE
5
4e7
100
AcDbEntity
8
4-0
6
CONTINUOUS
62
5
100
AcDbLine
10
652.134521000000
20
2169.983391243530
30
0.0
11
652.165521000000
21
2170.398391243530
31
0.0
0
LINE
5
4e8
100
AcDbEntity
8
4-0
6
CONTINUOUS
62
5
100
AcDbLine
10
652.165521000000
20
2170.398391243530
30
0.0
11
652.134521000000
21
2170.814391243530
31
0.0
0
LINE
5
4e9
100
AcDbEntity
8
4-0
6
CONTINUOUS
62
5
100
AcDbLine
10
652.134521000000
20
2170.814391243530
30
0.0
11
652.042521000000
21
2171.222391243530
31
0.0
0
LINE
5
4ea
100
AcDbEntity
8
4-0
6
CONTINUOUS
62
5
100
AcDbLine
10
652.042521000000
20
2171.222391243530
30
0.0
11
651.892521000000
21
2171.622391243530
31
0.0
0
LINE
5
4eb
100
AcDbEntity
8
4-0
6
CONTINUOUS
62
5
100
AcDbLine
10
651.892521000000
20
2171.622391243530
30
0.0
11
651.685521000000
21
2172.014391243530
31
0.0
0
LINE
5
4ec
100
AcDbEntity
8
4-0
6
CONTINUOUS
62
5
100
AcDbLine
10
651.685521000000
20
2172.014391243530
30
0.0
11
651.422521000000
21
2172.396391243530
31
0.0
0
LINE
5
4ed
100
AcDbEntity
8
4-0
6
CONTINUOUS
62
5
100
AcDbLine
10
651.422521000000
20
2172.396391243530
30
0.0
11
651.107521000000
21
2172.767391243530
31
0.0
0
LINE
5
4ee
100
AcDbEntity
8
4-0
6
CONTINUOUS
62
5
100
AcDbLine
10
651.107521000000
20
2172.767391243530
30
0.0
11
650.540521000000
21
2173.303391243530
31
0.0
0
LINE
5
4ef
100
AcDbEntity
8
4-0
6
CONTINUOUS
62
5
100
AcDbLine
10
650.540521000000
20
2173.303391243530
30
0.0
11
649.863521000000
21
2173.810391243530
31
0.0
0
LINE
5
4f0
100
AcDbEntity
8
4-0
6
CONTINUOUS
62
5
100
AcDbLine
10
649.863521000000
20
2173.810391243530
30
0.0
11
648.804521000000
21
2174.437391243530
31
0.0
0
LINE
5
4f1
100
AcDbEntity
8
4-0
6
CONTINUOUS
62
5
100
AcDbLine
10
648.804521000000
20
2174.437391243530
30
0.0
11
647.579521000000
21
2175.002391243530
31
0.0
0
LINE
5
4f2
100
AcDbEntity
8
4-0
6
CONTINUOUS
62
5
100
AcDbLine
10
647.579521000000
20
2175.002391243530
30
0.0
11
645.838521000000
21
2175.611391243530
31
0.0
0
LINE
5
4f3
100
AcDbEntity
8
4-0
6
CONTINUOUS
62
5
100
AcDbLine
10
645.838521000000
20
2175.611391243530
30
0.0
11
643.480521000000
21
2176.182391243530
31
0.0
0
LINE
5
4f4
100
AcDbEntity
8
4-0
6
CONTINUOUS
62
5
100
AcDbLine
10
643.480521000000
20
2176.182391243530
30
0.0
11
640.879521000000
21
2176.558391243530
31
0.0
0
LINE
5
4f5
100
AcDbEntity
8
4-0
6
CONTINUOUS
62
5
100
AcDbLine
10
640.879521000000
20
2176.558391243530
30
0.0
11
637.605521000000
21
2176.718391243530
31
0.0
0
LINE
5
4f6
100
AcDbEntity
8
4-0
6
CONTINUOUS
62
5
100
AcDbLine
10
637.605521000000
20
2176.718391243530
30
0.0
11
634.331521000000
21
2176.558391243530
31
0.0
0
LINE
5
4f7
100
AcDbEntity
8
4-0
6
CONTINUOUS
62
5
100
AcDbLine
10
634.331521000000
20
2176.558391243530
30
0.0
11
631.729521000000
21
2176.182391243530
31
0.0
0
LINE
5
4f8
100
AcDbEntity
8
4-0
6
CONTINUOUS
62
5
100
AcDbLine
10
631.729521000000
20
2176.182391243530
30
0.0
11
629.372521000000
21
2175.611391243530
31
0.0
0
LINE
5
4f9
100
AcDbEntity
8
4-0
6
CONTINUOUS
62
5
100
AcDbLine
10
629.372521000000
20
2175.611391243530
30
0.0
11
627.631521000000
21
2175.002391243530
31
0.0
0
LINE
5
4fa
100
AcDbEntity
8
4-0
6
CONTINUOUS
62
5
100
AcDbLine
10
627.631521000000
20
2175.002391243530
30
0.0
11
626.406521000000
21
2174.437391243530
31
0.0
0
LINE
5
4fb
100
AcDbEntity
8
4-0
6
CONTINUOUS
62
5
100
AcDbLine
10
626.406521000000
20
2174.437391243530
30
0.0
11
625.346521000000
21
2173.810391243530
31
0.0
0
LINE
5
4fc
100
AcDbEntity
8
4-0
6
CONTINUOUS
62
5
100
AcDbLine
10
625.346521000000
20
2173.810391243530
30
0.0
11
624.670521000000
21
2173.303391243530
31
0.0
0
LINE
5
4fd
100
AcDbEntity
8
4-0
6
CONTINUOUS
62
5
100
AcDbLine
10
624.670521000000
20
2173.303391243530
30
0.0
11
624.102521000000
21
2172.767391243530
31
0.0
0
LINE
5
4fe
100
AcDbEntity
8
4-0
6
CONTINUOUS
62
5
100
AcDbLine
10
624.102521000000
20
2172.767391243530
30
0.0
11
623.787521000000
21
2172.396391243530
31
0.0
0
LINE
5
4ff
100
AcDbEntity
8
4-0
6
CONTINUOUS
62
5
100
AcDbLine
10
623.787521000000
20
2172.396391243530
30
0.0
11
623.525521000000
21
2172.014391243530
31
0.0
0
LINE
5
500
100
AcDbEntity
8
4-0
6
CONTINUOUS
62
5
100
AcDbLine
10
623.525521000000
20
2172.014391243530
30
0.0
11
623.318521000000
21
2171.622391243530
31
0.0
0
LINE
5
501
100
AcDbEntity
8
4-0
6
CONTINUOUS
62
5
100
AcDbLine
10
623.318521000000
20
2171.622391243530
30
0.0
11
623.168521000000
21
2171.222391243530
31
0.0
0
LINE
5
502
100
AcDbEntity
8
4-0
6
CONTINUOUS
62
5
100
AcDbLine
10
623.168521000000
20
2171.222391243530
30
0.0
11
623.076521000000
21
2170.814391243530
31
0.0
0
LINE
5
503
100
AcDbEntity
8
4-0
6
CONTINUOUS
62
5
100
AcDbLine
10
623.076521000000
20
2170.814391243530
30
0.0
11
623.045521000000
21
2170.398391243530
31
0.0
0
LINE
5
504
100
AcDbEntity
8
4-0
6
CONTINUOUS
62
5
100
AcDbLine
10
623.045521000000
20
2170.398391243530
30
0.0
11
623.076521000000
21
2169.983391243530
31
0.0
0
LINE
5
505
100
AcDbEntity
8
4-0
6
CONTINUOUS
62
5
100
AcDbLine
10
623.076521000000
20
2169.983391243530
30
0.0
11
623.168521000000
21
2169.574391243530
31
0.0
0
LINE
5
506
100
AcDbEntity
8
4-0
6
CONTINUOUS
62
5
100
AcDbLine
10
623.168521000000
20
2169.574391243530
30
0.0
11
623.318521000000
21
2169.174391243530
31
0.0
0
LINE
5
507
100
AcDbEntity
8
4-0
6
CONTINUOUS
62
5
100
AcDbLine
10
623.318521000000
20
2169.174391243530
30
0.0
11
623.525521000000
21
2168.783391243530
31
0.0
0
LINE
5
508
100
AcDbEntity
8
4-0
6
CONTINUOUS
62
5
100
AcDbLine
10
623.525521000000
20
2168.783391243530
30
0.0
11
623.787521000000
21
2168.401391243530
31
0.0
0
LINE
5
509
100
AcDbEntity
8
4-0
6
CONTINUOUS
62
5
100
AcDbLine
10
623.787521000000
20
2168.401391243530
30
0.0
11
624.102521000000
21
2168.029391243530
31
0.0
0
LINE
5
50a
100
AcDbEntity
8
4-0
6
CONTINUOUS
62
5
100
AcDbLine
10
624.102521000000
20
2168.029391243530
30
0.0
11
624.670521000000
21
2167.494391243530
31
0.0
0
LINE
5
50b
100
AcDbEntity
8
4-0
6
CONTINUOUS
62
5
100
AcDbLine
10
624.670521000000
20
2167.494391243530
30
0.0
11
625.346521000000
21
2166.987391243530
31
0.0
0
LINE
5
50c
100
AcDbEntity
8
4-0
6
CONTINUOUS
62
5
100
AcDbLine
10
625.346521000000
20
2166.987391243530
30
0.0
11
626.406521000000
21
2166.360391243530
31
0.0
0
LINE
5
50d
100
AcDbEntity
8
4-0
6
CONTINUOUS
62
5
100
AcDbLine
10
626.406521000000
20
2166.360391243530
30
0.0
11
627.631521000000
21
2165.794391243530
31
0.0
0
LINE
5
50e
100
AcDbEntity
8
4-0
6
CONTINUOUS
62
5
100
AcDbLine
10
627.631521000000
20
2165.794391243530
30
0.0
11
629.372521000000
21
2165.185391243530
31
0.0
0
LINE
5
50f
100
AcDbEntity
8
4-0
6
CONTINUOUS
62
5
100
AcDbLine
10
629.372521000000
20
2165.185391243530
30
0.0
11
631.729521000000
21
2164.614391243530
31
0.0
0
LINE
5
510
100
AcDbEntity
8
4-0
6
CONTINUOUS
62
5
100
AcDbLine
10
631.729521000000
20
2164.614391243530
30
0.0
11
634.331521000000
21
2164.239391243530
31
0.0
0
LINE
5
511
100
AcDbEntity
8
4-0
6
CONTINUOUS
62
5
100
AcDbLine
10
634.331521000000
20
2164.239391243530
30
0.0
11
637.605521000000
21
2164.079391243530
31
0.0
0
LINE
5
512
100
AcDbEntity
8
4-0
6
CONTINUOUS
62
5
100
AcDbLine
10
347.614521000000
20
1334.171609243530
30
0.0
11
348.491186000000
21
1329.525224243530
31
0.0
0
LINE
5
513
100
AcDbEntity
8
4-0
6
CONTINUOUS
62
5
100
AcDbLine
10
348.491186000000
20
1329.525224243530
30
0.0
11
350.012830000000
21
1321.504609243530
31
0.0
0
LINE
5
514
100
AcDbEntity
8
4-0
6
CONTINUOUS
62
5
100
AcDbLine
10
350.012830000000
20
1321.504609243530
30
0.0
11
351.562676000000
21
1313.457306243530
31
0.0
0
LINE
5
515
100
AcDbEntity
8
4-0
6
CONTINUOUS
62
5
100
AcDbLine
10
351.562676000000
20
1313.457306243530
30
0.0
11
353.158575000000
21
1305.366425243530
31
0.0
0
LINE
5
516
100
AcDbEntity
8
4-0
6
CONTINUOUS
62
5
100
AcDbLine
10
353.158575000000
20
1305.366425243530
30
0.0
11
354.818376000000
21
1297.215074243530
31
0.0
0
LINE
5
517
100
AcDbEntity
8
4-0
6
CONTINUOUS
62
5
100
AcDbLine
10
354.818376000000
20
1297.215074243530
30
0.0
11
356.559928000000
21
1288.986364243530
31
0.0
0
LINE
5
518
100
AcDbEntity
8
4-0
6
CONTINUOUS
62
5
100
AcDbLine
10
356.559928000000
20
1288.986364243530
30
0.0
11
357.614521000000
21
1284.171609243530
31
0.0
0
LINE
5
519
100
AcDbEntity
8
4-0
6
CONTINUOUS
62
5
100
AcDbLine
10
357.614521000000
20
1284.171609243530
30
0.0
11
358.772553000000
21
1279.054579243530
31
0.0
0
LINE
5
51a
100
AcDbEntity
8
4-0
6
CONTINUOUS
62
5
100
AcDbLine
10
358.772553000000
20
1279.054579243530
30
0.0
11
360.948439000000
21
1270.233839243530
31
0.0
0
LINE
5
51b
100
AcDbEntity
8
4-0
6
CONTINUOUS
62
5
100
AcDbLine
10
360.948439000000
20
1270.233839243530
30
0.0
11
363.475837000000
21
1261.556516243530
31
0.0
0
LINE
5
51c
100
AcDbEntity
8
4-0
6
CONTINUOUS
62
5
100
AcDbLine
10
363.475837000000
20
1261.556516243530
30
0.0
11
366.499601000000
21
1253.186831243530
31
0.0
0
LINE
5
51d
100
AcDbEntity
8
4-0
6
CONTINUOUS
62
5
100
AcDbLine
10
366.499601000000
20
1253.186831243530
30
0.0
11
370.164586000000
21
1245.289005243530
31
0.0
0
LINE
5
51e
100
AcDbEntity
8
4-0
6
CONTINUOUS
62
5
100
AcDbLine
10
370.164586000000
20
1245.289005243530
30
0.0
11
374.615646000000
21
1238.027258243530
31
0.0
0
LINE
5
51f
100
AcDbEntity
8
4-0
6
CONTINUOUS
62
5
100
AcDbLine
10
374.615646000000
20
1238.027258243530
30
0.0
11
377.614521000000
21
1234.171609243530
31
0.0
0
LINE
5
520
100
AcDbEntity
8
4-0
6
CONTINUOUS
62
5
100
AcDbLine
10
377.614521000000
20
1234.171609243530
30
0.0
11
381.158280000000
21
1230.400567243530
31
0.0
0
LINE
5
521
100
AcDbEntity
8
4-0
6
CONTINUOUS
62
5
100
AcDbLine
10
381.158280000000
20
1230.400567243530
30
0.0
11
388.063599000000
21
1224.622669243530
31
0.0
0
LINE
5
522
100
AcDbEntity
8
4-0
6
CONTINUOUS
62
5
100
AcDbLine
10
388.063599000000
20
1224.622669243530
30
0.0
11
395.813796000000
21
1219.651580243530
31
0.0
0
LINE
5
523
100
AcDbEntity
8
4-0
6
CONTINUOUS
62
5
100
AcDbLine
10
395.813796000000
20
1219.651580243530
30
0.0
11
404.220562000000
21
1215.359955243530
31
0.0
0
LINE
5
524
100
AcDbEntity
8
4-0
6
CONTINUOUS
62
5
100
AcDbLine
10
404.220562000000
20
1215.359955243530
30
0.0
11
413.095587000000
21
1211.620446243530
31
0.0
0
LINE
5
525
100
AcDbEntity
8
4-0
6
CONTINUOUS
62
5
100
AcDbLine
10
413.095587000000
20
1211.620446243530
30
0.0
11
422.250564000000
21
1208.305708243530
31
0.0
0
LINE
5
526
100
AcDbEntity
8
4-0
6
CONTINUOUS
62
5
100
AcDbLine
10
422.250564000000
20
1208.305708243530
30
0.0
11
427.614521000000
21
1206.527609243530
31
0.0
0
LINE
5
527
100
AcDbEntity
8
4-0
6
CONTINUOUS
62
5
100
AcDbLine
10
427.614521000000
20
1206.527609243530
30
0.0
11
444.266302000000
21
1201.483303243530
31
0.0
0
LINE
5
528
100
AcDbEntity
8
4-0
6
CONTINUOUS
62
5
100
AcDbLine
10
444.266302000000
20
1201.483303243530
30
0.0
11
472.857839000000
21
1194.292580243530
31
0.0
0
LINE
5
529
100
AcDbEntity
8
4-0
6
CONTINUOUS
62
5
100
AcDbLine
10
472.857839000000
20
1194.292580243530
30
0.0
11
501.323163000000
21
1188.707197243530
31
0.0
0
LINE
5
52a
100
AcDbEntity
8
4-0
6
CONTINUOUS
62
5
100
AcDbLine
10
501.323163000000
20
1188.707197243530
30
0.0
11
529.689833000000
21
1184.376644243530
31
0.0
0
LINE
5
52b
100
AcDbEntity
8
4-0
6
CONTINUOUS
62
5
100
AcDbLine
10
529.689833000000
20
1184.376644243530
30
0.0
11
557.985404000000
21
1180.950409243530
31
0.0
0
LINE
5
52c
100
AcDbEntity
8
4-0
6
CONTINUOUS
62
5
100
AcDbLine
10
557.985404000000
20
1180.950409243530
30
0.0
11
586.237434000000
21
1178.077982243530
31
0.0
0
LINE
5
52d
100
AcDbEntity
8
4-0
6
CONTINUOUS
62
5
100
AcDbLine
10
586.237434000000
20
1178.077982243530
30
0.0
11
602.614521000000
21
1176.527609243530
31
0.0
0
LINE
5
52e
100
AcDbEntity
8
4-0
6
CONTINUOUS
62
5
100
AcDbLine
10
927.614521000000
20
1334.171609243530
30
0.0
11
926.737856000000
21
1329.525224243530
31
0.0
0
LINE
5
52f
100
AcDbEntity
8
4-0
6
CONTINUOUS
62
5
100
AcDbLine
10
926.737856000000
20
1329.525224243530
30
0.0
11
925.216212000000
21
1321.504609243530
31
0.0
0
LINE
5
530
100
AcDbEntity
8
4-0
6
CONTINUOUS
62
5
100
AcDbLine
10
925.216212000000
20
1321.504609243530
30
0.0
11
923.666365000000
21
1313.457306243530
31
0.0
0
LINE
5
531
100
AcDbEntity
8
4-0
6
CONTINUOUS
62
5
100
AcDbLine
10
923.666365000000
20
1313.457306243530
30
0.0
11
922.070467000000
21
1305.366425243530
31
0.0
0
LINE
5
532
100
AcDbEntity
8
4-0
6
CONTINUOUS
62
5
100
AcDbLine
10
922.070467000000
20
1305.366425243530
30
0.0
11
920.410666000000
21
1297.215074243530
31
0.0
0
LINE
5
533
100
AcDbEntity
8
4-0
6
CONTINUOUS
62
5
100
AcDbLine
10
920.410666000000
20
1297.215074243530
30
0.0
11
918.669114000000
21
1288.986364243530
31
0.0
0
LINE
5
534
100
AcDbEntity
8
4-0
6
CONTINUOUS
62
5
100
AcDbLine
10
918.669114000000
20
1288.986364243530
30
0.0
11
917.614521000000
21
1284.171609243530
31
0.0
0
LINE
5
535
100
AcDbEntity
8
4-0
6
CONTINUOUS
62
5
100
AcDbLine
10
917.614521000000
20
1284.171609243530
30
0.0
11
916.456489000000
21
1279.054579243530
31
0.0
0
LINE
5
536
100
AcDbEntity
8
4-0
6
CONTINUOUS
62
5
100
AcDbLine
10
916.456489000000
20
1279.054579243530
30
0.0
11
914.280602000000
21
1270.233839243530
31
0.0
0
LINE
5
537
100
AcDbEntity
8
4-0
6
CONTINUOUS
62
5
100
AcDbLine
10
914.280602000000
20
1270.233839243530
30
0.0
11
911.753204000000
21
1261.556516243530
31
0.0
0
LINE
5
538
100
AcDbEntity
8
4-0
6
CONTINUOUS
62
5
100
AcDbLine
10
911.753204000000
20
1261.556516243530
30
0.0
11
908.729440000000
21
1253.186831243530
31
0.0
0
LINE
5
539
100
AcDbEntity
8
4-0
6
CONTINUOUS
62
5
100
AcDbLine
10
908.729440000000
20
1253.186831243530
30
0.0
11
905.064456000000
21
1245.289005243530
31
0.0
0
LINE
5
53a
100
AcDbEntity
8
4-0
6
CONTINUOUS
62
5
100
AcDbLine
10
905.064456000000
20
1245.289005243530
30
0.0
11
900.613396000000
21
1238.027258243530
31
0.0
0
LINE
5
53b
100
AcDbEntity
8
4-0
6
CONTINUOUS
62
5
100
AcDbLine
10
900.613396000000
20
1238.027258243530
30
0.0
11
897.614521000000
21
1234.171609243530
31
0.0
0
LINE
5
53c
100
AcDbEntity
8
4-0
6
CONTINUOUS
62
5
100
AcDbLine
10
897.614521000000
20
1234.171609243530
30
0.0
11
894.070762000000
21
1230.400567243530
31
0.0
0
LINE
5
53d
100
AcDbEntity
8
4-0
6
CONTINUOUS
62
5
100
AcDbLine
10
894.070762000000
20
1230.400567243530
30
0.0
11
887.165443000000
21
1224.622669243530
31
0.0
0
LINE
5
53e
100
AcDbEntity
8
4-0
6
CONTINUOUS
62
5
100
AcDbLine
10
887.165443000000
20
1224.622669243530
30
0.0
11
879.415246000000
21
1219.651580243530
31
0.0
0
LINE
5
53f
100
AcDbEntity
8
4-0
6
CONTINUOUS
62
5
100
AcDbLine
10
879.415246000000
20
1219.651580243530
30
0.0
11
871.008480000000
21
1215.359955243530
31
0.0
0
LINE
5
540
100
AcDbEntity
8
4-0
6
CONTINUOUS
62
5
100
AcDbLine
10
871.008480000000
20
1215.359955243530
30
0.0
11
862.133454000000
21
1211.620446243530
31
0.0
0
LINE
5
541
100
AcDbEntity
8
4-0
6
CONTINUOUS
62
5
100
AcDbLine
10
862.133454000000
20
1211.620446243530
30
0.0
11
852.978478000000
21
1208.305708243530
31
0.0
0
LINE
5
542
100
AcDbEntity
8
4-0
6
CONTINUOUS
62
5
100
AcDbLine
10
852.978478000000
20
1208.305708243530
30
0.0
11
847.614521000000
21
1206.527609243530
31
0.0
0
LINE
5
543
100
AcDbEntity
8
4-0
6
CONTINUOUS
62
5
100
AcDbLine
10
847.614521000000
20
1206.527609243530
30
0.0
11
830.962740000000
21
1201.483303243530
31
0.0
0
LINE
5
544
100
AcDbEntity
8
4-0
6
CONTINUOUS
62
5
100
AcDbLine
10
830.962740000000
20
1201.483303243530
30
0.0
11
802.371203000000
21
1194.292580243530
31
0.0
0
LINE
5
545
100
AcDbEntity
8
4-0
6
CONTINUOUS
62
5
100
AcDbLine
10
802.371203000000
20
1194.292580243530
30
0.0
11
773.905878000000
21
1188.707197243530
31
0.0
0
LINE
5
546
100
AcDbEntity
8
4-0
6
CONTINUOUS
62
5
100
AcDbLine
10
773.905878000000
20
1188.707197243530
30
0.0
11
745.539209000000
21
1184.376644243530
31
0.0
0
LINE
5
547
100
AcDbEntity
8
4-0
6
CONTINUOUS
62
5
100
AcDbLine
10
745.539209000000
20
1184.376644243530
30
0.0
11
717.243638000000
21
1180.950409243530
31
0.0
0
LINE
5
548
100
AcDbEntity
8
4-0
6
CONTINUOUS
62
5
100
AcDbLine
10
717.243638000000
20
1180.950409243530
30
0.0
11
688.991607000000
21
1178.077982243530
31
0.0
0
LINE
5
549
100
AcDbEntity
8
4-0
6
CONTINUOUS
62
5
100
AcDbLine
10
688.991607000000
20
1178.077982243530
30
0.0
11
672.614521000000
21
1176.527609243530
31
0.0
0
ARC
5
54a
100
AcDbEntity
8
4-0
6
CONTINUOUS
62
5
100
AcDbCircle
10
619.614521000000
20
1304.171609243530
30
0.0
40
10.000000000000
100
AcDbArc
50
90.000000000000
51
180.000000000000
0
LINE
5
54b
100
AcDbEntity
8
4-0
6
CONTINUOUS
62
5
100
AcDbLine
10
655.614521000000
20
1314.171609243530
30
0.0
11
619.614521000000
21
1314.171609243530
31
0.0
0
ARC
5
54c
100
AcDbEntity
8
4-0
6
CONTINUOUS
62
5
100
AcDbCircle
10
655.614521000000
20
1304.171609243530
30
0.0
40
10.000000000000
100
AcDbArc
50
0.000000000000
51
90.000000000000
0
LINE
5
54d
100
AcDbEntity
8
4-0
6
CONTINUOUS
62
5
100
AcDbLine
10
665.614521000000
20
1164.002609243530
30
0.0
11
665.614521000000
21
1304.171609243530
31
0.0
0
ARC
5
54e
100
AcDbEntity
8
4-0
6
CONTINUOUS
62
5
100
AcDbCircle
10
655.614521000000
20
1164.002609243530
30
0.0
40
10.000000000000
100
AcDbArc
50
270.000000000000
51
0.000000000000
0
LINE
5
54f
100
AcDbEntity
8
4-0
6
CONTINUOUS
62
5
100
AcDbLine
10
619.614521000000
20
1154.002609243530
30
0.0
11
655.614521000000
21
1154.002609243530
31
0.0
0
LINE
5
550
100
AcDbEntity
8
4-0
6
CONTINUOUS
62
5
100
AcDbLine
10
609.614521000000
20
1164.002609243530
30
0.0
11
609.614521000000
21
1304.171609243530
31
0.0
0
ARC
5
551
100
AcDbEntity
8
4-0
6
CONTINUOUS
62
5
100
AcDbCircle
10
619.614521000000
20
1164.002609243530
30
0.0
40
10.000000000000
100
AcDbArc
50
180.000000000000
51
270.000000000000
0
LINE
5
552
100
AcDbEntity
8
4-0
6
CONTINUOUS
62
5
100
AcDbLine
10
602.614521000000
20
1149.002609243530
30
0.0
11
602.614521000000
21
1176.527609243530
31
0.0
0
ARC
5
553
100
AcDbEntity
8
4-0
6
CONTINUOUS
62
5
100
AcDbCircle
10
607.614521000000
20
1149.002609243530
30
0.0
40
5.000000000000
100
AcDbArc
50
180.000000000000
51
270.000000000000
0
LINE
5
554
100
AcDbEntity
8
4-0
6
CONTINUOUS
62
5
100
AcDbLine
10
667.614521000000
20
1144.002609243530
30
0.0
11
607.614521000000
21
1144.002609243530
31
0.0
0
LINE
5
555
100
AcDbEntity
8
4-0
6
CONTINUOUS
62
5
100
AcDbLine
10
672.614521000000
20
1149.002609243530
30
0.0
11
672.614521000000
21
1176.527609243530
31
0.0
0
ARC
5
556
100
AcDbEntity
8
4-0
6
CONTINUOUS
62
5
100
AcDbCircle
10
667.614521000000
20
1149.002609243530
30
0.0
40
5.000000000000
100
AcDbArc
50
270.000000000000
51
0.000000000000
0
ARC
5
557
100
AcDbEntity
8
4-0
6
CONTINUOUS
62
5
100
AcDbCircle
10
935.614521000000
20
1336.171609243530
30
0.0
40
2.000000000000
100
AcDbArc
50
270.000000000000
51
0.000000000000
0
LINE
5
558
100
AcDbEntity
8
4-0
6
CONTINUOUS
62
5
100
AcDbLine
10
339.614521000000
20
1334.171609243530
30
0.0
11
935.614521000000
21
1334.171609243530
31
0.0
0
ARC
5
559
100
AcDbEntity
8
4-0
6
CONTINUOUS
62
5
100
AcDbCircle
10
339.614521000000
20
1336.171609243530
30
0.0
40
2.000000000000
100
AcDbArc
50
180.000000000000
51
270.000000000000
0
LINE
5
55a
100
AcDbEntity
8
4-0
6
CONTINUOUS
62
5
100
AcDbLine
10
337.614521000000
20
1347.175609243530
30
0.0
11
337.614521000000
21
1336.171609243530
31
0.0
0
ARC
5
55b
100
AcDbEntity
8
4-0
6
CONTINUOUS
62
5
100
AcDbCircle
10
339.614521000000
20
1347.175609243530
30
0.0
40
2.000000000000
100
AcDbArc
50
90.000000000000
51
180.000000000000
0
LINE
5
55c
100
AcDbEntity
8
4-0
6
CONTINUOUS
62
5
100
AcDbLine
10
935.614521000000
20
1349.175609243530
30
0.0
11
339.614521000000
21
1349.175609243530
31
0.0
0
LINE
5
55d
100
AcDbEntity
8
4-0
6
CONTINUOUS
62
5
100
AcDbLine
10
937.614521000000
20
1347.175609243530
30
0.0
11
937.614521000000
21
1336.171609243530
31
0.0
0
ARC
5
55e
100
AcDbEntity
8
4-0
6
CONTINUOUS
62
5
100
AcDbCircle
10
935.614521000000
20
1347.175609243530
30
0.0
40
2.000000000000
100
AcDbArc
50
0.000000000000
51
90.000000000000
0
LINE
5
55f
100
AcDbEntity
8
4-0
6
CONTINUOUS
62
5
100
AcDbLine
10
672.614521000000
20
1176.527609243530
30
0.0
11
665.614521000000
21
1176.527609243530
31
0.0
0
LINE
5
560
100
AcDbEntity
8
4-0
6
CONTINUOUS
62
5
100
AcDbLine
10
609.614521000000
20
1176.527609243530
30
0.0
11
602.614521000000
21
1176.527609243530
31
0.0
0
LINE
5
561
100
AcDbEntity
8
4-0
6
CONTINUOUS
62
5
100
AcDbLine
10
1652.094632000000
20
1334.169579243530
30
0.0
11
1302.624632000000
21
1334.169579243530
31
0.0
0
LINE
5
562
100
AcDbEntity
8
4-0
6
CONTINUOUS
62
5
100
AcDbLine
10
1302.624632000000
20
1334.169579243530
30
0.0
11
1302.627632000000
21
1334.169579243530
31
0.0
0
LINE
5
563
100
AcDbEntity
8
4-0
6
CONTINUOUS
62
5
100
AcDbLine
10
1302.627632000000
20
1334.169579243530
30
0.0
11
1302.695632000000
21
1334.150579243530
31
0.0
0
LINE
5
564
100
AcDbEntity
8
4-0
6
CONTINUOUS
62
5
100
AcDbLine
10
1302.695632000000
20
1334.150579243530
30
0.0
11
1302.842632000000
21
1334.094579243530
31
0.0
0
LINE
5
565
100
AcDbEntity
8
4-0
6
CONTINUOUS
62
5
100
AcDbLine
10
1302.842632000000
20
1334.094579243530
30
0.0
11
1302.998632000000
21
1334.017579243530
31
0.0
0
LINE
5
566
100
AcDbEntity
8
4-0
6
CONTINUOUS
62
5
100
AcDbLine
10
1302.998632000000
20
1334.017579243530
30
0.0
11
1303.187632000000
21
1333.901579243530
31
0.0
0
LINE
5
567
100
AcDbEntity
8
4-0
6
CONTINUOUS
62
5
100
AcDbLine
10
1303.187632000000
20
1333.901579243530
30
0.0
11
1303.404632000000
21
1333.740579243530
31
0.0
0
LINE
5
568
100
AcDbEntity
8
4-0
6
CONTINUOUS
62
5
100
AcDbLine
10
1303.404632000000
20
1333.740579243530
30
0.0
11
1303.644632000000
21
1333.526579243530
31
0.0
0
LINE
5
569
100
AcDbEntity
8
4-0
6
CONTINUOUS
62
5
100
AcDbLine
10
1303.644632000000
20
1333.526579243530
30
0.0
11
1303.992632000000
21
1333.147579243530
31
0.0
0
LINE
5
56a
100
AcDbEntity
8
4-0
6
CONTINUOUS
62
5
100
AcDbLine
10
1303.992632000000
20
1333.147579243530
30
0.0
11
1304.360632000000
21
1332.643579243530
31
0.0
0
LINE
5
56b
100
AcDbEntity
8
4-0
6
CONTINUOUS
62
5
100
AcDbLine
10
1304.360632000000
20
1332.643579243530
30
0.0
11
1304.737632000000
21
1331.999579243530
31
0.0
0
LINE
5
56c
100
AcDbEntity
8
4-0
6
CONTINUOUS
62
5
100
AcDbLine
10
1304.737632000000
20
1331.999579243530
30
0.0
11
1305.110632000000
21
1331.197579243530
31
0.0
0
LINE
5
56d
100
AcDbEntity
8
4-0
6
CONTINUOUS
62
5
100
AcDbLine
10
1305.110632000000
20
1331.197579243530
30
0.0
11
1305.553632000000
21
1329.946579243530
31
0.0
0
LINE
5
56e
100
AcDbEntity
8
4-0
6
CONTINUOUS
62
5
100
AcDbLine
10
1305.553632000000
20
1329.946579243530
30
0.0
11
1305.875632000000
21
1328.726579243530
31
0.0
0
LINE
5
56f
100
AcDbEntity
8
4-0
6
CONTINUOUS
62
5
100
AcDbLine
10
1305.875632000000
20
1328.726579243530
30
0.0
11
1306.154632000000
21
1327.293579243530
31
0.0
0
LINE
5
570
100
AcDbEntity
8
4-0
6
CONTINUOUS
62
5
100
AcDbLine
10
1306.154632000000
20
1327.293579243530
30
0.0
11
1310.743632000000
21
1303.313579243530
31
0.0
0
LINE
5
571
100
AcDbEntity
8
4-0
6
CONTINUOUS
62
5
100
AcDbLine
10
1310.743632000000
20
1303.313579243530
30
0.0
11
1315.232632000000
21
1288.817579243530
31
0.0
0
LINE
5
572
100
AcDbEntity
8
4-0
6
CONTINUOUS
62
5
100
AcDbLine
10
1315.232632000000
20
1288.817579243530
30
0.0
11
1320.038632000000
21
1277.137579243530
31
0.0
0
LINE
5
573
100
AcDbEntity
8
4-0
6
CONTINUOUS
62
5
100
AcDbLine
10
1320.038632000000
20
1277.137579243530
30
0.0
11
1325.141632000000
21
1267.295579243530
31
0.0
0
LINE
5
574
100
AcDbEntity
8
4-0
6
CONTINUOUS
62
5
100
AcDbLine
10
1325.141632000000
20
1267.295579243530
30
0.0
11
1330.023632000000
21
1259.566579243530
31
0.0
0
LINE
5
575
100
AcDbEntity
8
4-0
6
CONTINUOUS
62
5
100
AcDbLine
10
1330.023632000000
20
1259.566579243530
30
0.0
11
1337.218632000000
21
1250.339579243530
31
0.0
0
LINE
5
576
100
AcDbEntity
8
4-0
6
CONTINUOUS
62
5
100
AcDbLine
10
1337.218632000000
20
1250.339579243530
30
0.0
11
1342.563632000000
21
1244.857579243530
31
0.0
0
LINE
5
577
100
AcDbEntity
8
4-0
6
CONTINUOUS
62
5
100
AcDbLine
10
1342.563632000000
20
1244.857579243530
30
0.0
11
1353.990632000000
21
1235.232579243530
31
0.0
0
LINE
5
578
100
AcDbEntity
8
4-0
6
CONTINUOUS
62
5
100
AcDbLine
10
1353.990632000000
20
1235.232579243530
30
0.0
11
1377.078632000000
21
1219.338579243530
31
0.0
0
LINE
5
579
100
AcDbEntity
8
4-0
6
CONTINUOUS
62
5
100
AcDbLine
10
1377.078632000000
20
1219.338579243530
30
0.0
11
1416.492632000000
21
1197.176579243530
31
0.0
0
LINE
5
57a
100
AcDbEntity
8
4-0
6
CONTINUOUS
62
5
100
AcDbLine
10
1416.492632000000
20
1197.176579243530
30
0.0
11
1446.787632000000
21
1183.345579243530
31
0.0
0
LINE
5
57b
100
AcDbEntity
8
4-0
6
CONTINUOUS
62
5
100
AcDbLine
10
1446.787632000000
20
1183.345579243530
30
0.0
11
1461.028632000000
21
1178.331579243530
31
0.0
0
LINE
5
57c
100
AcDbEntity
8
4-0
6
CONTINUOUS
62
5
100
AcDbLine
10
1461.028632000000
20
1178.331579243530
30
0.0
11
1466.502632000000
21
1176.989579243530
31
0.0
0
LINE
5
57d
100
AcDbEntity
8
4-0
6
CONTINUOUS
62
5
100
AcDbLine
10
1466.502632000000
20
1176.989579243530
30
0.0
11
1468.041632000000
21
1176.733579243530
31
0.0
0
LINE
5
57e
100
AcDbEntity
8
4-0
6
CONTINUOUS
62
5
100
AcDbLine
10
1468.041632000000
20
1176.733579243530
30
0.0
11
1470.652632000000
21
1176.525579243530
31
0.0
0
LINE
5
57f
100
AcDbEntity
8
4-0
6
CONTINUOUS
62
5
100
AcDbLine
10
1470.652632000000
20
1176.525579243530
30
0.0
11
1572.316632000000
21
1176.525579243530
31
0.0
0
LINE
5
580
100
AcDbEntity
8
4-0
6
CONTINUOUS
62
5
100
AcDbLine
10
1501.481632000000
20
1149.381579243530
30
0.0
11
1501.481632000000
21
1166.795579243530
31
0.0
0
LINE
5
581
100
AcDbEntity
8
4-0
6
CONTINUOUS
62
5
100
AcDbLine
10
1572.316632000000
20
1176.525579243530
30
0.0
11
1572.283632000000
21
1144.000579243530
31
0.0
0
LINE
5
582
100
AcDbEntity
8
4-0
6
CONTINUOUS
62
5
100
AcDbLine
10
1572.283632000000
20
1144.000579243530
30
0.0
11
1502.334632000000
21
1144.049579243530
31
0.0
0
LINE
5
583
100
AcDbEntity
8
4-0
6
CONTINUOUS
62
5
100
AcDbLine
10
1502.334632000000
20
1144.049579243530
30
0.0
11
1502.191632000000
21
1144.073579243530
31
0.0
0
LINE
5
584
100
AcDbEntity
8
4-0
6
CONTINUOUS
62
5
100
AcDbLine
10
1502.191632000000
20
1144.073579243530
30
0.0
11
1502.061632000000
21
1144.110579243530
31
0.0
0
LINE
5
585
100
AcDbEntity
8
4-0
6
CONTINUOUS
62
5
100
AcDbLine
10
1502.061632000000
20
1144.110579243530
30
0.0
11
1501.943632000000
21
1144.159579243530
31
0.0
0
LINE
5
586
100
AcDbEntity
8
4-0
6
CONTINUOUS
62
5
100
AcDbLine
10
1501.943632000000
20
1144.159579243530
30
0.0
11
1501.838632000000
21
1144.221579243530
31
0.0
0
LINE
5
587
100
AcDbEntity
8
4-0
6
CONTINUOUS
62
5
100
AcDbLine
10
1501.838632000000
20
1144.221579243530
30
0.0
11
1501.743632000000
21
1144.294579243530
31
0.0
0
LINE
5
588
100
AcDbEntity
8
4-0
6
CONTINUOUS
62
5
100
AcDbLine
10
1501.743632000000
20
1144.294579243530
30
0.0
11
1501.660632000000
21
1144.378579243530
31
0.0
0
LINE
5
589
100
AcDbEntity
8
4-0
6
CONTINUOUS
62
5
100
AcDbLine
10
1501.660632000000
20
1144.378579243530
30
0.0
11
1501.587632000000
21
1144.473579243530
31
0.0
0
LINE
5
58a
100
AcDbEntity
8
4-0
6
CONTINUOUS
62
5
100
AcDbLine
10
1501.587632000000
20
1144.473579243530
30
0.0
11
1501.523632000000
21
1144.578579243530
31
0.0
0
LINE
5
58b
100
AcDbEntity
8
4-0
6
CONTINUOUS
62
5
100
AcDbLine
10
1501.523632000000
20
1144.578579243530
30
0.0
11
1501.469632000000
21
1144.693579243530
31
0.0
0
LINE
5
58c
100
AcDbEntity
8
4-0
6
CONTINUOUS
62
5
100
AcDbLine
10
1501.469632000000
20
1144.693579243530
30
0.0
11
1501.386632000000
21
1144.947579243530
31
0.0
0
LINE
5
58d
100
AcDbEntity
8
4-0
6
CONTINUOUS
62
5
100
AcDbLine
10
1501.386632000000
20
1144.947579243530
30
0.0
11
1501.332632000000
21
1145.233579243530
31
0.0
0
LINE
5
58e
100
AcDbEntity
8
4-0
6
CONTINUOUS
62
5
100
AcDbLine
10
1501.332632000000
20
1145.233579243530
30
0.0
11
1501.299632000000
21
1145.711579243530
31
0.0
0
LINE
5
58f
100
AcDbEntity
8
4-0
6
CONTINUOUS
62
5
100
AcDbLine
10
1501.299632000000
20
1145.711579243530
30
0.0
11
1501.331631999999
21
1146.601579243530
31
0.0
0
LINE
5
590
100
AcDbEntity
8
4-0
6
CONTINUOUS
62
5
100
AcDbLine
10
1501.331631999999
20
1146.601579243530
30
0.0
11
1501.475632000000
21
1149.010579243530
31
0.0
0
LINE
5
591
100
AcDbEntity
8
4-0
6
CONTINUOUS
62
5
100
AcDbLine
10
1501.475632000000
20
1149.010579243530
30
0.0
11
1501.428632000000
21
1149.494579243530
31
0.0
0
LINE
5
592
100
AcDbEntity
8
4-0
6
CONTINUOUS
62
5
100
AcDbLine
10
1501.428632000000
20
1149.494579243530
30
0.0
11
1501.364632000000
21
1149.785579243530
31
0.0
0
LINE
5
593
100
AcDbEntity
8
4-0
6
CONTINUOUS
62
5
100
AcDbLine
10
1501.364632000000
20
1149.785579243530
30
0.0
11
1501.268632000000
21
1150.045579243530
31
0.0
0
LINE
5
594
100
AcDbEntity
8
4-0
6
CONTINUOUS
62
5
100
AcDbLine
10
1501.268632000000
20
1150.045579243530
30
0.0
11
1501.206631999999
21
1150.163579243530
31
0.0
0
LINE
5
595
100
AcDbEntity
8
4-0
6
CONTINUOUS
62
5
100
AcDbLine
10
1501.206631999999
20
1150.163579243530
30
0.0
11
1501.135632000000
21
1150.271579243530
31
0.0
0
LINE
5
596
100
AcDbEntity
8
4-0
6
CONTINUOUS
62
5
100
AcDbLine
10
1501.135632000000
20
1150.271579243530
30
0.0
11
1501.054632000000
21
1150.369579243530
31
0.0
0
LINE
5
597
100
AcDbEntity
8
4-0
6
CONTINUOUS
62
5
100
AcDbLine
10
1501.054632000000
20
1150.369579243530
30
0.0
11
1500.962632000000
21
1150.457579243530
31
0.0
0
LINE
5
598
100
AcDbEntity
8
4-0
6
CONTINUOUS
62
5
100
AcDbLine
10
1500.962632000000
20
1150.457579243530
30
0.0
11
1500.859632000000
21
1150.535579243530
31
0.0
0
LINE
5
599
100
AcDbEntity
8
4-0
6
CONTINUOUS
62
5
100
AcDbLine
10
1500.859632000000
20
1150.535579243530
30
0.0
11
1500.744632000000
21
1150.600579243530
31
0.0
0
LINE
5
59a
100
AcDbEntity
8
4-0
6
CONTINUOUS
62
5
100
AcDbLine
10
1500.744632000000
20
1150.600579243530
30
0.0
11
1500.617632000000
21
1150.654579243530
31
0.0
0
LINE
5
59b
100
AcDbEntity
8
4-0
6
CONTINUOUS
62
5
100
AcDbLine
10
1500.617632000000
20
1150.654579243530
30
0.0
11
1500.477632000000
21
1150.695579243530
31
0.0
0
LINE
5
59c
100
AcDbEntity
8
4-0
6
CONTINUOUS
62
5
100
AcDbLine
10
1500.477632000000
20
1150.695579243530
30
0.0
11
1500.323632000000
21
1150.724579243530
31
0.0
0
LINE
5
59d
100
AcDbEntity
8
4-0
6
CONTINUOUS
62
5
100
AcDbLine
10
1500.323632000000
20
1150.724579243530
30
0.0
11
1464.006632000001
21
1157.084579243530
31
0.0
0
LINE
5
59e
100
AcDbEntity
8
4-0
6
CONTINUOUS
62
5
100
AcDbLine
10
1464.006632000001
20
1157.084579243530
30
0.0
11
1437.370632000000
21
1164.502579243530
31
0.0
0
LINE
5
59f
100
AcDbEntity
8
4-0
6
CONTINUOUS
62
5
100
AcDbLine
10
1437.370632000000
20
1164.502579243530
30
0.0
11
1413.927632000000
21
1173.408579243530
31
0.0
0
LINE
5
5a0
100
AcDbEntity
8
4-0
6
CONTINUOUS
62
5
100
AcDbLine
10
1413.927632000000
20
1173.408579243530
30
0.0
11
1392.462632000000
21
1183.860579243530
31
0.0
0
LINE
5
5a1
100
AcDbEntity
8
4-0
6
CONTINUOUS
62
5
100
AcDbLine
10
1392.462632000000
20
1183.860579243530
30
0.0
11
1370.602632000000
21
1197.198579243530
31
0.0
0
LINE
5
5a2
100
AcDbEntity
8
4-0
6
CONTINUOUS
62
5
100
AcDbLine
10
1370.602632000000
20
1197.198579243530
30
0.0
11
1348.179632000000
21
1213.919579243530
31
0.0
0
LINE
5
5a3
100
AcDbEntity
8
4-0
6
CONTINUOUS
62
5
100
AcDbLine
10
1348.179632000000
20
1213.919579243530
30
0.0
11
1333.869632000000
21
1226.813579243530
31
0.0
0
LINE
5
5a4
100
AcDbEntity
8
4-0
6
CONTINUOUS
62
5
100
AcDbLine
10
1333.869632000000
20
1226.813579243530
30
0.0
11
1323.767632000000
21
1237.813579243530
31
0.0
0
LINE
5
5a5
100
AcDbEntity
8
4-0
6
CONTINUOUS
62
5
100
AcDbLine
10
1323.767632000000
20
1237.813579243530
30
0.0
11
1316.863632000001
21
1246.955579243530
31
0.0
0
LINE
5
5a6
100
AcDbEntity
8
4-0
6
CONTINUOUS
62
5
100
AcDbLine
10
1316.863632000001
20
1246.955579243530
30
0.0
11
1311.329632000000
21
1256.087579243530
31
0.0
0
LINE
5
5a7
100
AcDbEntity
8
4-0
6
CONTINUOUS
62
5
100
AcDbLine
10
1311.329632000000
20
1256.087579243530
30
0.0
11
1307.882632000000
21
1263.391579243530
31
0.0
0
LINE
5
5a8
100
AcDbEntity
8
4-0
6
CONTINUOUS
62
5
100
AcDbLine
10
1307.882632000000
20
1263.391579243530
30
0.0
11
1305.303632000000
21
1270.701579243530
31
0.0
0
LINE
5
5a9
100
AcDbEntity
8
4-0
6
CONTINUOUS
62
5
100
AcDbLine
10
1305.303632000000
20
1270.701579243530
30
0.0
11
1303.587632000000
21
1278.021579243530
31
0.0
0
LINE
5
5aa
100
AcDbEntity
8
4-0
6
CONTINUOUS
62
5
100
AcDbLine
10
1303.587632000000
20
1278.021579243530
30
0.0
11
1302.865632000000
21
1283.521579243530
31
0.0
0
LINE
5
5ab
100
AcDbEntity
8
4-0
6
CONTINUOUS
62
5
100
AcDbLine
10
1302.865632000000
20
1283.521579243530
30
0.0
11
1302.624632000000
21
1289.031579243530
31
0.0
0
LINE
5
5ac
100
AcDbEntity
8
4-0
6
CONTINUOUS
62
5
100
AcDbLine
10
1302.624632000000
20
1289.031579243530
30
0.0
11
1302.624632000000
21
1334.169579243530
31
0.0
0
LINE
5
5ad
100
AcDbEntity
8
4-0
6
CONTINUOUS
62
5
100
AcDbLine
10
1302.624632000000
20
1334.169579243530
30
0.0
11
1297.632632000000
21
1334.169579243530
31
0.0
0
LINE
5
5ae
100
AcDbEntity
8
4-0
6
CONTINUOUS
62
5
100
AcDbLine
10
1297.632632000000
20
1334.169579243530
30
0.0
11
1292.740632000000
21
1349.179579243530
31
0.0
0
LINE
5
5af
100
AcDbEntity
8
4-0
6
CONTINUOUS
62
5
100
AcDbLine
10
1292.740632000000
20
1349.179579243530
30
0.0
11
1662.327632000000
21
1349.173579243530
31
0.0
0
LINE
5
5b0
100
AcDbEntity
8
4-0
6
CONTINUOUS
62
5
100
AcDbLine
10
1662.327632000000
20
1349.173579243530
30
0.0
11
1662.327632000000
21
1334.169579243530
31
0.0
0
LINE
5
5b1
100
AcDbEntity
8
4-0
6
CONTINUOUS
62
5
100
AcDbLine
10
1662.327632000000
20
1334.169579243530
30
0.0
11
1652.094632000000
21
1334.169579243530
31
0.0
0
LINE
5
5b2
100
AcDbEntity
8
4-0
6
CONTINUOUS
62
5
100
AcDbLine
10
1652.094632000000
20
1334.169579243530
30
0.0
11
1652.094632000000
21
1227.168579243530
31
0.0
0
LINE
5
5b3
100
AcDbEntity
8
4-0
6
CONTINUOUS
62
5
100
AcDbLine
10
1652.094632000000
20
1227.168579243530
30
0.0
11
1651.500632000000
21
1213.882579243530
31
0.0
0
LINE
5
5b4
100
AcDbEntity
8
4-0
6
CONTINUOUS
62
5
100
AcDbLine
10
1651.500632000000
20
1213.882579243530
30
0.0
11
1650.192632000000
21
1205.102579243530
31
0.0
0
LINE
5
5b5
100
AcDbEntity
8
4-0
6
CONTINUOUS
62
5
100
AcDbLine
10
1650.192632000000
20
1205.102579243530
30
0.0
11
1648.745632000000
21
1199.505579243530
31
0.0
0
LINE
5
5b6
100
AcDbEntity
8
4-0
6
CONTINUOUS
62
5
100
AcDbLine
10
1648.745632000000
20
1199.505579243530
30
0.0
11
1646.912632000000
21
1194.690579243530
31
0.0
0
LINE
5
5b7
100
AcDbEntity
8
4-0
6
CONTINUOUS
62
5
100
AcDbLine
10
1646.912632000000
20
1194.690579243530
30
0.0
11
1645.482632000000
21
1191.885579243530
31
0.0
0
LINE
5
5b8
100
AcDbEntity
8
4-0
6
CONTINUOUS
62
5
100
AcDbLine
10
1645.482632000000
20
1191.885579243530
30
0.0
11
1643.890632000001
21
1189.384579243530
31
0.0
0
LINE
5
5b9
100
AcDbEntity
8
4-0
6
CONTINUOUS
62
5
100
AcDbLine
10
1643.890632000001
20
1189.384579243530
30
0.0
11
1642.139632000000
21
1187.170579243530
31
0.0
0
LINE
5
5ba
100
AcDbEntity
8
4-0
6
CONTINUOUS
62
5
100
AcDbLine
10
1642.139632000000
20
1187.170579243530
30
0.0
11
1640.232632000000
21
1185.224579243530
31
0.0
0
LINE
5
5bb
100
AcDbEntity
8
4-0
6
CONTINUOUS
62
5
100
AcDbLine
10
1640.232632000000
20
1185.224579243530
30
0.0
11
1638.175632000000
21
1183.531579243530
31
0.0
0
LINE
5
5bc
100
AcDbEntity
8
4-0
6
CONTINUOUS
62
5
100
AcDbLine
10
1638.175632000000
20
1183.531579243530
30
0.0
11
1635.969632000000
21
1182.072579243530
31
0.0
0
LINE
5
5bd
100
AcDbEntity
8
4-0
6
CONTINUOUS
62
5
100
AcDbLine
10
1635.969632000000
20
1182.072579243530
30
0.0
11
1633.619632000000
21
1180.830579243530
31
0.0
0
LINE
5
5be
100
AcDbEntity
8
4-0
6
CONTINUOUS
62
5
100
AcDbLine
10
1633.619632000000
20
1180.830579243530
30
0.0
11
1629.833632000000
21
1179.336579243530
31
0.0
0
LINE
5
5bf
100
AcDbEntity
8
4-0
6
CONTINUOUS
62
5
100
AcDbLine
10
1629.833632000000
20
1179.336579243530
30
0.0
11
1625.742632000000
21
1178.233579243530
31
0.0
0
LINE
5
5c0
100
AcDbEntity
8
4-0
6
CONTINUOUS
62
5
100
AcDbLine
10
1625.742632000000
20
1178.233579243530
30
0.0
11
1619.837632000000
21
1177.268579243530
31
0.0
0
LINE
5
5c1
100
AcDbEntity
8
4-0
6
CONTINUOUS
62
5
100
AcDbLine
10
1619.837632000000
20
1177.268579243530
30
0.0
11
1611.771632000000
21
1176.681579243530
31
0.0
0
LINE
5
5c2
100
AcDbEntity
8
4-0
6
CONTINUOUS
62
5
100
AcDbLine
10
1611.771632000000
20
1176.681579243530
30
0.0
11
1601.163632000000
21
1176.525579243530
31
0.0
0
LINE
5
5c3
100
AcDbEntity
8
4-0
6
CONTINUOUS
62
5
100
AcDbLine
10
1601.163632000000
20
1176.525579243530
30
0.0
11
1572.316632000000
21
1176.525579243530
31
0.0
0
LINE
5
5c4
100
AcDbEntity
8
4-0
6
CONTINUOUS
62
5
100
AcDbLine
10
1501.481632000000
20
1166.795579243530
30
0.0
11
1501.481632000000
21
1176.525579243530
31
0.0
0
LINE
5
5c5
100
AcDbEntity
8
0-1
6
CONTINUOUS
62
3
100
AcDbLine
10
653.877977000000
20
2387.087847243530
30
0.0
11
621.351065000000
21
2354.560935243530
31
0.0
0
TEXT
5
5c6
100
AcDbEntity
8
0-1
62
3
100
AcDbText
10
544.517
20
2272.296
30
0.0
40
38.400
1
φ46
41
1.000
50
45.000
100
AcDbText
0
LINE
5
5c7
100
AcDbEntity
8
0-1
6
CONTINUOUS
62
3
100
AcDbLine
10
621.351065000000
20
2354.560935243530
30
0.0
11
541.801552000000
21
2275.011422243530
31
0.0
0
LINE
5
5c8
100
AcDbEntity
8
0-1
6
CONTINUOUS
62
3
100
AcDbLine
10
689.233316000000
20
2422.443186243530
30
0.0
11
653.877977000000
21
2387.087847243530
31
0.0
0
LINE
5
5c9
100
AcDbEntity
8
0-1
6
CONTINUOUS
62
3
100
AcDbLine
10
653.877977000000
20
2387.087847243530
30
0.0
11
668.877977000000
21
2413.068609243530
31
0.0
0
LINE
5
5ca
100
AcDbEntity
8
0-1
6
CONTINUOUS
62
3
100
AcDbLine
10
653.877977000000
20
2387.087847243530
30
0.0
11
679.858739000000
21
2402.087847243530
31
0.0
0
LINE
5
5cb
100
AcDbEntity
8
0-1
6
CONTINUOUS
62
3
100
AcDbLine
10
621.351065000000
20
2354.560935243530
30
0.0
11
606.351065000000
21
2328.580173243530
31
0.0
0
LINE
5
5cc
100
AcDbEntity
8
0-1
6
CONTINUOUS
62
3
100
AcDbLine
10
621.351065000000
20
2354.560935243530
30
0.0
11
595.370303000000
21
2339.560935243530
31
0.0
0
LINE
5
5cd
100
AcDbEntity
8
1-1
6
CENTER2
62
16
100
AcDbLine
10
1537.309132000000
20
902.411641243530
30
0.0
11
1537.309132000000
21
1679.175609243530
31
0.0
0
LINE
5
5ce
100
AcDbEntity
8
1-1
6
CENTER2
62
16
100
AcDbLine
10
637.614521000000
20
902.411641243530
30
0.0
11
637.614521000000
21
1679.175609243530
31
0.0
0
LINE
5
5cf
100
AcDbEntity
8
1-1
6
CENTER2
62
16
100
AcDbLine
10
637.614521000000
20
1989.412531243530
30
0.0
11
637.614521000000
21
2670.824391243530
31
0.0
0
LINE
5
5d0
100
AcDbEntity
8
2-1
6
CONTINUOUS
62
4
100
AcDbLine
10
537.614521000000
20
1895.824391243530
30
0.0
11
737.614521000000
21
1895.824391243530
31
0.0
0
LINE
5
5d1
100
AcDbEntity
8
2-1
6
CONTINUOUS
62
4
100
AcDbLine
10
737.614521000000
20
1895.824391243530
30
0.0
11
737.614521000000
21
1945.824391243530
31
0.0
0
LINE
5
5d2
100
AcDbEntity
8
2-1
6
CONTINUOUS
62
4
100
AcDbLine
10
737.614521000000
20
1945.824391243530
30
0.0
11
537.614521000000
21
1945.824391243530
31
0.0
0
LINE
5
5d3
100
AcDbEntity
8
2-1
6
CONTINUOUS
62
4
100
AcDbLine
10
537.614521000000
20
1945.824391243530
30
0.0
11
537.614521000000
21
1895.824391243530
31
0.0
0
LINE
5
5d4
100
AcDbEntity
8
2-1
6
CONTINUOUS
62
4
100
AcDbLine
10
537.614521000000
20
771.832806243530
30
0.0
11
737.614521000000
21
771.832806243530
31
0.0
0
LINE
5
5d5
100
AcDbEntity
8
2-1
6
CONTINUOUS
62
4
100
AcDbLine
10
737.614521000000
20
771.832806243530
30
0.0
11
737.614521000000
21
821.832806243530
31
0.0
0
LINE
5
5d6
100
AcDbEntity
8
2-1
6
CONTINUOUS
62
4
100
AcDbLine
10
737.614521000000
20
821.832806243530
30
0.0
11
537.614521000000
21
821.832806243530
31
0.0
0
LINE
5
5d7
100
AcDbEntity
8
2-1
6
CONTINUOUS
62
4
100
AcDbLine
10
537.614521000000
20
821.832806243530
30
0.0
11
537.614521000000
21
771.832806243530
31
0.0
0
LINE
5
5d8
100
AcDbEntity
8
2-1
6
CONTINUOUS
62
4
100
AcDbLine
10
1437.309132000000
20
771.855239243530
30
0.0
11
1637.309132000000
21
771.855239243530
31
0.0
0
LINE
5
5d9
100
AcDbEntity
8
2-1
6
CONTINUOUS
62
4
100
AcDbLine
10
1637.309132000000
20
771.855239243530
30
0.0
11
1637.309132000000
21
821.855239243530
31
0.0
0
LINE
5
5da
100
AcDbEntity
8
2-1
6
CONTINUOUS
62
4
100
AcDbLine
10
1637.309132000000
20
821.855239243530
30
0.0
11
1437.309132000000
21
821.855239243530
31
0.0
0
LINE
5
5db
100
AcDbEntity
8
2-1
6
CONTINUOUS
62
4
100
AcDbLine
10
1437.309132000000
20
821.855239243530
30
0.0
11
1437.309132000000
21
771.855239243530
31
0.0
0
CIRCLE
5
5dc
100
AcDbEntity
8
4-0
6
CONTINUOUS
62
5
100
AcDbCircle
10
1524.923653000000
20
4693.624629243530
30
0.0
40
23.000000000000
0
ARC
5
5dd
100
AcDbEntity
8
4-0
6
CONTINUOUS
62
5
100
AcDbCircle
10
1384.170558000000
20
4658.564360243530
30
0.0
40
119.246905000000
100
AcDbArc
50
106.094000000000
51
230.387000000000
0
ARC
5
5de
100
AcDbEntity
8
4-0
6
CONTINUOUS
62
5
100
AcDbCircle
10
1524.923653000000
20
4828.624629243530
30
0.0
40
340.000000000000
100
AcDbArc
50
230.387000000000
51
309.613000000000
0
ARC
5
5df
100
AcDbEntity
8
4-0
6
CONTINUOUS
62
5
100
AcDbCircle
10
1665.676748000000
20
4658.564360243530
30
0.0
40
119.246905000000
100
AcDbArc
50
309.613000000000
51
73.906000000000
0
ARC
5
5e0
100
AcDbEntity
8
4-0
6
CONTINUOUS
62
5
100
AcDbCircle
10
1659.923653000000
20
4638.624629243530
30
0.0
40
140.000000000000
100
AcDbArc
50
73.906000000000
51
116.721000000000
0
ARC
5
5e1
100
AcDbEntity
8
4-0
6
CONTINUOUS
62
5
100
AcDbCircle
10
1524.923653000000
20
4928.624629243530
30
0.0
40
180.000000000000
100
AcDbArc
50
246.405000000000
51
293.595000000000
0
ARC
5
5e2
100
AcDbEntity
8
4-0
6
CONTINUOUS
62
5
100
AcDbCircle
10
1389.923653000000
20
4638.624629243530
30
0.0
40
140.000000000000
100
AcDbArc
50
63.279000000000
51
106.094000000000
0
LINE
5
5e3
100
AcDbEntity
8
1-1
6
CENTER2
62
16
100
AcDbLine
10
1196.222497000000
20
4693.624629243530
30
0.0
11
1853.624808000001
21
4693.624629243530
31
0.0
0
LINE
5
5e4
100
AcDbEntity
8
1-1
6
CENTER2
62
16
100
AcDbLine
10
1524.923653000000
20
4928.624629243530
30
0.0
11
1524.923653000000
21
4438.624629243530
31
0.0
0
TEXT
5
5e5
100
AcDbEntity
8
2-1
62
4
100
AcDbText
10
1334.924
20
1871.984
30
0.0
40
38.400
1
カウンター切り込み寸法
41
1.000
50
0.000
100
AcDbText
0
LINE
5
5e6
100
AcDbEntity
8
2-1
6
CONTINUOUS
62
4
100
AcDbLine
10
1274.923653000000
20
1865.824391243530
30
0.0
11
1774.923653000000
21
1865.824391243530
31
0.0
0
LINE
5
5e7
100
AcDbEntity
8
2-1
6
CONTINUOUS
62
4
100
AcDbLine
10
1774.923653000000
20
1865.824391243530
30
0.0
11
1774.923653000000
21
1915.824391243530
31
0.0
0
LINE
5
5e8
100
AcDbEntity
8
2-1
6
CONTINUOUS
62
4
100
AcDbLine
10
1774.923653000000
20
1915.824391243530
30
0.0
11
1274.923653000000
21
1915.824391243530
31
0.0
0
LINE
5
5e9
100
AcDbEntity
8
2-1
6
CONTINUOUS
62
4
100
AcDbLine
10
1274.923653000000
20
1915.824391243530
30
0.0
11
1274.923653000000
21
1865.824391243530
31
0.0
0
TEXT
5
5ea
100
AcDbEntity
8
2-1
62
4
100
AcDbText
10
587.615
20
1901.984
30
0.0
40
38.400
1
平面図
41
1.000
50
0.000
100
AcDbText
0
TEXT
5
5eb
100
AcDbEntity
8
2-1
62
4
100
AcDbText
10
587.615
20
777.993
30
0.0
40
38.400
1
立面図
41
1.000
50
0.000
100
AcDbText
0
TEXT
5
5ec
100
AcDbEntity
8
2-1
62
4
100
AcDbText
10
1487.309
20
778.015
30
0.0
40
38.400
1
側面図
41
1.000
50
0.000
100
AcDbText
0
LINE
5
5ed
100
AcDbEntity
8
0-1
6
CONTINUOUS
62
0
100
AcDbLine
10
319.614521000000
20
1349.175609243530
30
0.0
11
248.664335000000
21
1349.175609243530
31
0.0
0
LINE
5
5ee
100
AcDbEntity
8
0-1
6
CONTINUOUS
62
0
100
AcDbLine
10
507.582566000000
20
1144.002609243530
30
0.0
11
248.664335000000
21
1144.002609243530
31
0.0
0
TEXT
5
5ef
100
AcDbEntity
8
0-1
62
0
100
AcDbText
10
245.364
20
1222.589
30
0.0
40
32.000
1
205
41
1.000
50
90.000
100
AcDbText
0
LINE
5
5f0
100
AcDbEntity
8
0-1
6
CONTINUOUS
62
0
100
AcDbLine
10
248.664334696549
20
1144.002609138587
30
0.0
11
248.664334696549
21
1349.175609138587
31
0.0
0
POINT
5
5f1
100
AcDbEntity
8
0-1
62
0
100
AcDbPoint
10
248.664334696549
20
1144.002609138587
30
0.0
0
POINT
5
5f2
100
AcDbEntity
8
0-1
62
0
100
AcDbPoint
10
248.664334696549
20
1349.175609138587
30
0.0
0
LINE
5
5f3
100
AcDbEntity
8
0-1
6
CONTINUOUS
62
0
100
AcDbLine
10
337.416521000000
20
2540.824391243530
30
0.0
11
337.416521000000
21
2570.824391243530
31
0.0
0
LINE
5
5f4
100
AcDbEntity
8
0-1
6
CONTINUOUS
62
0
100
AcDbLine
10
637.614521000000
20
2565.824391243530
30
0.0
11
637.614521000000
21
2570.824391243530
31
0.0
0
TEXT
5
5f5
100
AcDbEntity
8
0-1
62
0
100
AcDbText
10
463.516
20
2574.124
30
0.0
40
32.000
1
300
41
1.000
50
0.000
100
AcDbText
0
LINE
5
5f6
100
AcDbEntity
8
0-1
6
CONTINUOUS
62
0
100
AcDbLine
10
637.614520819412
20
2570.824391330472
30
0.0
11
337.416520819412
21
2570.824391330472
31
0.0
0
POINT
5
5f7
100
AcDbEntity
8
0-1
62
0
100
AcDbPoint
10
637.614520819412
20
2570.824391330472
30
0.0
0
POINT
5
5f8
100
AcDbEntity
8
0-1
62
0
100
AcDbPoint
10
337.416520819412
20
2570.824391330472
30
0.0
0
LINE
5
5f9
100
AcDbEntity
8
0-1
6
CONTINUOUS
62
0
100
AcDbLine
10
637.614521000000
20
2570.824391243530
30
0.0
11
637.614521000000
21
2571.004391243530
31
0.0
0
LINE
5
5fa
100
AcDbEntity
8
0-1
6
CONTINUOUS
62
0
100
AcDbLine
10
937.868521000000
20
2550.892742243530
30
0.0
11
937.868521000000
21
2571.004391243530
31
0.0
0
TEXT
5
5fb
100
AcDbEntity
8
0-1
62
0
100
AcDbText
10
763.742
20
2574.304
30
0.0
40
32.000
1
300
41
1.000
50
0.000
100
AcDbText
0
LINE
5
5fc
100
AcDbEntity
8
0-1
6
CONTINUOUS
62
0
100
AcDbLine
10
937.868520819412
20
2571.004391330472
30
0.0
11
637.614520819412
21
2571.004391330472
31
0.0
0
POINT
5
5fd
100
AcDbEntity
8
0-1
62
0
100
AcDbPoint
10
937.868520819412
20
2571.004391330472
30
0.0
0
POINT
5
5fe
100
AcDbEntity
8
0-1
62
0
100
AcDbPoint
10
637.614520819412
20
2571.004391330472
30
0.0
0
LINE
5
5ff
100
AcDbEntity
8
0-1
6
CONTINUOUS
62
0
100
AcDbLine
10
337.416521000000
20
2568.414391243530
30
0.0
11
337.416521000000
21
2618.595151243530
31
0.0
0
LINE
5
600
100
AcDbEntity
8
0-1
6
CONTINUOUS
62
0
100
AcDbLine
10
937.868521000000
20
2573.538567243530
30
0.0
11
937.868521000000
21
2618.595151243530
31
0.0
0
TEXT
5
601
100
AcDbEntity
8
0-1
62
0
100
AcDbText
10
613.643
20
2621.895
30
0.0
40
32.000
1
600
41
1.000
50
0.000
100
AcDbText
0
LINE
5
602
100
AcDbEntity
8
0-1
6
CONTINUOUS
62
0
100
AcDbLine
10
937.868520819412
20
2618.595151102012
30
0.0
11
337.416520819412
21
2618.595151102012
31
0.0
0
POINT
5
603
100
AcDbEntity
8
0-1
62
0
100
AcDbPoint
10
937.868520819412
20
2618.595151102012
30
0.0
0
POINT
5
604
100
AcDbEntity
8
0-1
62
0
100
AcDbPoint
10
337.416520819412
20
2618.595151102012
30
0.0
0
LINE
5
605
100
AcDbEntity
8
0-1
6
CONTINUOUS
62
0
100
AcDbLine
10
957.513521000000
20
2495.899391243530
30
0.0
11
987.513521000000
21
2495.899391243530
31
0.0
0
LINE
5
606
100
AcDbEntity
8
0-1
6
CONTINUOUS
62
0
100
AcDbLine
10
985.103521000000
20
2370.824391243530
30
0.0
11
987.513521000000
21
2370.824391243530
31
0.0
0
TEXT
5
607
100
AcDbEntity
8
0-1
62
0
100
AcDbText
10
984.214
20
2409.362
30
0.0
40
32.000
1
125
41
1.000
50
90.000
100
AcDbText
0
LINE
5
608
100
AcDbEntity
8
0-1
6
CONTINUOUS
62
0
100
AcDbLine
10
987.513520819412
20
2370.824391330472
30
0.0
11
987.513520819412
21
2495.899391330472
31
0.0
0
POINT
5
609
100
AcDbEntity
8
0-1
62
0
100
AcDbPoint
10
987.513520819412
20
2370.824391330472
30
0.0
0
POINT
5
60a
100
AcDbEntity
8
0-1
62
0
100
AcDbPoint
10
987.513520819412
20
2495.899391330472
30
0.0
0
LINE
5
60b
100
AcDbEntity
8
0-1
6
CONTINUOUS
62
0
100
AcDbLine
10
985.103521000000
20
2370.824391243530
30
0.0
11
987.513521000000
21
2370.824391243530
31
0.0
0
LINE
5
60c
100
AcDbEntity
8
0-1
6
CONTINUOUS
62
0
100
AcDbLine
10
962.513521000000
20
2125.665391243530
30
0.0
11
987.513521000000
21
2125.665391243530
31
0.0
0
TEXT
5
60d
100
AcDbEntity
8
0-1
62
0
100
AcDbText
10
984.214
20
2224.245
30
0.0
40
32.000
1
245
41
1.000
50
90.000
100
AcDbText
0
LINE
5
60e
100
AcDbEntity
8
0-1
6
CONTINUOUS
62
0
100
AcDbLine
10
987.513520819412
20
2125.665391330472
30
0.0
11
987.513520819412
21
2370.824391330472
31
0.0
0
POINT
5
60f
100
AcDbEntity
8
0-1
62
0
100
AcDbPoint
10
987.513520819412
20
2125.665391330472
30
0.0
0
POINT
5
610
100
AcDbEntity
8
0-1
62
0
100
AcDbPoint
10
987.513520819412
20
2370.824391330472
30
0.0
0
LINE
5
611
100
AcDbEntity
8
0-1
6
CONTINUOUS
62
0
100
AcDbLine
10
987.603521000000
20
2125.665391243530
30
0.0
11
1042.026759000000
21
2125.665391243530
31
0.0
0
LINE
5
612
100
AcDbEntity
8
0-1
6
CONTINUOUS
62
0
100
AcDbLine
10
987.603521000000
20
2495.899391243530
30
0.0
11
1042.026759000000
21
2495.899391243530
31
0.0
0
TEXT
5
613
100
AcDbEntity
8
0-1
62
0
100
AcDbText
10
1038.727
20
2286.782
30
0.0
40
32.000
1
370
41
1.000
50
90.000
100
AcDbText
0
LINE
5
614
100
AcDbEntity
8
0-1
6
CONTINUOUS
62
0
100
AcDbLine
10
1042.026759360760
20
2495.899391330472
30
0.0
11
1042.026759360760
21
2125.665391330472
31
0.0
0
POINT
5
615
100
AcDbEntity
8
0-1
62
0
100
AcDbPoint
10
1042.026759360760
20
2495.899391330472
30
0.0
0
POINT
5
616
100
AcDbEntity
8
0-1
62
0
100
AcDbPoint
10
1042.026759360760
20
2125.665391330472
30
0.0
0
LINE
5
617
100
AcDbEntity
8
0-1
6
CONTINUOUS
62
0
100
AcDbLine
10
1382.888567000000
20
4778.624629243530
30
0.0
11
1223.615436000000
21
4778.624629243530
31
0.0
0
LINE
5
618
100
AcDbEntity
8
0-1
6
CONTINUOUS
62
0
100
AcDbLine
10
1454.923653000000
20
4488.624629243530
30
0.0
11
1223.615436000000
21
4488.624629243530
31
0.0
0
TEXT
5
619
100
AcDbEntity
8
0-1
62
0
100
AcDbText
10
1220.315
20
4609.625
30
0.0
40
32.000
1
290
41
1.000
50
90.000
100
AcDbText
0
LINE
5
61a
100
AcDbEntity
8
0-1
6
CONTINUOUS
62
0
100
AcDbLine
10
1223.615436403008
20
4488.624629730590
30
0.0
11
1223.615436403008
21
4778.624629730590
31
0.0
0
POINT
5
61b
100
AcDbEntity
8
0-1
62
0
100
AcDbPoint
10
1223.615436403008
20
4488.624629730590
30
0.0
0
POINT
5
61c
100
AcDbEntity
8
0-1
62
0
100
AcDbPoint
10
1223.615436403008
20
4778.624629730590
30
0.0
0
LINE
5
61d
100
AcDbEntity
8
0-1
6
CONTINUOUS
62
0
100
AcDbLine
10
1617.923653000000
20
4748.624629243530
30
0.0
11
1629.535345000000
21
4748.624629243530
31
0.0
0
LINE
5
61e
100
AcDbEntity
8
0-1
6
CONTINUOUS
62
0
100
AcDbLine
10
1617.923653000000
20
4693.624629243530
30
0.0
11
1629.535345000000
21
4693.624629243530
31
0.0
0
LINE
5
61f
100
AcDbEntity
8
0-1
6
CONTINUOUS
62
0
100
AcDbLine
10
1629.535345000000
20
4773.624629243530
30
0.0
11
1629.535345000000
21
4798.624629243530
31
0.0
0
LINE
5
620
100
AcDbEntity
8
0-1
6
CONTINUOUS
62
0
100
AcDbLine
10
1629.535345000000
20
4668.624629243530
30
0.0
11
1629.535345000000
21
4643.624629243530
31
0.0
0
LINE
5
621
100
AcDbEntity
8
0-1
6
CONTINUOUS
62
0
100
AcDbLine
10
1629.535345000000
20
4748.624629243530
30
0.0
11
1629.535345000000
21
4693.624629243530
31
0.0
0
LINE
5
622
100
AcDbEntity
8
0-1
6
BYLAYER
62
0
100
AcDbLine
10
1636.234070296174
20
4773.624629730693
30
0.0
11
1629.535345296557
21
4748.624629730590
31
0.0
0
LINE
5
623
100
AcDbEntity
8
0-1
6
BYLAYER
62
0
100
AcDbLine
10
1629.535345296557
20
4748.624629730590
30
0.0
11
1622.836620296174
21
4773.624629730487
31
0.0
0
LINE
5
624
100
AcDbEntity
8
0-1
6
BYLAYER
62
0
100
AcDbLine
10
1629.535345296557
20
4748.624629730590
30
0.0
11
1629.535345296174
21
4773.624629730590
31
0.0
0
LINE
5
625
100
AcDbEntity
8
0-1
6
BYLAYER
62
0
100
AcDbLine
10
1622.836620296685
20
4668.624629730555
30
0.0
11
1629.535345296557
21
4693.624629730590
31
0.0
0
LINE
5
626
100
AcDbEntity
8
0-1
6
BYLAYER
62
0
100
AcDbLine
10
1629.535345296557
20
4693.624629730590
30
0.0
11
1636.234070296684
21
4668.624629730624
31
0.0
0
LINE
5
627
100
AcDbEntity
8
0-1
6
BYLAYER
62
0
100
AcDbLine
10
1629.535345296557
20
4693.624629730590
30
0.0
11
1629.535345296685
21
4668.624629730590
31
0.0
0
TEXT
5
628
100
AcDbEntity
8
0-1
62
0
100
AcDbText
10
1626.235
20
4705.125
30
0.0
40
32.000
1
55
41
1.000
50
90.000
100
AcDbText
0
LINE
5
629
100
AcDbEntity
8
0-1
6
CONTINUOUS
62
0
100
AcDbLine
10
1622.923653000000
20
4693.624629243530
30
0.0
11
1629.535345000000
21
4693.624629243530
31
0.0
0
LINE
5
62a
100
AcDbEntity
8
0-1
6
CONTINUOUS
62
0
100
AcDbLine
10
1617.923653000000
20
4488.624629243530
30
0.0
11
1629.535345000000
21
4488.624629243530
31
0.0
0
TEXT
5
62b
100
AcDbEntity
8
0-1
62
0
100
AcDbText
10
1626.235
20
4567.125
30
0.0
40
32.000
1
205
41
1.000
50
90.000
100
AcDbText
0
LINE
5
62c
100
AcDbEntity
8
0-1
6
CONTINUOUS
62
0
100
AcDbLine
10
1629.535345296556
20
4488.624629730590
30
0.0
11
1629.535345296557
21
4693.624629730590
31
0.0
0
POINT
5
62d
100
AcDbEntity
8
0-1
62
0
100
AcDbPoint
10
1629.535345296556
20
4488.624629730590
30
0.0
0
POINT
5
62e
100
AcDbEntity
8
0-1
62
0
100
AcDbPoint
10
1629.535345296557
20
4693.624629730590
30
0.0
0
LINE
5
62f
100
AcDbEntity
8
0-1
6
CONTINUOUS
62
0
100
AcDbLine
10
1544.923653000000
20
4748.624629243530
30
0.0
11
1677.175242000000
21
4748.624629243530
31
0.0
0
LINE
5
630
100
AcDbEntity
8
0-1
6
CONTINUOUS
62
0
100
AcDbLine
10
1544.923653000000
20
4488.624629243530
30
0.0
11
1677.175242000000
21
4488.624629243530
31
0.0
0
TEXT
5
631
100
AcDbEntity
8
0-1
62
0
100
AcDbText
10
1673.875
20
4594.625
30
0.0
40
32.000
1
260
41
1.000
50
90.000
100
AcDbText
0
LINE
5
632
100
AcDbEntity
8
0-1
6
CONTINUOUS
62
0
100
AcDbLine
10
1677.175241931705
20
4488.624629730590
30
0.0
11
1677.175241931706
21
4748.624629730590
31
0.0
0
POINT
5
633
100
AcDbEntity
8
0-1
62
0
100
AcDbPoint
10
1677.175241931705
20
4488.624629730590
30
0.0
0
POINT
5
634
100
AcDbEntity
8
0-1
62
0
100
AcDbPoint
10
1677.175241931706
20
4748.624629730590
30
0.0
0
LINE
5
635
100
AcDbEntity
8
0-1
6
CONTINUOUS
62
0
100
AcDbLine
10
1264.923653000000
20
4418.624629243530
30
0.0
11
1264.923653000000
21
4391.965113243530
31
0.0
0
LINE
5
636
100
AcDbEntity
8
0-1
6
CONTINUOUS
62
0
100
AcDbLine
10
1524.923653000000
20
4418.624629243530
30
0.0
11
1524.923653000000
21
4391.965113243530
31
0.0
0
TEXT
5
637
100
AcDbEntity
8
0-1
62
0
100
AcDbText
10
1370.924
20
4395.265
30
0.0
40
32.000
1
260
41
1.000
50
0.000
100
AcDbText
0
LINE
5
638
100
AcDbEntity
8
0-1
6
CONTINUOUS
62
0
100
AcDbLine
10
1524.923652787059
20
4391.965113432549
30
0.0
11
1264.923652787059
21
4391.965113432549
31
0.0
0
POINT
5
639
100
AcDbEntity
8
0-1
62
0
100
AcDbPoint
10
1524.923652787059
20
4391.965113432549
30
0.0
0
POINT
5
63a
100
AcDbEntity
8
0-1
62
0
100
AcDbPoint
10
1264.923652787059
20
4391.965113432549
30
0.0
0
LINE
5
63b
100
AcDbEntity
8
0-1
6
CONTINUOUS
62
0
100
AcDbLine
10
1524.923653000000
20
4418.624629243530
30
0.0
11
1524.923653000000
21
4391.965113243530
31
0.0
0
LINE
5
63c
100
AcDbEntity
8
0-1
6
CONTINUOUS
62
0
100
AcDbLine
10
1784.923653000000
20
4418.624629243530
30
0.0
11
1784.923653000000
21
4391.965113243530
31
0.0
0
TEXT
5
63d
100
AcDbEntity
8
0-1
62
0
100
AcDbText
10
1630.924
20
4395.265
30
0.0
40
32.000
1
260
41
1.000
50
0.000
100
AcDbText
0
LINE
5
63e
100
AcDbEntity
8
0-1
6
CONTINUOUS
62
0
100
AcDbLine
10
1784.923652787059
20
4391.965113432549
30
0.0
11
1524.923652787059
21
4391.965113432549
31
0.0
0
POINT
5
63f
100
AcDbEntity
8
0-1
62
0
100
AcDbPoint
10
1784.923652787059
20
4391.965113432549
30
0.0
0
POINT
5
640
100
AcDbEntity
8
0-1
62
0
100
AcDbPoint
10
1524.923652787059
20
4391.965113432549
30
0.0
0
LINE
5
641
100
AcDbEntity
8
0-1
6
CONTINUOUS
62
0
100
AcDbLine
10
1264.923653000000
20
4439.103795243530
30
0.0
11
1264.923653000000
21
4343.186955243530
31
0.0
0
LINE
5
642
100
AcDbEntity
8
0-1
6
CONTINUOUS
62
0
100
AcDbLine
10
1784.923653000000
20
4440.365903243530
30
0.0
11
1784.923653000000
21
4343.186955243530
31
0.0
0
TEXT
5
643
100
AcDbEntity
8
0-1
62
0
100
AcDbText
10
1500.924
20
4346.487
30
0.0
40
32.000
1
520
41
1.000
50
0.000
100
AcDbText
0
LINE
5
644
100
AcDbEntity
8
0-1
6
CONTINUOUS
62
0
100
AcDbLine
10
1784.923652787059
20
4343.186955259720
30
0.0
11
1264.923652787059
21
4343.186955259720
31
0.0
0
POINT
5
645
100
AcDbEntity
8
0-1
62
0
100
AcDbPoint
10
1784.923652787059
20
4343.186955259720
30
0.0
0
POINT
5
646
100
AcDbEntity
8
0-1
62
0
100
AcDbPoint
10
1264.923652787059
20
4343.186955259720
30
0.0
0
LINE
5
647
100
AcDbEntity
8
1-1
6
CENTER2
62
16
100
AcDbLine
10
1537.273758000000
20
2503.626722243530
30
0.0
11
1537.273758000000
21
2119.868005243530
31
0.0
0
LINE
5
648
100
AcDbEntity
8
0-1
6
CONTINUOUS
62
0
100
AcDbLine
10
1666.315575000000
20
2370.824391243530
30
0.0
11
1656.878339000000
21
2370.824391243530
31
0.0
0
LINE
5
649
100
AcDbEntity
8
0-1
6
CONTINUOUS
62
0
100
AcDbLine
10
1557.309132000000
20
2430.824391243530
30
0.0
11
1656.878339000000
21
2430.824391243530
31
0.0
0
LINE
5
64a
100
AcDbEntity
8
0-1
6
CONTINUOUS
62
0
100
AcDbLine
10
1656.878339000000
20
2345.824391243530
30
0.0
11
1656.878339000000
21
2320.824391243530
31
0.0
0
LINE
5
64b
100
AcDbEntity
8
0-1
6
CONTINUOUS
62
0
100
AcDbLine
10
1656.878339000000
20
2455.824391243530
30
0.0
11
1656.878339000000
21
2480.824391243530
31
0.0
0
LINE
5
64c
100
AcDbEntity
8
0-1
6
CONTINUOUS
62
0
100
AcDbLine
10
1656.878339000000
20
2370.824391243530
30
0.0
11
1656.878339000000
21
2430.824391243530
31
0.0
0
LINE
5
64d
100
AcDbEntity
8
0-1
6
BYLAYER
62
0
100
AcDbLine
10
1650.179613529764
20
2345.824391330438
30
0.0
11
1656.878338529636
21
2370.824391330472
31
0.0
0
LINE
5
64e
100
AcDbEntity
8
0-1
6
BYLAYER
62
0
100
AcDbLine
10
1656.878338529636
20
2370.824391330472
30
0.0
11
1663.577063529764
21
2345.824391330506
31
0.0
0
LINE
5
64f
100
AcDbEntity
8
0-1
6
BYLAYER
62
0
100
AcDbLine
10
1656.878338529636
20
2370.824391330472
30
0.0
11
1656.878338529764
21
2345.824391330472
31
0.0
0
LINE
5
650
100
AcDbEntity
8
0-1
6
BYLAYER
62
0
100
AcDbLine
10
1663.577063529253
20
2455.824391330575
30
0.0
11
1656.878338529636
21
2430.824391330472
31
0.0
0
LINE
5
651
100
AcDbEntity
8
0-1
6
BYLAYER
62
0
100
AcDbLine
10
1656.878338529636
20
2430.824391330472
30
0.0
11
1650.179613529253
21
2455.824391330369
31
0.0
0
LINE
5
652
100
AcDbEntity
8
0-1
6
BYLAYER
62
0
100
AcDbLine
10
1656.878338529636
20
2430.824391330472
30
0.0
11
1656.878338529253
21
2455.824391330472
31
0.0
0
TEXT
5
653
100
AcDbEntity
8
0-1
62
0
100
AcDbText
10
1653.578
20
2384.824
30
0.0
40
32.000
1
60
41
1.000
50
90.000
100
AcDbText
0
LINE
5
654
100
AcDbEntity
8
1-1
6
CENTER2
62
16
100
AcDbLine
10
1846.617626000000
20
2370.824391243530
30
0.0
11
1228.000638000000
21
2370.824391243530
31
0.0
0
CIRCLE
5
655
100
AcDbEntity
8
7-0
6
DASHED2
62
3
100
AcDbCircle
10
1537.273758000000
20
2370.824391243530
30
0.0
40
35.000000000000
0
CIRCLE
5
656
100
AcDbEntity
8
7-0
6
DASHED2
62
3
100
AcDbCircle
10
1537.273758000000
20
2370.824391243530
30
0.0
40
23.000000000000
0
LINE
5
657
100
AcDbEntity
8
0-1
6
CONTINUOUS
62
0
100
AcDbLine
10
1272.309132000000
20
2315.764122243530
30
0.0
11
1272.309132000000
21
2027.578016243530
31
0.0
0
LINE
5
658
100
AcDbEntity
8
0-1
6
CONTINUOUS
62
0
100
AcDbLine
10
1802.298736000000
20
2317.371371243530
30
0.0
11
1802.298736000000
21
2027.578016243530
31
0.0
0
TEXT
5
659
100
AcDbEntity
8
0-1
62
0
100
AcDbText
10
1513.304
20
2030.878
30
0.0
40
32.000
1
530
41
1.000
50
0.000
100
AcDbText
0
LINE
5
65a
100
AcDbEntity
8
0-1
6
CONTINUOUS
62
0
100
AcDbLine
10
1802.298735902748
20
2027.578015800232
30
0.0
11
1272.309131967650
21
2027.578015800232
31
0.0
0
POINT
5
65b
100
AcDbEntity
8
0-1
62
0
100
AcDbPoint
10
1802.298735902748
20
2027.578015800232
30
0.0
0
POINT
5
65c
100
AcDbEntity
8
0-1
62
0
100
AcDbPoint
10
1272.309131967650
20
2027.578015800232
30
0.0
0
LINE
5
65d
100
AcDbEntity
8
0-1
6
CONTINUOUS
62
0
100
AcDbLine
10
1666.315575000000
20
2370.824391243530
30
0.0
11
1656.878339000000
21
2370.824391243530
31
0.0
0
LINE
5
65e
100
AcDbEntity
8
0-1
6
CONTINUOUS
62
0
100
AcDbLine
10
1557.309132000000
20
2160.824391243530
30
0.0
11
1656.878339000000
21
2160.824391243530
31
0.0
0
TEXT
5
65f
100
AcDbEntity
8
0-1
62
0
100
AcDbText
10
1653.578
20
2241.824
30
0.0
40
32.000
1
210
41
1.000
50
90.000
100
AcDbText
0
LINE
5
660
100
AcDbEntity
8
0-1
6
CONTINUOUS
62
0
100
AcDbLine
10
1656.878338529636
20
2160.824391330472
30
0.0
11
1656.878338529636
21
2370.824391330472
31
0.0
0
POINT
5
661
100
AcDbEntity
8
0-1
62
0
100
AcDbPoint
10
1656.878338529636
20
2160.824391330472
30
0.0
0
POINT
5
662
100
AcDbEntity
8
0-1
62
0
100
AcDbPoint
10
1656.878338529636
20
2370.824391330472
30
0.0
0
LINE
5
663
100
AcDbEntity
8
0-1
6
CONTINUOUS
62
0
100
AcDbLine
10
1557.309132000000
20
2430.824391243530
30
0.0
11
1704.545199000000
21
2430.824391243530
31
0.0
0
LINE
5
664
100
AcDbEntity
8
0-1
6
CONTINUOUS
62
0
100
AcDbLine
10
1627.076048000000
20
2160.824391243530
30
0.0
11
1704.545199000000
21
2160.824391243530
31
0.0
0
TEXT
5
665
100
AcDbEntity
8
0-1
62
0
100
AcDbText
10
1701.245
20
2271.824
30
0.0
40
32.000
1
270
41
1.000
50
90.000
100
AcDbText
0
LINE
5
666
100
AcDbEntity
8
0-1
6
CONTINUOUS
62
0
100
AcDbLine
10
1704.545198751098
20
2160.824391330472
30
0.0
11
1704.545198751098
21
2430.824391330472
31
0.0
0
POINT
5
667
100
AcDbEntity
8
0-1
62
0
100
AcDbPoint
10
1704.545198751098
20
2160.824391330472
30
0.0
0
POINT
5
668
100
AcDbEntity
8
0-1
62
0
100
AcDbPoint
10
1704.545198751098
20
2430.824391330472
30
0.0
0
LINE
5
669
100
AcDbEntity
8
0-1
6
CONTINUOUS
62
0
100
AcDbLine
10
1272.309132000000
20
2315.764122243530
30
0.0
11
1272.309132000000
21
2075.376302243530
31
0.0
0
LINE
5
66a
100
AcDbEntity
8
0-1
6
CONTINUOUS
62
0
100
AcDbLine
10
1537.273758000000
20
2099.868005243530
30
0.0
11
1537.273758000000
21
2075.376302243530
31
0.0
0
TEXT
5
66b
100
AcDbEntity
8
0-1
62
0
100
AcDbText
10
1380.791
20
2078.676
30
0.0
40
32.000
1
265
41
1.000
50
0.000
100
AcDbText
0
LINE
5
66c
100
AcDbEntity
8
0-1
6
CONTINUOUS
62
0
100
AcDbLine
10
1537.273757874867
20
2075.376302211438
30
0.0
11
1272.309131967650
21
2075.376302211438
31
0.0
0
POINT
5
66d
100
AcDbEntity
8
0-1
62
0
100
AcDbPoint
10
1537.273757874867
20
2075.376302211438
30
0.0
0
POINT
5
66e
100
AcDbEntity
8
0-1
62
0
100
AcDbPoint
10
1272.309131967650
20
2075.376302211438
30
0.0
0
LINE
5
66f
100
AcDbEntity
8
0-1
6
CONTINUOUS
62
0
100
AcDbLine
10
1537.273758000000
20
2099.868005243530
30
0.0
11
1537.273758000000
21
2075.376302243530
31
0.0
0
LINE
5
670
100
AcDbEntity
8
0-1
6
CONTINUOUS
62
0
100
AcDbLine
10
1802.298736000000
20
2317.371371243530
30
0.0
11
1802.298736000000
21
2075.376302243530
31
0.0
0
TEXT
5
671
100
AcDbEntity
8
0-1
62
0
100
AcDbText
10
1645.786
20
2078.676
30
0.0
40
32.000
1
265
41
1.000
50
0.000
100
AcDbText
0
LINE
5
672
100
AcDbEntity
8
0-1
6
CONTINUOUS
62
0
100
AcDbLine
10
1802.298735902748
20
2075.376302211438
30
0.0
11
1537.273757874867
21
2075.376302211438
31
0.0
0
POINT
5
673
100
AcDbEntity
8
0-1
62
0
100
AcDbPoint
10
1802.298735902748
20
2075.376302211438
30
0.0
0
POINT
5
674
100
AcDbEntity
8
0-1
62
0
100
AcDbPoint
10
1537.273757874867
20
2075.376302211438
30
0.0
0
LINE
5
675
100
AcDbEntity
8
0-1
6
CONTINUOUS
62
0
100
AcDbLine
10
1697.910921000000
20
2460.716144243530
30
0.0
11
1764.152911000000
21
2460.716144243530
31
0.0
0
LINE
5
676
100
AcDbEntity
8
0-1
6
CONTINUOUS
62
0
100
AcDbLine
10
1557.309132000000
20
2160.824391243530
30
0.0
11
1764.152911000000
21
2160.824391243530
31
0.0
0
TEXT
5
677
100
AcDbEntity
8
0-1
62
0
100
AcDbText
10
1760.853
20
2286.770
30
0.0
40
32.000
1
300
41
1.000
50
90.000
100
AcDbText
0
LINE
5
678
100
AcDbEntity
8
0-1
6
CONTINUOUS
62
0
100
AcDbLine
10
1764.152910971313
20
2160.824391330472
30
0.0
11
1764.152910971313
21
2460.716143874657
31
0.0
0
POINT
5
679
100
AcDbEntity
8
0-1
62
0
100
AcDbPoint
10
1764.152910971313
20
2160.824391330472
30
0.0
0
POINT
5
67a
100
AcDbEntity
8
0-1
62
0
100
AcDbPoint
10
1764.152910971313
20
2460.716143874657
30
0.0
0
ARC
5
67b
100
AcDbEntity
8
4-0
6
CONTINUOUS
62
5
100
AcDbCircle
10
1396.556037000000
20
2335.764122243530
30
0.0
40
124.246905000000
100
AcDbArc
50
106.094000000000
51
230.387000000000
0
ARC
5
67c
100
AcDbEntity
8
4-0
6
CONTINUOUS
62
5
100
AcDbCircle
10
1537.309132000000
20
2505.824391243530
30
0.0
40
345.000000000000
100
AcDbArc
50
230.387000000000
51
309.613000000000
0
ARC
5
67d
100
AcDbEntity
8
4-0
6
CONTINUOUS
62
5
100
AcDbCircle
10
1678.062227000000
20
2335.764122243530
30
0.0
40
124.246905000000
100
AcDbArc
50
309.613000000000
51
73.906000000000
0
ARC
5
67e
100
AcDbEntity
8
4-0
6
CONTINUOUS
62
5
100
AcDbCircle
10
1672.309132000000
20
2315.824391243530
30
0.0
40
145.000000000000
100
AcDbArc
50
73.906000000000
51
116.721000000000
0
ARC
5
67f
100
AcDbEntity
8
4-0
6
CONTINUOUS
62
5
100
AcDbCircle
10
1537.309132000000
20
2605.824391243530
30
0.0
40
175.000000000000
100
AcDbArc
50
246.405000000000
51
293.595000000000
0
ARC
5
680
100
AcDbEntity
8
4-0
6
CONTINUOUS
62
5
100
AcDbCircle
10
1402.309132000000
20
2315.824391243530
30
0.0
40
145.000000000000
100
AcDbArc
50
63.279000000000
51
106.094000000000
0
LINE
5
681
100
AcDbEntity
8
F-0
6
CONTINUOUS
62
6
100
AcDbLine
10
2012.232782000000
20
2870.824390243531
30
0.0
11
2012.232782000000
21
99.175608243530
31
0.0
0
LINE
5
682
100
AcDbEntity
8
F-0
6
CONTINUOUS
62
6
100
AcDbLine
10
87.767213000000
20
99.175608243530
30
0.0
11
87.767213000000
21
2870.824390243531
31
0.0
0
LINE
5
683
100
AcDbEntity
8
F-0
6
CONTINUOUS
62
6
100
AcDbLine
10
87.767213000000
20
2870.824390243531
30
0.0
11
2012.232782000000
21
2870.824390243531
31
0.0
0
LINE
5
684
100
AcDbEntity
8
F-0
6
CONTINUOUS
62
6
100
AcDbLine
10
2012.232782000000
20
99.175608243530
30
0.0
11
87.767213000000
21
99.175608243530
31
0.0
0
LINE
5
685
100
AcDbEntity
8
F-0
6
CONTINUOUS
62
6
100
AcDbLine
10
1362.232782000000
20
279.175608243530
30
0.0
11
1362.232782000000
21
99.175608243530
31
0.0
0
LINE
5
686
100
AcDbEntity
8
F-0
6
CONTINUOUS
62
6
100
AcDbLine
10
2012.232782000000
20
279.175608243530
30
0.0
11
87.767213000000
21
279.175608243530
31
0.0
0
LINE
5
687
100
AcDbEntity
8
E-0
6
CONTINUOUS
62
6
100
AcDbLine
10
204.111624000000
20
133.984896243530
30
0.0
11
246.150122000000
21
133.984896243530
31
0.0
0
LINE
5
688
100
AcDbEntity
8
E-0
6
CONTINUOUS
62
6
100
AcDbLine
10
246.150122000000
20
133.984896243530
30
0.0
11
246.150122000000
21
176.082589243530
31
0.0
0
LINE
5
689
100
AcDbEntity
8
E-0
6
CONTINUOUS
62
6
100
AcDbLine
10
204.111624000000
20
176.082589243530
30
0.0
11
204.111624000000
21
133.984896243530
31
0.0
0
LINE
5
68a
100
AcDbEntity
8
E-0
6
CONTINUOUS
62
6
100
AcDbLine
10
246.150122000000
20
176.082589243530
30
0.0
11
204.111624000000
21
176.082589243530
31
0.0
0
LINE
5
68b
100
AcDbEntity
8
E-0
6
CONTINUOUS
62
6
100
AcDbLine
10
250.913344000000
20
189.810506243530
30
0.0
11
272.413344000000
21
227.049599243530
31
0.0
0
LINE
5
68c
100
AcDbEntity
8
E-0
6
CONTINUOUS
62
6
100
AcDbLine
10
250.913344000000
20
189.810506243530
30
0.0
11
293.913344000000
21
189.810506243530
31
0.0
0
LINE
5
68d
100
AcDbEntity
8
E-0
6
CONTINUOUS
62
6
100
AcDbLine
10
272.413344000000
20
227.049599243530
30
0.0
11
293.913344000000
21
189.810506243530
31
0.0
0
CIRCLE
5
68e
100
AcDbEntity
8
E-0
6
CONTINUOUS
62
6
100
AcDbCircle
10
306.241038000000
20
235.007298243530
30
0.0
40
14.758716000000
0
LINE
5
68f
100
AcDbEntity
8
E-0
6
CONTINUOUS
62
6
100
AcDbLine
10
335.908997000000
20
155.949898243530
30
0.0
11
354.031647000000
21
155.949898243530
31
0.0
0
LINE
5
690
100
AcDbEntity
8
E-0
6
CONTINUOUS
62
6
100
AcDbLine
10
358.694723000000
20
145.949898243530
30
0.0
11
364.756723000000
21
132.949898243530
31
0.0
0
LINE
5
691
100
AcDbEntity
8
E-0
6
CONTINUOUS
62
6
100
AcDbLine
10
331.245921000000
20
145.949898243530
30
0.0
11
325.183921000000
21
132.949898243530
31
0.0
0
LINE
5
692
100
AcDbEntity
8
E-0
6
CONTINUOUS
62
6
100
AcDbLine
10
344.970322000000
20
175.381972243530
30
0.0
11
354.031647000000
21
155.949898243530
31
0.0
0
LINE
5
693
100
AcDbEntity
8
E-0
6
CONTINUOUS
62
6
100
AcDbLine
10
344.970322000000
20
175.381972243530
30
0.0
11
335.908997000000
21
155.949898243530
31
0.0
0
LINE
5
694
100
AcDbEntity
8
E-0
6
CONTINUOUS
62
6
100
AcDbLine
10
339.020524000000
20
190.501179243530
30
0.0
11
312.183921000000
21
132.949898243530
31
0.0
0
LINE
5
695
100
AcDbEntity
8
E-0
6
CONTINUOUS
62
6
100
AcDbLine
10
417.449252000000
20
180.501179243530
30
0.0
11
418.197392000000
21
180.090611243530
31
0.0
0
LINE
5
696
100
AcDbEntity
8
E-0
6
CONTINUOUS
62
6
100
AcDbLine
10
418.197392000000
20
180.090611243530
30
0.0
11
419.473356000000
21
179.373316243530
31
0.0
0
LINE
5
697
100
AcDbEntity
8
E-0
6
CONTINUOUS
62
6
100
AcDbLine
10
419.473356000000
20
179.373316243530
30
0.0
11
420.710620000000
21
178.629853243530
31
0.0
0
LINE
5
698
100
AcDbEntity
8
E-0
6
CONTINUOUS
62
6
100
AcDbLine
10
420.710620000000
20
178.629853243530
30
0.0
11
421.884690000000
21
177.843660243530
31
0.0
0
LINE
5
699
100
AcDbEntity
8
E-0
6
CONTINUOUS
62
6
100
AcDbLine
10
421.884690000000
20
177.843660243530
30
0.0
11
422.971071000000
21
176.998175243530
31
0.0
0
LINE
5
69a
100
AcDbEntity
8
E-0
6
CONTINUOUS
62
6
100
AcDbLine
10
422.971071000000
20
176.998175243530
30
0.0
11
423.945270000000
21
176.076837243530
31
0.0
0
LINE
5
69b
100
AcDbEntity
8
E-0
6
CONTINUOUS
62
6
100
AcDbLine
10
423.945270000000
20
176.076837243530
30
0.0
11
424.449252000000
21
175.501179243530
31
0.0
0
LINE
5
69c
100
AcDbEntity
8
E-0
6
CONTINUOUS
62
6
100
AcDbLine
10
424.449252000000
20
175.501179243530
30
0.0
11
425.168738000000
21
174.485833243530
31
0.0
0
LINE
5
69d
100
AcDbEntity
8
E-0
6
CONTINUOUS
62
6
100
AcDbLine
10
425.168738000000
20
174.485833243530
30
0.0
11
426.123294000000
21
172.544054243530
31
0.0
0
LINE
5
69e
100
AcDbEntity
8
E-0
6
CONTINUOUS
62
6
100
AcDbLine
10
426.123294000000
20
172.544054243530
30
0.0
11
426.767662000000
21
170.398527243530
31
0.0
0
LINE
5
69f
100
AcDbEntity
8
E-0
6
CONTINUOUS
62
6
100
AcDbLine
10
426.767662000000
20
170.398527243530
30
0.0
11
427.162026000000
21
168.093740243530
31
0.0
0
LINE
5
6a0
100
AcDbEntity
8
E-0
6
CONTINUOUS
62
6
100
AcDbLine
10
427.162026000000
20
168.093740243530
30
0.0
11
427.366572000000
21
165.674178243530
31
0.0
0
LINE
5
6a1
100
AcDbEntity
8
E-0
6
CONTINUOUS
62
6
100
AcDbLine
10
427.366572000000
20
165.674178243530
30
0.0
11
427.441485000000
21
163.184328243530
31
0.0
0
LINE
5
6a2
100
AcDbEntity
8
E-0
6
CONTINUOUS
62
6
100
AcDbLine
10
427.441485000000
20
163.184328243530
30
0.0
11
427.449252000000
21
161.725538243530
31
0.0
0
LINE
5
6a3
100
AcDbEntity
8
E-0
6
CONTINUOUS
62
6
100
AcDbLine
10
427.449252000000
20
161.725538243530
30
0.0
11
427.441485000000
21
160.266749243530
31
0.0
0
LINE
5
6a4
100
AcDbEntity
8
E-0
6
CONTINUOUS
62
6
100
AcDbLine
10
427.441485000000
20
160.266749243530
30
0.0
11
427.366572000000
21
157.776899243530
31
0.0
0
LINE
5
6a5
100
AcDbEntity
8
E-0
6
CONTINUOUS
62
6
100
AcDbLine
10
427.366572000000
20
157.776899243530
30
0.0
11
427.162026000000
21
155.357337243530
31
0.0
0
LINE
5
6a6
100
AcDbEntity
8
E-0
6
CONTINUOUS
62
6
100
AcDbLine
10
427.162026000000
20
155.357337243530
30
0.0
11
426.767662000000
21
153.052549243530
31
0.0
0
LINE
5
6a7
100
AcDbEntity
8
E-0
6
CONTINUOUS
62
6
100
AcDbLine
10
426.767662000000
20
153.052549243530
30
0.0
11
426.123294000000
21
150.907023243530
31
0.0
0
LINE
5
6a8
100
AcDbEntity
8
E-0
6
CONTINUOUS
62
6
100
AcDbLine
10
426.123294000000
20
150.907023243530
30
0.0
11
425.168738000000
21
148.965243243530
31
0.0
0
LINE
5
6a9
100
AcDbEntity
8
E-0
6
CONTINUOUS
62
6
100
AcDbLine
10
425.168738000000
20
148.965243243530
30
0.0
11
424.449252000000
21
147.949898243530
31
0.0
0
LINE
5
6aa
100
AcDbEntity
8
E-0
6
CONTINUOUS
62
6
100
AcDbLine
10
424.449252000000
20
147.949898243530
30
0.0
11
423.945270000000
21
147.374240243530
31
0.0
0
LINE
5
6ab
100
AcDbEntity
8
E-0
6
CONTINUOUS
62
6
100
AcDbLine
10
423.945270000000
20
147.374240243530
30
0.0
11
422.971071000000
21
146.452901243530
31
0.0
0
LINE
5
6ac
100
AcDbEntity
8
E-0
6
CONTINUOUS
62
6
100
AcDbLine
10
422.971071000000
20
146.452901243530
30
0.0
11
421.884690000000
21
145.607417243530
31
0.0
0
LINE
5
6ad
100
AcDbEntity
8
E-0
6
CONTINUOUS
62
6
100
AcDbLine
10
421.884690000000
20
145.607417243530
30
0.0
11
420.710620000000
21
144.821224243530
31
0.0
0
LINE
5
6ae
100
AcDbEntity
8
E-0
6
CONTINUOUS
62
6
100
AcDbLine
10
420.710620000000
20
144.821224243530
30
0.0
11
419.473356000000
21
144.077761243530
31
0.0
0
LINE
5
6af
100
AcDbEntity
8
E-0
6
CONTINUOUS
62
6
100
AcDbLine
10
419.473356000000
20
144.077761243530
30
0.0
11
418.197392000000
21
143.360466243530
31
0.0
0
LINE
5
6b0
100
AcDbEntity
8
E-0
6
CONTINUOUS
62
6
100
AcDbLine
10
418.197392000000
20
143.360466243530
30
0.0
11
417.449252000000
21
142.949898243530
31
0.0
0
LINE
5
6b1
100
AcDbEntity
8
E-0
6
CONTINUOUS
62
6
100
AcDbLine
10
417.449252000000
20
132.949898243530
30
0.0
11
418.104139000000
21
133.119436243530
31
0.0
0
LINE
5
6b2
100
AcDbEntity
8
E-0
6
CONTINUOUS
62
6
100
AcDbLine
10
418.104139000000
20
133.119436243530
30
0.0
11
419.233913000000
21
133.414680243530
31
0.0
0
LINE
5
6b3
100
AcDbEntity
8
E-0
6
CONTINUOUS
62
6
100
AcDbLine
10
419.233913000000
20
133.414680243530
30
0.0
11
420.365513000000
21
133.718084243530
31
0.0
0
LINE
5
6b4
100
AcDbEntity
8
E-0
6
CONTINUOUS
62
6
100
AcDbLine
10
420.365513000000
20
133.718084243530
30
0.0
11
421.500097000000
21
134.034810243530
31
0.0
0
LINE
5
6b5
100
AcDbEntity
8
E-0
6
CONTINUOUS
62
6
100
AcDbLine
10
421.500097000000
20
134.034810243530
30
0.0
11
422.638820000000
21
134.370022243530
31
0.0
0
LINE
5
6b6
100
AcDbEntity
8
E-0
6
CONTINUOUS
62
6
100
AcDbLine
10
422.638820000000
20
134.370022243530
30
0.0
11
423.782839000000
21
134.728886243530
31
0.0
0
LINE
5
6b7
100
AcDbEntity
8
E-0
6
CONTINUOUS
62
6
100
AcDbLine
10
423.782839000000
20
134.728886243530
30
0.0
11
424.449252000000
21
134.949898243530
31
0.0
0
LINE
5
6b8
100
AcDbEntity
8
E-0
6
CONTINUOUS
62
6
100
AcDbLine
10
424.449252000000
20
134.949898243530
30
0.0
11
425.774294000000
21
135.419725243530
31
0.0
0
LINE
5
6b9
100
AcDbEntity
8
E-0
6
CONTINUOUS
62
6
100
AcDbLine
10
425.774294000000
20
135.419725243530
30
0.0
11
428.043320000000
21
136.341131243530
31
0.0
0
LINE
5
6ba
100
AcDbEntity
8
E-0
6
CONTINUOUS
62
6
100
AcDbLine
10
428.043320000000
20
136.341131243530
30
0.0
11
430.235819000000
21
137.422753243530
31
0.0
0
LINE
5
6bb
100
AcDbEntity
8
E-0
6
CONTINUOUS
62
6
100
AcDbLine
10
430.235819000000
20
137.422753243530
30
0.0
11
432.285666000000
21
138.686984243530
31
0.0
0
LINE
5
6bc
100
AcDbEntity
8
E-0
6
CONTINUOUS
62
6
100
AcDbLine
10
432.285666000000
20
138.686984243530
30
0.0
11
434.126733000000
21
140.156216243530
31
0.0
0
LINE
5
6bd
100
AcDbEntity
8
E-0
6
CONTINUOUS
62
6
100
AcDbLine
10
434.126733000000
20
140.156216243530
30
0.0
11
435.692896000000
21
141.852841243530
31
0.0
0
LINE
5
6be
100
AcDbEntity
8
E-0
6
CONTINUOUS
62
6
100
AcDbLine
10
435.692896000000
20
141.852841243530
30
0.0
11
436.449252000000
21
142.949898243530
31
0.0
0
LINE
5
6bf
100
AcDbEntity
8
E-0
6
CONTINUOUS
62
6
100
AcDbLine
10
436.449252000000
20
142.949898243530
30
0.0
11
436.699957000000
21
143.381744243530
31
0.0
0
LINE
5
6c0
100
AcDbEntity
8
E-0
6
CONTINUOUS
62
6
100
AcDbLine
10
436.699957000000
20
143.381744243530
30
0.0
11
437.094050000000
21
144.152065243530
31
0.0
0
LINE
5
6c1
100
AcDbEntity
8
E-0
6
CONTINUOUS
62
6
100
AcDbLine
10
437.094050000000
20
144.152065243530
30
0.0
11
437.445331000000
21
144.950178243530
31
0.0
0
LINE
5
6c2
100
AcDbEntity
8
E-0
6
CONTINUOUS
62
6
100
AcDbLine
10
437.445331000000
20
144.950178243530
30
0.0
11
437.760182000000
21
145.770484243530
31
0.0
0
LINE
5
6c3
100
AcDbEntity
8
E-0
6
CONTINUOUS
62
6
100
AcDbLine
10
437.760182000000
20
145.770484243530
30
0.0
11
438.044985000000
21
146.607385243530
31
0.0
0
LINE
5
6c4
100
AcDbEntity
8
E-0
6
CONTINUOUS
62
6
100
AcDbLine
10
438.044985000000
20
146.607385243530
30
0.0
11
438.306122000000
21
147.455284243530
31
0.0
0
LINE
5
6c5
100
AcDbEntity
8
E-0
6
CONTINUOUS
62
6
100
AcDbLine
10
438.306122000000
20
147.455284243530
30
0.0
11
438.449252000000
21
147.949898243530
31
0.0
0
LINE
5
6c6
100
AcDbEntity
8
E-0
6
CONTINUOUS
62
6
100
AcDbLine
10
438.449252000000
20
147.949898243530
30
0.0
11
438.797403000000
21
149.232171243530
31
0.0
0
LINE
5
6c7
100
AcDbEntity
8
E-0
6
CONTINUOUS
62
6
100
AcDbLine
10
438.797403000000
20
149.232171243530
30
0.0
11
439.323935000000
21
151.453020243530
31
0.0
0
LINE
5
6c8
100
AcDbEntity
8
E-0
6
CONTINUOUS
62
6
100
AcDbLine
10
439.323935000000
20
151.453020243530
30
0.0
11
439.754070000000
21
153.684562243530
31
0.0
0
LINE
5
6c9
100
AcDbEntity
8
E-0
6
CONTINUOUS
62
6
100
AcDbLine
10
439.754070000000
20
153.684562243530
30
0.0
11
440.084239000000
21
155.924461243530
31
0.0
0
LINE
5
6ca
100
AcDbEntity
8
E-0
6
CONTINUOUS
62
6
100
AcDbLine
10
440.084239000000
20
155.924461243530
30
0.0
11
440.310874000000
21
158.170383243530
31
0.0
0
LINE
5
6cb
100
AcDbEntity
8
E-0
6
CONTINUOUS
62
6
100
AcDbLine
10
440.310874000000
20
158.170383243530
30
0.0
11
440.430405000000
21
160.419994243530
31
0.0
0
LINE
5
6cc
100
AcDbEntity
8
E-0
6
CONTINUOUS
62
6
100
AcDbLine
10
440.430405000000
20
160.419994243530
30
0.0
11
440.449252000000
21
161.725538243530
31
0.0
0
LINE
5
6cd
100
AcDbEntity
8
E-0
6
CONTINUOUS
62
6
100
AcDbLine
10
440.449252000000
20
161.725538243530
30
0.0
11
440.430405000000
21
163.031083243530
31
0.0
0
LINE
5
6ce
100
AcDbEntity
8
E-0
6
CONTINUOUS
62
6
100
AcDbLine
10
440.430405000000
20
163.031083243530
30
0.0
11
440.310874000000
21
165.280694243530
31
0.0
0
LINE
5
6cf
100
AcDbEntity
8
E-0
6
CONTINUOUS
62
6
100
AcDbLine
10
440.310874000000
20
165.280694243530
30
0.0
11
440.084239000000
21
167.526616243530
31
0.0
0
LINE
5
6d0
100
AcDbEntity
8
E-0
6
CONTINUOUS
62
6
100
AcDbLine
10
440.084239000000
20
167.526616243530
30
0.0
11
439.754070000000
21
169.766515243530
31
0.0
0
LINE
5
6d1
100
AcDbEntity
8
E-0
6
CONTINUOUS
62
6
100
AcDbLine
10
439.754070000000
20
169.766515243530
30
0.0
11
439.323935000000
21
171.998056243530
31
0.0
0
LINE
5
6d2
100
AcDbEntity
8
E-0
6
CONTINUOUS
62
6
100
AcDbLine
10
439.323935000000
20
171.998056243530
30
0.0
11
438.797403000000
21
174.218905243530
31
0.0
0
LINE
5
6d3
100
AcDbEntity
8
E-0
6
CONTINUOUS
62
6
100
AcDbLine
10
438.797403000000
20
174.218905243530
30
0.0
11
438.449252000000
21
175.501179243530
31
0.0
0
LINE
5
6d4
100
AcDbEntity
8
E-0
6
CONTINUOUS
62
6
100
AcDbLine
10
438.449252000000
20
175.501179243530
30
0.0
11
438.306122000000
21
175.995793243530
31
0.0
0
LINE
5
6d5
100
AcDbEntity
8
E-0
6
CONTINUOUS
62
6
100
AcDbLine
10
438.306122000000
20
175.995793243530
30
0.0
11
438.044985000000
21
176.843691243530
31
0.0
0
LINE
5
6d6
100
AcDbEntity
8
E-0
6
CONTINUOUS
62
6
100
AcDbLine
10
438.044985000000
20
176.843691243530
30
0.0
11
437.760182000000
21
177.680593243530
31
0.0
0
LINE
5
6d7
100
AcDbEntity
8
E-0
6
CONTINUOUS
62
6
100
AcDbLine
10
437.760182000000
20
177.680593243530
30
0.0
11
437.445331000000
21
178.500899243530
31
0.0
0
LINE
5
6d8
100
AcDbEntity
8
E-0
6
CONTINUOUS
62
6
100
AcDbLine
10
437.445331000000
20
178.500899243530
30
0.0
11
437.094050000000
21
179.299011243530
31
0.0
0
LINE
5
6d9
100
AcDbEntity
8
E-0
6
CONTINUOUS
62
6
100
AcDbLine
10
437.094050000000
20
179.299011243530
30
0.0
11
436.699957000000
21
180.069332243530
31
0.0
0
LINE
5
6da
100
AcDbEntity
8
E-0
6
CONTINUOUS
62
6
100
AcDbLine
10
436.699957000000
20
180.069332243530
30
0.0
11
436.449252000000
21
180.501179243530
31
0.0
0
LINE
5
6db
100
AcDbEntity
8
E-0
6
CONTINUOUS
62
6
100
AcDbLine
10
436.449252000000
20
180.501179243530
30
0.0
11
435.692896000000
21
181.598236243530
31
0.0
0
LINE
5
6dc
100
AcDbEntity
8
E-0
6
CONTINUOUS
62
6
100
AcDbLine
10
435.692896000000
20
181.598236243530
30
0.0
11
434.126733000000
21
183.294860243530
31
0.0
0
LINE
5
6dd
100
AcDbEntity
8
E-0
6
CONTINUOUS
62
6
100
AcDbLine
10
434.126733000000
20
183.294860243530
30
0.0
11
432.285666000000
21
184.764092243530
31
0.0
0
LINE
5
6de
100
AcDbEntity
8
E-0
6
CONTINUOUS
62
6
100
AcDbLine
10
432.285666000000
20
184.764092243530
30
0.0
11
430.235819000000
21
186.028323243530
31
0.0
0
LINE
5
6df
100
AcDbEntity
8
E-0
6
CONTINUOUS
62
6
100
AcDbLine
10
430.235819000000
20
186.028323243530
30
0.0
11
428.043320000000
21
187.109946243530
31
0.0
0
LINE
5
6e0
100
AcDbEntity
8
E-0
6
CONTINUOUS
62
6
100
AcDbLine
10
428.043320000000
20
187.109946243530
30
0.0
11
425.774294000000
21
188.031351243530
31
0.0
0
LINE
5
6e1
100
AcDbEntity
8
E-0
6
CONTINUOUS
62
6
100
AcDbLine
10
425.774294000000
20
188.031351243530
30
0.0
11
424.449252000000
21
188.501179243530
31
0.0
0
LINE
5
6e2
100
AcDbEntity
8
E-0
6
CONTINUOUS
62
6
100
AcDbLine
10
424.449252000000
20
188.501179243530
30
0.0
11
423.782839000000
21
188.722191243530
31
0.0
0
LINE
5
6e3
100
AcDbEntity
8
E-0
6
CONTINUOUS
62
6
100
AcDbLine
10
423.782839000000
20
188.722191243530
30
0.0
11
422.638820000000
21
189.081054243530
31
0.0
0
LINE
5
6e4
100
AcDbEntity
8
E-0
6
CONTINUOUS
62
6
100
AcDbLine
10
422.638820000000
20
189.081054243530
30
0.0
11
421.500097000000
21
189.416267243530
31
0.0
0
LINE
5
6e5
100
AcDbEntity
8
E-0
6
CONTINUOUS
62
6
100
AcDbLine
10
421.500097000000
20
189.416267243530
30
0.0
11
420.365513000000
21
189.732993243530
31
0.0
0
LINE
5
6e6
100
AcDbEntity
8
E-0
6
CONTINUOUS
62
6
100
AcDbLine
10
420.365513000000
20
189.732993243530
30
0.0
11
419.233913000000
21
190.036396243530
31
0.0
0
LINE
5
6e7
100
AcDbEntity
8
E-0
6
CONTINUOUS
62
6
100
AcDbLine
10
419.233913000000
20
190.036396243530
30
0.0
11
418.104139000000
21
190.331641243530
31
0.0
0
LINE
5
6e8
100
AcDbEntity
8
E-0
6
CONTINUOUS
62
6
100
AcDbLine
10
418.104139000000
20
190.331641243530
30
0.0
11
417.449252000000
21
190.501179243530
31
0.0
0
LINE
5
6e9
100
AcDbEntity
8
E-0
6
CONTINUOUS
62
6
100
AcDbLine
10
453.449252000000
20
190.501179243530
30
0.0
11
473.785855000000
21
146.889193243530
31
0.0
0
LINE
5
6ea
100
AcDbEntity
8
E-0
6
CONTINUOUS
62
6
100
AcDbLine
10
494.122457000000
20
190.501179243530
30
0.0
11
473.785855000000
21
146.889193243530
31
0.0
0
LINE
5
6eb
100
AcDbEntity
8
E-0
6
CONTINUOUS
62
6
100
AcDbLine
10
440.449252000000
20
190.501179243530
30
0.0
11
467.285855000000
21
132.949898243530
31
0.0
0
LINE
5
6ec
100
AcDbEntity
8
E-0
6
CONTINUOUS
62
6
100
AcDbLine
10
480.285855000000
20
132.949898243530
30
0.0
11
507.122457000000
21
190.501179243530
31
0.0
0
LINE
5
6ed
100
AcDbEntity
8
E-0
6
CONTINUOUS
62
6
100
AcDbLine
10
517.122457000000
20
190.501179243530
30
0.0
11
490.285855000000
21
132.949898243530
31
0.0
0
LINE
5
6ee
100
AcDbEntity
8
E-0
6
CONTINUOUS
62
6
100
AcDbLine
10
530.476797000000
20
190.501179243530
30
0.0
11
557.313400000000
21
132.949898243530
31
0.0
0
LINE
5
6ef
100
AcDbEntity
8
E-0
6
CONTINUOUS
62
6
100
AcDbLine
10
331.245921000000
20
145.949898243530
30
0.0
11
358.694723000000
21
145.949898243530
31
0.0
0
LINE
5
6f0
100
AcDbEntity
8
E-0
6
CONTINUOUS
62
6
100
AcDbLine
10
509.347854000000
20
145.949898243530
30
0.0
11
538.251400000000
21
145.949898243530
31
0.0
0
LINE
5
6f1
100
AcDbEntity
8
E-0
6
CONTINUOUS
62
6
100
AcDbLine
10
514.010931000000
20
155.949898243530
30
0.0
11
533.588324000000
21
155.949898243530
31
0.0
0
LINE
5
6f2
100
AcDbEntity
8
E-0
6
CONTINUOUS
62
6
100
AcDbLine
10
576.078884000000
20
180.501179243530
30
0.0
11
605.792222000000
21
132.949898243530
31
0.0
0
LINE
5
6f3
100
AcDbEntity
8
E-0
6
CONTINUOUS
62
6
100
AcDbLine
10
611.866478000000
20
143.986936243530
30
0.0
11
611.866478000000
21
190.501179243530
31
0.0
0
LINE
5
6f4
100
AcDbEntity
8
E-0
6
CONTINUOUS
62
6
100
AcDbLine
10
622.866478000000
20
132.949898243530
30
0.0
11
622.866478000000
21
190.501179243530
31
0.0
0
LINE
5
6f5
100
AcDbEntity
8
E-0
6
CONTINUOUS
62
6
100
AcDbLine
10
582.801153000000
20
190.501179243530
30
0.0
11
611.866478000000
21
143.986936243530
31
0.0
0
LINE
5
6f6
100
AcDbEntity
8
E-0
6
CONTINUOUS
62
6
100
AcDbLine
10
563.078884000000
20
190.501179243530
30
0.0
11
563.078884000000
21
132.949898243530
31
0.0
0
LINE
5
6f7
100
AcDbEntity
8
E-0
6
CONTINUOUS
62
6
100
AcDbLine
10
417.449252000000
20
180.501179243530
30
0.0
11
397.449252000000
21
180.501179243530
31
0.0
0
LINE
5
6f8
100
AcDbEntity
8
E-0
6
CONTINUOUS
62
6
100
AcDbLine
10
397.449252000000
20
142.949898243530
30
0.0
11
417.449252000000
21
142.949898243530
31
0.0
0
LINE
5
6f9
100
AcDbEntity
8
E-0
6
CONTINUOUS
62
6
100
AcDbLine
10
533.588324000000
20
155.949898243530
30
0.0
11
523.799627000000
21
176.941825243530
31
0.0
0
LINE
5
6fa
100
AcDbEntity
8
E-0
6
CONTINUOUS
62
6
100
AcDbLine
10
514.010931000000
20
155.949898243530
30
0.0
11
523.799627000000
21
176.941825243530
31
0.0
0
LINE
5
6fb
100
AcDbEntity
8
E-0
6
CONTINUOUS
62
6
100
AcDbLine
10
503.285855000000
20
132.949898243530
30
0.0
11
509.347854000000
21
145.949898243530
31
0.0
0
LINE
5
6fc
100
AcDbEntity
8
E-0
6
CONTINUOUS
62
6
100
AcDbLine
10
544.313400000000
20
132.949898243530
30
0.0
11
538.251400000000
21
145.949898243530
31
0.0
0
LINE
5
6fd
100
AcDbEntity
8
E-0
6
CONTINUOUS
62
6
100
AcDbLine
10
576.078884000000
20
180.501179243530
30
0.0
11
576.078884000000
21
132.949898243530
31
0.0
0
LINE
5
6fe
100
AcDbEntity
8
E-0
6
CONTINUOUS
62
6
100
AcDbLine
10
312.183921000000
20
132.949898243530
30
0.0
11
325.183921000000
21
132.949898243530
31
0.0
0
LINE
5
6ff
100
AcDbEntity
8
E-0
6
CONTINUOUS
62
6
100
AcDbLine
10
364.756723000000
20
132.949898243530
30
0.0
11
377.756723000000
21
132.949898243530
31
0.0
0
LINE
5
700
100
AcDbEntity
8
E-0
6
CONTINUOUS
62
6
100
AcDbLine
10
350.920120000000
20
190.501179243530
30
0.0
11
377.756723000000
21
132.949898243530
31
0.0
0
LINE
5
701
100
AcDbEntity
8
E-0
6
CONTINUOUS
62
6
100
AcDbLine
10
350.920120000000
20
190.501179243530
30
0.0
11
339.020524000000
21
190.501179243530
31
0.0
0
LINE
5
702
100
AcDbEntity
8
E-0
6
CONTINUOUS
62
6
100
AcDbLine
10
384.449252000000
20
190.501179243530
30
0.0
11
384.449252000000
21
132.949898243530
31
0.0
0
LINE
5
703
100
AcDbEntity
8
E-0
6
CONTINUOUS
62
6
100
AcDbLine
10
397.449252000000
20
180.501179243530
30
0.0
11
397.449252000000
21
142.949898243530
31
0.0
0
LINE
5
704
100
AcDbEntity
8
E-0
6
CONTINUOUS
62
6
100
AcDbLine
10
384.449252000000
20
132.949898243530
30
0.0
11
417.449252000000
21
132.949898243530
31
0.0
0
LINE
5
705
100
AcDbEntity
8
E-0
6
CONTINUOUS
62
6
100
AcDbLine
10
417.449252000000
20
190.501179243530
30
0.0
11
384.449252000000
21
190.501179243530
31
0.0
0
LINE
5
706
100
AcDbEntity
8
E-0
6
CONTINUOUS
62
6
100
AcDbLine
10
453.449252000000
20
190.501179243530
30
0.0
11
440.449252000000
21
190.501179243530
31
0.0
0
LINE
5
707
100
AcDbEntity
8
E-0
6
CONTINUOUS
62
6
100
AcDbLine
10
467.285855000000
20
132.949898243530
30
0.0
11
480.285855000000
21
132.949898243530
31
0.0
0
LINE
5
708
100
AcDbEntity
8
E-0
6
CONTINUOUS
62
6
100
AcDbLine
10
507.122457000000
20
190.501179243530
30
0.0
11
494.122457000000
21
190.501179243530
31
0.0
0
LINE
5
709
100
AcDbEntity
8
E-0
6
CONTINUOUS
62
6
100
AcDbLine
10
490.285855000000
20
132.949898243530
30
0.0
11
503.285855000000
21
132.949898243530
31
0.0
0
LINE
5
70a
100
AcDbEntity
8
E-0
6
CONTINUOUS
62
6
100
AcDbLine
10
544.313400000000
20
132.949898243530
30
0.0
11
557.313400000000
21
132.949898243530
31
0.0
0
LINE
5
70b
100
AcDbEntity
8
E-0
6
CONTINUOUS
62
6
100
AcDbLine
10
563.078884000000
20
132.949898243530
30
0.0
11
576.078884000000
21
132.949898243530
31
0.0
0
LINE
5
70c
100
AcDbEntity
8
E-0
6
CONTINUOUS
62
6
100
AcDbLine
10
605.792222000000
20
132.949898243530
30
0.0
11
622.866478000000
21
132.949898243530
31
0.0
0
LINE
5
70d
100
AcDbEntity
8
E-0
6
CONTINUOUS
62
6
100
AcDbLine
10
622.866478000000
20
190.501179243530
30
0.0
11
611.866478000000
21
190.501179243530
31
0.0
0
LINE
5
70e
100
AcDbEntity
8
E-0
6
CONTINUOUS
62
6
100
AcDbLine
10
582.801153000000
20
190.501179243530
30
0.0
11
563.078884000000
21
190.501179243530
31
0.0
0
LINE
5
70f
100
AcDbEntity
8
E-0
6
CONTINUOUS
62
6
100
AcDbLine
10
530.476797000000
20
190.501179243530
30
0.0
11
517.122457000000
21
190.501179243530
31
0.0
0
LINE
5
710
100
AcDbEntity
8
E-0
6
CONTINUOUS
62
6
100
AcDbLine
10
312.907295000000
20
134.501179243530
30
0.0
11
325.907295000000
21
134.501179243530
31
0.0
0
LINE
5
711
100
AcDbEntity
8
E-0
6
CONTINUOUS
62
6
100
AcDbLine
10
364.033349000000
20
134.501179243530
30
0.0
11
377.033349000000
21
134.501179243530
31
0.0
0
LINE
5
712
100
AcDbEntity
8
E-0
6
CONTINUOUS
62
6
100
AcDbLine
10
384.449252000000
20
134.501179243530
30
0.0
11
423.056932000000
21
134.501179243530
31
0.0
0
LINE
5
713
100
AcDbEntity
8
E-0
6
CONTINUOUS
62
6
100
AcDbLine
10
466.562481000000
20
134.501179243530
30
0.0
11
481.009228000000
21
134.501179243530
31
0.0
0
LINE
5
714
100
AcDbEntity
8
E-0
6
CONTINUOUS
62
6
100
AcDbLine
10
491.009228000000
20
134.501179243530
30
0.0
11
504.009228000000
21
134.501179243530
31
0.0
0
LINE
5
715
100
AcDbEntity
8
E-0
6
CONTINUOUS
62
6
100
AcDbLine
10
543.590026000000
20
134.501179243530
30
0.0
11
556.590026000000
21
134.501179243530
31
0.0
0
LINE
5
716
100
AcDbEntity
8
E-0
6
CONTINUOUS
62
6
100
AcDbLine
10
563.078884000000
20
134.501179243530
30
0.0
11
576.078884000000
21
134.501179243530
31
0.0
0
LINE
5
717
100
AcDbEntity
8
E-0
6
CONTINUOUS
62
6
100
AcDbLine
10
604.822875000000
20
134.501179243530
30
0.0
11
622.866478000000
21
134.501179243530
31
0.0
0
LINE
5
718
100
AcDbEntity
8
E-0
6
CONTINUOUS
62
6
100
AcDbLine
10
313.839910000000
20
136.501179243530
30
0.0
11
326.839910000000
21
136.501179243530
31
0.0
0
LINE
5
719
100
AcDbEntity
8
E-0
6
CONTINUOUS
62
6
100
AcDbLine
10
363.100734000000
20
136.501179243530
30
0.0
11
376.100734000000
21
136.501179243530
31
0.0
0
LINE
5
71a
100
AcDbEntity
8
E-0
6
CONTINUOUS
62
6
100
AcDbLine
10
384.449252000000
20
136.501179243530
30
0.0
11
428.367744000000
21
136.501179243530
31
0.0
0
LINE
5
71b
100
AcDbEntity
8
E-0
6
CONTINUOUS
62
6
100
AcDbLine
10
465.629865000000
20
136.501179243530
30
0.0
11
481.941844000000
21
136.501179243530
31
0.0
0
LINE
5
71c
100
AcDbEntity
8
E-0
6
CONTINUOUS
62
6
100
AcDbLine
10
491.941844000000
20
136.501179243530
30
0.0
11
504.941844000000
21
136.501179243530
31
0.0
0
LINE
5
71d
100
AcDbEntity
8
E-0
6
CONTINUOUS
62
6
100
AcDbLine
10
542.657410000000
20
136.501179243530
30
0.0
11
555.657410000000
21
136.501179243530
31
0.0
0
LINE
5
71e
100
AcDbEntity
8
E-0
6
CONTINUOUS
62
6
100
AcDbLine
10
563.078884000000
20
136.501179243530
30
0.0
11
576.078884000000
21
136.501179243530
31
0.0
0
LINE
5
71f
100
AcDbEntity
8
E-0
6
CONTINUOUS
62
6
100
AcDbLine
10
603.573136000000
20
136.501179243530
30
0.0
11
622.866478000000
21
136.501179243530
31
0.0
0
LINE
5
720
100
AcDbEntity
8
E-0
6
CONTINUOUS
62
6
100
AcDbLine
10
314.772526000000
20
138.501179243530
30
0.0
11
327.772526000000
21
138.501179243530
31
0.0
0
LINE
5
721
100
AcDbEntity
8
E-0
6
CONTINUOUS
62
6
100
AcDbLine
10
362.168118000000
20
138.501179243530
30
0.0
11
375.168118000000
21
138.501179243530
31
0.0
0
LINE
5
722
100
AcDbEntity
8
E-0
6
CONTINUOUS
62
6
100
AcDbLine
10
384.449252000000
20
138.501179243530
30
0.0
11
431.984397000000
21
138.501179243530
31
0.0
0
LINE
5
723
100
AcDbEntity
8
E-0
6
CONTINUOUS
62
6
100
AcDbLine
10
464.697250000000
20
138.501179243530
30
0.0
11
482.874459000000
21
138.501179243530
31
0.0
0
LINE
5
724
100
AcDbEntity
8
E-0
6
CONTINUOUS
62
6
100
AcDbLine
10
492.874459000000
20
138.501179243530
30
0.0
11
505.874459000000
21
138.501179243530
31
0.0
0
LINE
5
725
100
AcDbEntity
8
E-0
6
CONTINUOUS
62
6
100
AcDbLine
10
541.724795000000
20
138.501179243530
30
0.0
11
554.724795000000
21
138.501179243530
31
0.0
0
LINE
5
726
100
AcDbEntity
8
E-0
6
CONTINUOUS
62
6
100
AcDbLine
10
563.078884000000
20
138.501179243530
30
0.0
11
576.078884000000
21
138.501179243530
31
0.0
0
LINE
5
727
100
AcDbEntity
8
E-0
6
CONTINUOUS
62
6
100
AcDbLine
10
602.323397000000
20
138.501179243530
30
0.0
11
622.866478000000
21
138.501179243530
31
0.0
0
LINE
5
728
100
AcDbEntity
8
E-0
6
CONTINUOUS
62
6
100
AcDbLine
10
315.705141000000
20
140.501179243530
30
0.0
11
328.705141000000
21
140.501179243530
31
0.0
0
LINE
5
729
100
AcDbEntity
8
E-0
6
CONTINUOUS
62
6
100
AcDbLine
10
361.235503000000
20
140.501179243530
30
0.0
11
374.235503000000
21
140.501179243530
31
0.0
0
LINE
5
72a
100
AcDbEntity
8
E-0
6
CONTINUOUS
62
6
100
AcDbLine
10
384.449252000000
20
140.501179243530
30
0.0
11
434.445170000000
21
140.501179243530
31
0.0
0
LINE
5
72b
100
AcDbEntity
8
E-0
6
CONTINUOUS
62
6
100
AcDbLine
10
463.764635000000
20
140.501179243530
30
0.0
11
483.807074000000
21
140.501179243530
31
0.0
0
LINE
5
72c
100
AcDbEntity
8
E-0
6
CONTINUOUS
62
6
100
AcDbLine
10
493.807074000000
20
140.501179243530
30
0.0
11
506.807074000000
21
140.501179243530
31
0.0
0
LINE
5
72d
100
AcDbEntity
8
E-0
6
CONTINUOUS
62
6
100
AcDbLine
10
540.792180000000
20
140.501179243530
30
0.0
11
553.792180000000
21
140.501179243530
31
0.0
0
LINE
5
72e
100
AcDbEntity
8
E-0
6
CONTINUOUS
62
6
100
AcDbLine
10
563.078884000000
20
140.501179243530
30
0.0
11
576.078884000000
21
140.501179243530
31
0.0
0
LINE
5
72f
100
AcDbEntity
8
E-0
6
CONTINUOUS
62
6
100
AcDbLine
10
601.073658000000
20
140.501179243530
30
0.0
11
622.866478000000
21
140.501179243530
31
0.0
0
LINE
5
730
100
AcDbEntity
8
E-0
6
CONTINUOUS
62
6
100
AcDbLine
10
316.637756000000
20
142.501179243530
30
0.0
11
329.637756000000
21
142.501179243530
31
0.0
0
LINE
5
731
100
AcDbEntity
8
E-0
6
CONTINUOUS
62
6
100
AcDbLine
10
360.302888000000
20
142.501179243530
30
0.0
11
373.302888000000
21
142.501179243530
31
0.0
0
LINE
5
732
100
AcDbEntity
8
E-0
6
CONTINUOUS
62
6
100
AcDbLine
10
384.449252000000
20
142.501179243530
30
0.0
11
436.139886000000
21
142.501179243530
31
0.0
0
LINE
5
733
100
AcDbEntity
8
E-0
6
CONTINUOUS
62
6
100
AcDbLine
10
462.832019000000
20
142.501179243530
30
0.0
11
484.739690000000
21
142.501179243530
31
0.0
0
LINE
5
734
100
AcDbEntity
8
E-0
6
CONTINUOUS
62
6
100
AcDbLine
10
494.739690000000
20
142.501179243530
30
0.0
11
507.739690000000
21
142.501179243530
31
0.0
0
LINE
5
735
100
AcDbEntity
8
E-0
6
CONTINUOUS
62
6
100
AcDbLine
10
539.859565000000
20
142.501179243530
30
0.0
11
552.859565000000
21
142.501179243530
31
0.0
0
LINE
5
736
100
AcDbEntity
8
E-0
6
CONTINUOUS
62
6
100
AcDbLine
10
563.078884000000
20
142.501179243530
30
0.0
11
576.078884000000
21
142.501179243530
31
0.0
0
LINE
5
737
100
AcDbEntity
8
E-0
6
CONTINUOUS
62
6
100
AcDbLine
10
599.823920000000
20
142.501179243530
30
0.0
11
622.866478000000
21
142.501179243530
31
0.0
0
LINE
5
738
100
AcDbEntity
8
E-0
6
CONTINUOUS
62
6
100
AcDbLine
10
317.570372000000
20
144.501179243530
30
0.0
11
330.570372000000
21
144.501179243530
31
0.0
0
LINE
5
739
100
AcDbEntity
8
E-0
6
CONTINUOUS
62
6
100
AcDbLine
10
359.370272000000
20
144.501179243530
30
0.0
11
372.370272000000
21
144.501179243530
31
0.0
0
LINE
5
73a
100
AcDbEntity
8
E-0
6
CONTINUOUS
62
6
100
AcDbLine
10
384.449252000000
20
144.501179243530
30
0.0
11
397.449252000000
21
144.501179243530
31
0.0
0
LINE
5
73b
100
AcDbEntity
8
E-0
6
CONTINUOUS
62
6
100
AcDbLine
10
420.178004000000
20
144.501179243530
30
0.0
11
437.247708000000
21
144.501179243530
31
0.0
0
LINE
5
73c
100
AcDbEntity
8
E-0
6
CONTINUOUS
62
6
100
AcDbLine
10
461.899404000000
20
144.501179243530
30
0.0
11
485.672305000000
21
144.501179243530
31
0.0
0
LINE
5
73d
100
AcDbEntity
8
E-0
6
CONTINUOUS
62
6
100
AcDbLine
10
495.672305000000
20
144.501179243530
30
0.0
11
508.672305000000
21
144.501179243530
31
0.0
0
LINE
5
73e
100
AcDbEntity
8
E-0
6
CONTINUOUS
62
6
100
AcDbLine
10
538.926949000000
20
144.501179243530
30
0.0
11
551.926949000000
21
144.501179243530
31
0.0
0
LINE
5
73f
100
AcDbEntity
8
E-0
6
CONTINUOUS
62
6
100
AcDbLine
10
563.078884000000
20
144.501179243530
30
0.0
11
576.078884000000
21
144.501179243530
31
0.0
0
LINE
5
740
100
AcDbEntity
8
E-0
6
CONTINUOUS
62
6
100
AcDbLine
10
598.574181000000
20
144.501179243530
30
0.0
11
611.545143000000
21
144.501179243530
31
0.0
0
LINE
5
741
100
AcDbEntity
8
E-0
6
CONTINUOUS
62
6
100
AcDbLine
10
611.866478000000
20
144.501179243530
30
0.0
11
622.866478000000
21
144.501179243530
31
0.0
0
LINE
5
742
100
AcDbEntity
8
E-0
6
CONTINUOUS
62
6
100
AcDbLine
10
318.502987000000
20
146.501179243530
30
0.0
11
371.437657000000
21
146.501179243530
31
0.0
0
LINE
5
743
100
AcDbEntity
8
E-0
6
CONTINUOUS
62
6
100
AcDbLine
10
384.449252000000
20
146.501179243530
30
0.0
11
397.449252000000
21
146.501179243530
31
0.0
0
LINE
5
744
100
AcDbEntity
8
E-0
6
CONTINUOUS
62
6
100
AcDbLine
10
423.022118000000
20
146.501179243530
30
0.0
11
438.008842000000
21
146.501179243530
31
0.0
0
LINE
5
745
100
AcDbEntity
8
E-0
6
CONTINUOUS
62
6
100
AcDbLine
10
460.966789000000
20
146.501179243530
30
0.0
11
486.604920000000
21
146.501179243530
31
0.0
0
LINE
5
746
100
AcDbEntity
8
E-0
6
CONTINUOUS
62
6
100
AcDbLine
10
496.604920000000
20
146.501179243530
30
0.0
11
550.994334000000
21
146.501179243530
31
0.0
0
LINE
5
747
100
AcDbEntity
8
E-0
6
CONTINUOUS
62
6
100
AcDbLine
10
563.078884000000
20
146.501179243530
30
0.0
11
576.078884000000
21
146.501179243530
31
0.0
0
LINE
5
748
100
AcDbEntity
8
E-0
6
CONTINUOUS
62
6
100
AcDbLine
10
597.324442000000
20
146.501179243530
30
0.0
11
610.295405000000
21
146.501179243530
31
0.0
0
LINE
5
749
100
AcDbEntity
8
E-0
6
CONTINUOUS
62
6
100
AcDbLine
10
611.866478000000
20
146.501179243530
30
0.0
11
622.866478000000
21
146.501179243530
31
0.0
0
LINE
5
74a
100
AcDbEntity
8
E-0
6
CONTINUOUS
62
6
100
AcDbLine
10
319.435602000000
20
148.501179243530
30
0.0
11
370.505042000000
21
148.501179243530
31
0.0
0
LINE
5
74b
100
AcDbEntity
8
E-0
6
CONTINUOUS
62
6
100
AcDbLine
10
384.449252000000
20
148.501179243530
30
0.0
11
397.449252000000
21
148.501179243530
31
0.0
0
LINE
5
74c
100
AcDbEntity
8
E-0
6
CONTINUOUS
62
6
100
AcDbLine
10
424.839896000000
20
148.501179243530
30
0.0
11
438.598931000000
21
148.501179243530
31
0.0
0
LINE
5
74d
100
AcDbEntity
8
E-0
6
CONTINUOUS
62
6
100
AcDbLine
10
460.034173000000
20
148.501179243530
30
0.0
11
473.034173000000
21
148.501179243530
31
0.0
0
LINE
5
74e
100
AcDbEntity
8
E-0
6
CONTINUOUS
62
6
100
AcDbLine
10
474.537536000000
20
148.501179243530
30
0.0
11
487.537536000000
21
148.501179243530
31
0.0
0
LINE
5
74f
100
AcDbEntity
8
E-0
6
CONTINUOUS
62
6
100
AcDbLine
10
497.537536000000
20
148.501179243530
30
0.0
11
550.061719000000
21
148.501179243530
31
0.0
0
LINE
5
750
100
AcDbEntity
8
E-0
6
CONTINUOUS
62
6
100
AcDbLine
10
563.078884000000
20
148.501179243530
30
0.0
11
576.078884000000
21
148.501179243530
31
0.0
0
LINE
5
751
100
AcDbEntity
8
E-0
6
CONTINUOUS
62
6
100
AcDbLine
10
596.074704000000
20
148.501179243530
30
0.0
11
609.045666000000
21
148.501179243530
31
0.0
0
LINE
5
752
100
AcDbEntity
8
E-0
6
CONTINUOUS
62
6
100
AcDbLine
10
611.866478000000
20
148.501179243530
30
0.0
11
622.866478000000
21
148.501179243530
31
0.0
0
LINE
5
753
100
AcDbEntity
8
E-0
6
CONTINUOUS
62
6
100
AcDbLine
10
320.368217000000
20
150.501179243530
30
0.0
11
369.572426000000
21
150.501179243530
31
0.0
0
LINE
5
754
100
AcDbEntity
8
E-0
6
CONTINUOUS
62
6
100
AcDbLine
10
384.449252000000
20
150.501179243530
30
0.0
11
397.449252000000
21
150.501179243530
31
0.0
0
LINE
5
755
100
AcDbEntity
8
E-0
6
CONTINUOUS
62
6
100
AcDbLine
10
425.923786000000
20
150.501179243530
30
0.0
11
439.098267000000
21
150.501179243530
31
0.0
0
LINE
5
756
100
AcDbEntity
8
E-0
6
CONTINUOUS
62
6
100
AcDbLine
10
459.101558000000
20
150.501179243530
30
0.0
11
472.101558000000
21
150.501179243530
31
0.0
0
LINE
5
757
100
AcDbEntity
8
E-0
6
CONTINUOUS
62
6
100
AcDbLine
10
475.470151000000
20
150.501179243530
30
0.0
11
488.470151000000
21
150.501179243530
31
0.0
0
LINE
5
758
100
AcDbEntity
8
E-0
6
CONTINUOUS
62
6
100
AcDbLine
10
498.470151000000
20
150.501179243530
30
0.0
11
549.129103000000
21
150.501179243530
31
0.0
0
LINE
5
759
100
AcDbEntity
8
E-0
6
CONTINUOUS
62
6
100
AcDbLine
10
563.078884000000
20
150.501179243530
30
0.0
11
576.078884000000
21
150.501179243530
31
0.0
0
LINE
5
75a
100
AcDbEntity
8
E-0
6
CONTINUOUS
62
6
100
AcDbLine
10
594.824965000000
20
150.501179243530
30
0.0
11
607.795927000000
21
150.501179243530
31
0.0
0
LINE
5
75b
100
AcDbEntity
8
E-0
6
CONTINUOUS
62
6
100
AcDbLine
10
611.866478000000
20
150.501179243530
30
0.0
11
622.866478000000
21
150.501179243530
31
0.0
0
LINE
5
75c
100
AcDbEntity
8
E-0
6
CONTINUOUS
62
6
100
AcDbLine
10
321.300833000000
20
152.501179243530
30
0.0
11
368.639811000000
21
152.501179243530
31
0.0
0
LINE
5
75d
100
AcDbEntity
8
E-0
6
CONTINUOUS
62
6
100
AcDbLine
10
384.449252000000
20
152.501179243530
30
0.0
11
397.449252000000
21
152.501179243530
31
0.0
0
LINE
5
75e
100
AcDbEntity
8
E-0
6
CONTINUOUS
62
6
100
AcDbLine
10
426.602068000000
20
152.501179243530
30
0.0
11
439.525970000000
21
152.501179243530
31
0.0
0
LINE
5
75f
100
AcDbEntity
8
E-0
6
CONTINUOUS
62
6
100
AcDbLine
10
458.168943000000
20
152.501179243530
30
0.0
11
471.168943000000
21
152.501179243530
31
0.0
0
LINE
5
760
100
AcDbEntity
8
E-0
6
CONTINUOUS
62
6
100
AcDbLine
10
476.402766000000
20
152.501179243530
30
0.0
11
489.402766000000
21
152.501179243530
31
0.0
0
LINE
5
761
100
AcDbEntity
8
E-0
6
CONTINUOUS
62
6
100
AcDbLine
10
499.402766000000
20
152.501179243530
30
0.0
11
548.196488000000
21
152.501179243530
31
0.0
0
LINE
5
762
100
AcDbEntity
8
E-0
6
CONTINUOUS
62
6
100
AcDbLine
10
563.078884000000
20
152.501179243530
30
0.0
11
576.078884000000
21
152.501179243530
31
0.0
0
LINE
5
763
100
AcDbEntity
8
E-0
6
CONTINUOUS
62
6
100
AcDbLine
10
593.575226000000
20
152.501179243530
30
0.0
11
606.546189000000
21
152.501179243530
31
0.0
0
LINE
5
764
100
AcDbEntity
8
E-0
6
CONTINUOUS
62
6
100
AcDbLine
10
611.866478000000
20
152.501179243530
30
0.0
11
622.866478000000
21
152.501179243530
31
0.0
0
LINE
5
765
100
AcDbEntity
8
E-0
6
CONTINUOUS
62
6
100
AcDbLine
10
322.233448000000
20
154.501179243530
30
0.0
11
367.707196000000
21
154.501179243530
31
0.0
0
LINE
5
766
100
AcDbEntity
8
E-0
6
CONTINUOUS
62
6
100
AcDbLine
10
384.449252000000
20
154.501179243530
30
0.0
11
397.449252000000
21
154.501179243530
31
0.0
0
LINE
5
767
100
AcDbEntity
8
E-0
6
CONTINUOUS
62
6
100
AcDbLine
10
427.015532000000
20
154.501179243530
30
0.0
11
439.874442000000
21
154.501179243530
31
0.0
0
LINE
5
768
100
AcDbEntity
8
E-0
6
CONTINUOUS
62
6
100
AcDbLine
10
457.236327000000
20
154.501179243530
30
0.0
11
470.236327000000
21
154.501179243530
31
0.0
0
LINE
5
769
100
AcDbEntity
8
E-0
6
CONTINUOUS
62
6
100
AcDbLine
10
477.335382000000
20
154.501179243530
30
0.0
11
490.335382000000
21
154.501179243530
31
0.0
0
LINE
5
76a
100
AcDbEntity
8
E-0
6
CONTINUOUS
62
6
100
AcDbLine
10
500.335382000000
20
154.501179243530
30
0.0
11
547.263873000000
21
154.501179243530
31
0.0
0
LINE
5
76b
100
AcDbEntity
8
E-0
6
CONTINUOUS
62
6
100
AcDbLine
10
563.078884000000
20
154.501179243530
30
0.0
11
576.078884000000
21
154.501179243530
31
0.0
0
LINE
5
76c
100
AcDbEntity
8
E-0
6
CONTINUOUS
62
6
100
AcDbLine
10
592.325488000000
20
154.501179243530
30
0.0
11
605.296450000000
21
154.501179243530
31
0.0
0
LINE
5
76d
100
AcDbEntity
8
E-0
6
CONTINUOUS
62
6
100
AcDbLine
10
611.866478000000
20
154.501179243530
30
0.0
11
622.866478000000
21
154.501179243530
31
0.0
0
LINE
5
76e
100
AcDbEntity
8
E-0
6
CONTINUOUS
62
6
100
AcDbLine
10
323.166063000000
20
156.501179243530
30
0.0
11
336.166063000000
21
156.501179243530
31
0.0
0
LINE
5
76f
100
AcDbEntity
8
E-0
6
CONTINUOUS
62
6
100
AcDbLine
10
353.774581000000
20
156.501179243530
30
0.0
11
366.774581000000
21
156.501179243530
31
0.0
0
LINE
5
770
100
AcDbEntity
8
E-0
6
CONTINUOUS
62
6
100
AcDbLine
10
384.449252000000
20
156.501179243530
30
0.0
11
397.449252000000
21
156.501179243530
31
0.0
0
LINE
5
771
100
AcDbEntity
8
E-0
6
CONTINUOUS
62
6
100
AcDbLine
10
427.258725000000
20
156.501179243530
30
0.0
11
440.142435000000
21
156.501179243530
31
0.0
0
LINE
5
772
100
AcDbEntity
8
E-0
6
CONTINUOUS
62
6
100
AcDbLine
10
456.303712000000
20
156.501179243530
30
0.0
11
469.303712000000
21
156.501179243530
31
0.0
0
LINE
5
773
100
AcDbEntity
8
E-0
6
CONTINUOUS
62
6
100
AcDbLine
10
478.267997000000
20
156.501179243530
30
0.0
11
491.267997000000
21
156.501179243530
31
0.0
0
LINE
5
774
100
AcDbEntity
8
E-0
6
CONTINUOUS
62
6
100
AcDbLine
10
501.267997000000
20
156.501179243530
30
0.0
11
514.267997000000
21
156.501179243530
31
0.0
0
LINE
5
775
100
AcDbEntity
8
E-0
6
CONTINUOUS
62
6
100
AcDbLine
10
533.331257000000
20
156.501179243530
30
0.0
11
546.331257000000
21
156.501179243530
31
0.0
0
LINE
5
776
100
AcDbEntity
8
E-0
6
CONTINUOUS
62
6
100
AcDbLine
10
563.078884000000
20
156.501179243530
30
0.0
11
576.078884000000
21
156.501179243530
31
0.0
0
LINE
5
777
100
AcDbEntity
8
E-0
6
CONTINUOUS
62
6
100
AcDbLine
10
591.075749000000
20
156.501179243530
30
0.0
11
604.046711000000
21
156.501179243530
31
0.0
0
LINE
5
778
100
AcDbEntity
8
E-0
6
CONTINUOUS
62
6
100
AcDbLine
10
611.866478000000
20
156.501179243530
30
0.0
11
622.866478000000
21
156.501179243530
31
0.0
0
LINE
5
779
100
AcDbEntity
8
E-0
6
CONTINUOUS
62
6
100
AcDbLine
10
324.098679000000
20
158.501179243530
30
0.0
11
337.098679000000
21
158.501179243530
31
0.0
0
LINE
5
77a
100
AcDbEntity
8
E-0
6
CONTINUOUS
62
6
100
AcDbLine
10
352.841965000000
20
158.501179243530
30
0.0
11
365.841965000000
21
158.501179243530
31
0.0
0
LINE
5
77b
100
AcDbEntity
8
E-0
6
CONTINUOUS
62
6
100
AcDbLine
10
384.449252000000
20
158.501179243530
30
0.0
11
397.449252000000
21
158.501179243530
31
0.0
0
LINE
5
77c
100
AcDbEntity
8
E-0
6
CONTINUOUS
62
6
100
AcDbLine
10
427.388364000000
20
158.501179243530
30
0.0
11
440.328450000000
21
158.501179243530
31
0.0
0
LINE
5
77d
100
AcDbEntity
8
E-0
6
CONTINUOUS
62
6
100
AcDbLine
10
455.371097000000
20
158.501179243530
30
0.0
11
468.371097000000
21
158.501179243530
31
0.0
0
LINE
5
77e
100
AcDbEntity
8
E-0
6
CONTINUOUS
62
6
100
AcDbLine
10
479.200612000000
20
158.501179243530
30
0.0
11
492.200612000000
21
158.501179243530
31
0.0
0
LINE
5
77f
100
AcDbEntity
8
E-0
6
CONTINUOUS
62
6
100
AcDbLine
10
502.200612000000
20
158.501179243530
30
0.0
11
515.200612000000
21
158.501179243530
31
0.0
0
LINE
5
780
100
AcDbEntity
8
E-0
6
CONTINUOUS
62
6
100
AcDbLine
10
532.398642000000
20
158.501179243530
30
0.0
11
545.398642000000
21
158.501179243530
31
0.0
0
LINE
5
781
100
AcDbEntity
8
E-0
6
CONTINUOUS
62
6
100
AcDbLine
10
563.078884000000
20
158.501179243530
30
0.0
11
576.078884000000
21
158.501179243530
31
0.0
0
LINE
5
782
100
AcDbEntity
8
E-0
6
CONTINUOUS
62
6
100
AcDbLine
10
589.826010000000
20
158.501179243530
30
0.0
11
602.796973000000
21
158.501179243530
31
0.0
0
LINE
5
783
100
AcDbEntity
8
E-0
6
CONTINUOUS
62
6
100
AcDbLine
10
611.866478000000
20
158.501179243530
30
0.0
11
622.866478000000
21
158.501179243530
31
0.0
0
LINE
5
784
100
AcDbEntity
8
E-0
6
CONTINUOUS
62
6
100
AcDbLine
10
325.031294000000
20
160.501179243530
30
0.0
11
338.031294000000
21
160.501179243530
31
0.0
0
LINE
5
785
100
AcDbEntity
8
E-0
6
CONTINUOUS
62
6
100
AcDbLine
10
351.909350000000
20
160.501179243530
30
0.0
11
364.909350000000
21
160.501179243530
31
0.0
0
LINE
5
786
100
AcDbEntity
8
E-0
6
CONTINUOUS
62
6
100
AcDbLine
10
384.449252000000
20
160.501179243530
30
0.0
11
397.449252000000
21
160.501179243530
31
0.0
0
LINE
5
787
100
AcDbEntity
8
E-0
6
CONTINUOUS
62
6
100
AcDbLine
10
427.442733000000
20
160.501179243530
30
0.0
11
440.431577000000
21
160.501179243530
31
0.0
0
LINE
5
788
100
AcDbEntity
8
E-0
6
CONTINUOUS
62
6
100
AcDbLine
10
454.438481000000
20
160.501179243530
30
0.0
11
467.438481000000
21
160.501179243530
31
0.0
0
LINE
5
789
100
AcDbEntity
8
E-0
6
CONTINUOUS
62
6
100
AcDbLine
10
480.133228000000
20
160.501179243530
30
0.0
11
493.133228000000
21
160.501179243530
31
0.0
0
LINE
5
78a
100
AcDbEntity
8
E-0
6
CONTINUOUS
62
6
100
AcDbLine
10
503.133228000000
20
160.501179243530
30
0.0
11
516.133228000000
21
160.501179243530
31
0.0
0
LINE
5
78b
100
AcDbEntity
8
E-0
6
CONTINUOUS
62
6
100
AcDbLine
10
531.466027000000
20
160.501179243530
30
0.0
11
544.466027000000
21
160.501179243530
31
0.0
0
LINE
5
78c
100
AcDbEntity
8
E-0
6
CONTINUOUS
62
6
100
AcDbLine
10
563.078884000000
20
160.501179243530
30
0.0
11
576.078884000000
21
160.501179243530
31
0.0
0
LINE
5
78d
100
AcDbEntity
8
E-0
6
CONTINUOUS
62
6
100
AcDbLine
10
588.576271000000
20
160.501179243530
30
0.0
11
601.547234000000
21
160.501179243530
31
0.0
0
LINE
5
78e
100
AcDbEntity
8
E-0
6
CONTINUOUS
62
6
100
AcDbLine
10
611.866478000000
20
160.501179243530
30
0.0
11
622.866478000000
21
160.501179243530
31
0.0
0
LINE
5
78f
100
AcDbEntity
8
E-0
6
CONTINUOUS
62
6
100
AcDbLine
10
325.963909000000
20
162.501179243530
30
0.0
11
338.963909000000
21
162.501179243530
31
0.0
0
LINE
5
790
100
AcDbEntity
8
E-0
6
CONTINUOUS
62
6
100
AcDbLine
10
350.976735000000
20
162.501179243530
30
0.0
11
363.976735000000
21
162.501179243530
31
0.0
0
LINE
5
791
100
AcDbEntity
8
E-0
6
CONTINUOUS
62
6
100
AcDbLine
10
384.449252000000
20
162.501179243530
30
0.0
11
397.449252000000
21
162.501179243530
31
0.0
0
LINE
5
792
100
AcDbEntity
8
E-0
6
CONTINUOUS
62
6
100
AcDbLine
10
427.445122000000
20
162.501179243530
30
0.0
11
440.438054000000
21
162.501179243530
31
0.0
0
LINE
5
793
100
AcDbEntity
8
E-0
6
CONTINUOUS
62
6
100
AcDbLine
10
453.505866000000
20
162.501179243530
30
0.0
11
466.505866000000
21
162.501179243530
31
0.0
0
LINE
5
794
100
AcDbEntity
8
E-0
6
CONTINUOUS
62
6
100
AcDbLine
10
481.065843000000
20
162.501179243530
30
0.0
11
494.065843000000
21
162.501179243530
31
0.0
0
LINE
5
795
100
AcDbEntity
8
E-0
6
CONTINUOUS
62
6
100
AcDbLine
10
504.065843000000
20
162.501179243530
30
0.0
11
517.065843000000
21
162.501179243530
31
0.0
0
LINE
5
796
100
AcDbEntity
8
E-0
6
CONTINUOUS
62
6
100
AcDbLine
10
530.533411000000
20
162.501179243530
30
0.0
11
543.533411000000
21
162.501179243530
31
0.0
0
LINE
5
797
100
AcDbEntity
8
E-0
6
CONTINUOUS
62
6
100
AcDbLine
10
563.078884000000
20
162.501179243530
30
0.0
11
576.078884000000
21
162.501179243530
31
0.0
0
LINE
5
798
100
AcDbEntity
8
E-0
6
CONTINUOUS
62
6
100
AcDbLine
10
587.326533000000
20
162.501179243530
30
0.0
11
600.297495000000
21
162.501179243530
31
0.0
0
LINE
5
799
100
AcDbEntity
8
E-0
6
CONTINUOUS
62
6
100
AcDbLine
10
611.866478000000
20
162.501179243530
30
0.0
11
622.866478000000
21
162.501179243530
31
0.0
0
LINE
5
79a
100
AcDbEntity
8
E-0
6
CONTINUOUS
62
6
100
AcDbLine
10
326.896525000000
20
164.501179243530
30
0.0
11
339.896525000000
21
164.501179243530
31
0.0
0
LINE
5
79b
100
AcDbEntity
8
E-0
6
CONTINUOUS
62
6
100
AcDbLine
10
350.044119000000
20
164.501179243530
30
0.0
11
363.044119000000
21
164.501179243530
31
0.0
0
LINE
5
79c
100
AcDbEntity
8
E-0
6
CONTINUOUS
62
6
100
AcDbLine
10
384.449252000000
20
164.501179243530
30
0.0
11
397.449252000000
21
164.501179243530
31
0.0
0
LINE
5
79d
100
AcDbEntity
8
E-0
6
CONTINUOUS
62
6
100
AcDbLine
10
427.401864000000
20
164.501179243530
30
0.0
11
440.352292000000
21
164.501179243530
31
0.0
0
LINE
5
79e
100
AcDbEntity
8
E-0
6
CONTINUOUS
62
6
100
AcDbLine
10
452.573251000000
20
164.501179243530
30
0.0
11
465.573251000000
21
164.501179243530
31
0.0
0
LINE
5
79f
100
AcDbEntity
8
E-0
6
CONTINUOUS
62
6
100
AcDbLine
10
481.998458000000
20
164.501179243530
30
0.0
11
494.998458000000
21
164.501179243530
31
0.0
0
LINE
5
7a0
100
AcDbEntity
8
E-0
6
CONTINUOUS
62
6
100
AcDbLine
10
504.998458000000
20
164.501179243530
30
0.0
11
517.998458000000
21
164.501179243530
31
0.0
0
LINE
5
7a1
100
AcDbEntity
8
E-0
6
CONTINUOUS
62
6
100
AcDbLine
10
529.600796000000
20
164.501179243530
30
0.0
11
542.600796000000
21
164.501179243530
31
0.0
0
LINE
5
7a2
100
AcDbEntity
8
E-0
6
CONTINUOUS
62
6
100
AcDbLine
10
563.078884000000
20
164.501179243530
30
0.0
11
576.078884000000
21
164.501179243530
31
0.0
0
LINE
5
7a3
100
AcDbEntity
8
E-0
6
CONTINUOUS
62
6
100
AcDbLine
10
586.076794000000
20
164.501179243530
30
0.0
11
599.047756000000
21
164.501179243530
31
0.0
0
LINE
5
7a4
100
AcDbEntity
8
E-0
6
CONTINUOUS
62
6
100
AcDbLine
10
611.866478000000
20
164.501179243530
30
0.0
11
622.866478000000
21
164.501179243530
31
0.0
0
LINE
5
7a5
100
AcDbEntity
8
E-0
6
CONTINUOUS
62
6
100
AcDbLine
10
327.829140000000
20
166.501179243530
30
0.0
11
340.829140000000
21
166.501179243530
31
0.0
0
LINE
5
7a6
100
AcDbEntity
8
E-0
6
CONTINUOUS
62
6
100
AcDbLine
10
349.111504000000
20
166.501179243530
30
0.0
11
362.111504000000
21
166.501179243530
31
0.0
0
LINE
5
7a7
100
AcDbEntity
8
E-0
6
CONTINUOUS
62
6
100
AcDbLine
10
384.449252000000
20
166.501179243530
30
0.0
11
397.449252000000
21
166.501179243530
31
0.0
0
LINE
5
7a8
100
AcDbEntity
8
E-0
6
CONTINUOUS
62
6
100
AcDbLine
10
427.296659000000
20
166.501179243530
30
0.0
11
440.187715000000
21
166.501179243530
31
0.0
0
LINE
5
7a9
100
AcDbEntity
8
E-0
6
CONTINUOUS
62
6
100
AcDbLine
10
451.640636000000
20
166.501179243530
30
0.0
11
464.640636000000
21
166.501179243530
31
0.0
0
LINE
5
7aa
100
AcDbEntity
8
E-0
6
CONTINUOUS
62
6
100
AcDbLine
10
482.931074000000
20
166.501179243530
30
0.0
11
495.931074000000
21
166.501179243530
31
0.0
0
LINE
5
7ab
100
AcDbEntity
8
E-0
6
CONTINUOUS
62
6
100
AcDbLine
10
505.931074000000
20
166.501179243530
30
0.0
11
518.931074000000
21
166.501179243530
31
0.0
0
LINE
5
7ac
100
AcDbEntity
8
E-0
6
CONTINUOUS
62
6
100
AcDbLine
10
528.668181000000
20
166.501179243530
30
0.0
11
541.668181000000
21
166.501179243530
31
0.0
0
LINE
5
7ad
100
AcDbEntity
8
E-0
6
CONTINUOUS
62
6
100
AcDbLine
10
563.078884000000
20
166.501179243530
30
0.0
11
576.078884000000
21
166.501179243530
31
0.0
0
LINE
5
7ae
100
AcDbEntity
8
E-0
6
CONTINUOUS
62
6
100
AcDbLine
10
584.827055000000
20
166.501179243530
30
0.0
11
597.798018000000
21
166.501179243530
31
0.0
0
LINE
5
7af
100
AcDbEntity
8
E-0
6
CONTINUOUS
62
6
100
AcDbLine
10
611.866478000000
20
166.501179243530
30
0.0
11
622.866478000000
21
166.501179243530
31
0.0
0
LINE
5
7b0
100
AcDbEntity
8
E-0
6
CONTINUOUS
62
6
100
AcDbLine
10
328.761755000000
20
168.501179243530
30
0.0
11
341.761755000000
21
168.501179243530
31
0.0
0
LINE
5
7b1
100
AcDbEntity
8
E-0
6
CONTINUOUS
62
6
100
AcDbLine
10
348.178889000000
20
168.501179243530
30
0.0
11
361.178889000000
21
168.501179243530
31
0.0
0
LINE
5
7b2
100
AcDbEntity
8
E-0
6
CONTINUOUS
62
6
100
AcDbLine
10
384.449252000000
20
168.501179243530
30
0.0
11
397.449252000000
21
168.501179243530
31
0.0
0
LINE
5
7b3
100
AcDbEntity
8
E-0
6
CONTINUOUS
62
6
100
AcDbLine
10
427.092311000000
20
168.501179243530
30
0.0
11
439.940585000000
21
168.501179243530
31
0.0
0
LINE
5
7b4
100
AcDbEntity
8
E-0
6
CONTINUOUS
62
6
100
AcDbLine
10
450.708020000000
20
168.501179243530
30
0.0
11
463.708020000000
21
168.501179243530
31
0.0
0
LINE
5
7b5
100
AcDbEntity
8
E-0
6
CONTINUOUS
62
6
100
AcDbLine
10
483.863689000000
20
168.501179243530
30
0.0
11
496.863689000000
21
168.501179243530
31
0.0
0
LINE
5
7b6
100
AcDbEntity
8
E-0
6
CONTINUOUS
62
6
100
AcDbLine
10
506.863689000000
20
168.501179243530
30
0.0
11
519.863689000000
21
168.501179243530
31
0.0
0
LINE
5
7b7
100
AcDbEntity
8
E-0
6
CONTINUOUS
62
6
100
AcDbLine
10
527.735565000000
20
168.501179243530
30
0.0
11
540.735565000000
21
168.501179243530
31
0.0
0
LINE
5
7b8
100
AcDbEntity
8
E-0
6
CONTINUOUS
62
6
100
AcDbLine
10
563.078884000000
20
168.501179243530
30
0.0
11
576.078884000000
21
168.501179243530
31
0.0
0
LINE
5
7b9
100
AcDbEntity
8
E-0
6
CONTINUOUS
62
6
100
AcDbLine
10
583.577317000000
20
168.501179243530
30
0.0
11
596.548279000000
21
168.501179243530
31
0.0
0
LINE
5
7ba
100
AcDbEntity
8
E-0
6
CONTINUOUS
62
6
100
AcDbLine
10
611.866478000000
20
168.501179243530
30
0.0
11
622.866478000000
21
168.501179243530
31
0.0
0
LINE
5
7bb
100
AcDbEntity
8
E-0
6
CONTINUOUS
62
6
100
AcDbLine
10
329.694371000000
20
170.501179243530
30
0.0
11
342.694371000000
21
170.501179243530
31
0.0
0
LINE
5
7bc
100
AcDbEntity
8
E-0
6
CONTINUOUS
62
6
100
AcDbLine
10
347.246273000000
20
170.501179243530
30
0.0
11
360.246273000000
21
170.501179243530
31
0.0
0
LINE
5
7bd
100
AcDbEntity
8
E-0
6
CONTINUOUS
62
6
100
AcDbLine
10
384.449252000000
20
170.501179243530
30
0.0
11
397.449252000000
21
170.501179243530
31
0.0
0
LINE
5
7be
100
AcDbEntity
8
E-0
6
CONTINUOUS
62
6
100
AcDbLine
10
426.736832000000
20
170.501179243530
30
0.0
11
439.612462000000
21
170.501179243530
31
0.0
0
LINE
5
7bf
100
AcDbEntity
8
E-0
6
CONTINUOUS
62
6
100
AcDbLine
10
449.775405000000
20
170.501179243530
30
0.0
11
462.775405000000
21
170.501179243530
31
0.0
0
LINE
5
7c0
100
AcDbEntity
8
E-0
6
CONTINUOUS
62
6
100
AcDbLine
10
484.796304000000
20
170.501179243530
30
0.0
11
497.796304000000
21
170.501179243530
31
0.0
0
LINE
5
7c1
100
AcDbEntity
8
E-0
6
CONTINUOUS
62
6
100
AcDbLine
10
507.796304000000
20
170.501179243530
30
0.0
11
520.796304000000
21
170.501179243530
31
0.0
0
LINE
5
7c2
100
AcDbEntity
8
E-0
6
CONTINUOUS
62
6
100
AcDbLine
10
526.802950000000
20
170.501179243530
30
0.0
11
539.802950000000
21
170.501179243530
31
0.0
0
LINE
5
7c3
100
AcDbEntity
8
E-0
6
CONTINUOUS
62
6
100
AcDbLine
10
563.078884000000
20
170.501179243530
30
0.0
11
576.078884000000
21
170.501179243530
31
0.0
0
LINE
5
7c4
100
AcDbEntity
8
E-0
6
CONTINUOUS
62
6
100
AcDbLine
10
582.327578000000
20
170.501179243530
30
0.0
11
595.298540000000
21
170.501179243530
31
0.0
0
LINE
5
7c5
100
AcDbEntity
8
E-0
6
CONTINUOUS
62
6
100
AcDbLine
10
611.866478000000
20
170.501179243530
30
0.0
11
622.866478000000
21
170.501179243530
31
0.0
0
LINE
5
7c6
100
AcDbEntity
8
E-0
6
CONTINUOUS
62
6
100
AcDbLine
10
330.626986000000
20
172.501179243530
30
0.0
11
343.626986000000
21
172.501179243530
31
0.0
0
LINE
5
7c7
100
AcDbEntity
8
E-0
6
CONTINUOUS
62
6
100
AcDbLine
10
346.313658000000
20
172.501179243530
30
0.0
11
359.313658000000
21
172.501179243530
31
0.0
0
LINE
5
7c8
100
AcDbEntity
8
E-0
6
CONTINUOUS
62
6
100
AcDbLine
10
384.449252000000
20
172.501179243530
30
0.0
11
397.449252000000
21
172.501179243530
31
0.0
0
LINE
5
7c9
100
AcDbEntity
8
E-0
6
CONTINUOUS
62
6
100
AcDbLine
10
426.136171000000
20
172.501179243530
30
0.0
11
439.204652000000
21
172.501179243530
31
0.0
0
LINE
5
7ca
100
AcDbEntity
8
E-0
6
CONTINUOUS
62
6
100
AcDbLine
10
448.842790000000
20
172.501179243530
30
0.0
11
461.842790000000
21
172.501179243530
31
0.0
0
LINE
5
7cb
100
AcDbEntity
8
E-0
6
CONTINUOUS
62
6
100
AcDbLine
10
485.728920000000
20
172.501179243530
30
0.0
11
498.728920000000
21
172.501179243530
31
0.0
0
LINE
5
7cc
100
AcDbEntity
8
E-0
6
CONTINUOUS
62
6
100
AcDbLine
10
508.728920000000
20
172.501179243530
30
0.0
11
521.728920000000
21
172.501179243530
31
0.0
0
LINE
5
7cd
100
AcDbEntity
8
E-0
6
CONTINUOUS
62
6
100
AcDbLine
10
525.870335000000
20
172.501179243530
30
0.0
11
538.870335000000
21
172.501179243530
31
0.0
0
LINE
5
7ce
100
AcDbEntity
8
E-0
6
CONTINUOUS
62
6
100
AcDbLine
10
563.078884000000
20
172.501179243530
30
0.0
11
576.078884000000
21
172.501179243530
31
0.0
0
LINE
5
7cf
100
AcDbEntity
8
E-0
6
CONTINUOUS
62
6
100
AcDbLine
10
581.077839000000
20
172.501179243530
30
0.0
11
594.048802000000
21
172.501179243530
31
0.0
0
LINE
5
7d0
100
AcDbEntity
8
E-0
6
CONTINUOUS
62
6
100
AcDbLine
10
611.866478000000
20
172.501179243530
30
0.0
11
622.866478000000
21
172.501179243530
31
0.0
0
LINE
5
7d1
100
AcDbEntity
8
E-0
6
CONTINUOUS
62
6
100
AcDbLine
10
331.559601000000
20
174.501179243530
30
0.0
11
344.559601000000
21
174.501179243530
31
0.0
0
LINE
5
7d2
100
AcDbEntity
8
E-0
6
CONTINUOUS
62
6
100
AcDbLine
10
345.381043000000
20
174.501179243530
30
0.0
11
358.381043000000
21
174.501179243530
31
0.0
0
LINE
5
7d3
100
AcDbEntity
8
E-0
6
CONTINUOUS
62
6
100
AcDbLine
10
384.449252000000
20
174.501179243530
30
0.0
11
397.449252000000
21
174.501179243530
31
0.0
0
LINE
5
7d4
100
AcDbEntity
8
E-0
6
CONTINUOUS
62
6
100
AcDbLine
10
425.157864000000
20
174.501179243530
30
0.0
11
438.720763000000
21
174.501179243530
31
0.0
0
LINE
5
7d5
100
AcDbEntity
8
E-0
6
CONTINUOUS
62
6
100
AcDbLine
10
447.910174000000
20
174.501179243530
30
0.0
11
460.910174000000
21
174.501179243530
31
0.0
0
LINE
5
7d6
100
AcDbEntity
8
E-0
6
CONTINUOUS
62
6
100
AcDbLine
10
486.661535000000
20
174.501179243530
30
0.0
11
499.661535000000
21
174.501179243530
31
0.0
0
LINE
5
7d7
100
AcDbEntity
8
E-0
6
CONTINUOUS
62
6
100
AcDbLine
10
509.661535000000
20
174.501179243530
30
0.0
11
522.661535000000
21
174.501179243530
31
0.0
0
LINE
5
7d8
100
AcDbEntity
8
E-0
6
CONTINUOUS
62
6
100
AcDbLine
10
524.937719000000
20
174.501179243530
30
0.0
11
537.937719000000
21
174.501179243530
31
0.0
0
LINE
5
7d9
100
AcDbEntity
8
E-0
6
CONTINUOUS
62
6
100
AcDbLine
10
563.078884000000
20
174.501179243530
30
0.0
11
576.078884000000
21
174.501179243530
31
0.0
0
LINE
5
7da
100
AcDbEntity
8
E-0
6
CONTINUOUS
62
6
100
AcDbLine
10
579.828100000000
20
174.501179243530
30
0.0
11
592.799063000000
21
174.501179243530
31
0.0
0
LINE
5
7db
100
AcDbEntity
8
E-0
6
CONTINUOUS
62
6
100
AcDbLine
10
611.866478000000
20
174.501179243530
30
0.0
11
622.866478000000
21
174.501179243530
31
0.0
0
LINE
5
7dc
100
AcDbEntity
8
E-0
6
CONTINUOUS
62
6
100
AcDbLine
10
332.492217000000
20
176.501179243530
30
0.0
11
357.448427000000
21
176.501179243530
31
0.0
0
LINE
5
7dd
100
AcDbEntity
8
E-0
6
CONTINUOUS
62
6
100
AcDbLine
10
384.449252000000
20
176.501179243530
30
0.0
11
397.449252000000
21
176.501179243530
31
0.0
0
LINE
5
7de
100
AcDbEntity
8
E-0
6
CONTINUOUS
62
6
100
AcDbLine
10
423.496583000000
20
176.501179243530
30
0.0
11
438.150473000000
21
176.501179243530
31
0.0
0
LINE
5
7df
100
AcDbEntity
8
E-0
6
CONTINUOUS
62
6
100
AcDbLine
10
446.977559000000
20
176.501179243530
30
0.0
11
459.977559000000
21
176.501179243530
31
0.0
0
LINE
5
7e0
100
AcDbEntity
8
E-0
6
CONTINUOUS
62
6
100
AcDbLine
10
487.594150000000
20
176.501179243530
30
0.0
11
500.594150000000
21
176.501179243530
31
0.0
0
LINE
5
7e1
100
AcDbEntity
8
E-0
6
CONTINUOUS
62
6
100
AcDbLine
10
510.594150000000
20
176.501179243530
30
0.0
11
523.594150000000
21
176.501179243530
31
0.0
0
LINE
5
7e2
100
AcDbEntity
8
E-0
6
CONTINUOUS
62
6
100
AcDbLine
10
524.005104000000
20
176.501179243530
30
0.0
11
537.005104000000
21
176.501179243530
31
0.0
0
LINE
5
7e3
100
AcDbEntity
8
E-0
6
CONTINUOUS
62
6
100
AcDbLine
10
563.078884000000
20
176.501179243530
30
0.0
11
576.078884000000
21
176.501179243530
31
0.0
0
LINE
5
7e4
100
AcDbEntity
8
E-0
6
CONTINUOUS
62
6
100
AcDbLine
10
578.578362000000
20
176.501179243530
30
0.0
11
591.549324000000
21
176.501179243530
31
0.0
0
LINE
5
7e5
100
AcDbEntity
8
E-0
6
CONTINUOUS
62
6
100
AcDbLine
10
611.866478000000
20
176.501179243530
30
0.0
11
622.866478000000
21
176.501179243530
31
0.0
0
LINE
5
7e6
100
AcDbEntity
8
E-0
6
CONTINUOUS
62
6
100
AcDbLine
10
333.424832000000
20
178.501179243530
30
0.0
11
356.515812000000
21
178.501179243530
31
0.0
0
LINE
5
7e7
100
AcDbEntity
8
E-0
6
CONTINUOUS
62
6
100
AcDbLine
10
384.449252000000
20
178.501179243530
30
0.0
11
397.449252000000
21
178.501179243530
31
0.0
0
LINE
5
7e8
100
AcDbEntity
8
E-0
6
CONTINUOUS
62
6
100
AcDbLine
10
420.902777000000
20
178.501179243530
30
0.0
11
437.445208000000
21
178.501179243530
31
0.0
0
LINE
5
7e9
100
AcDbEntity
8
E-0
6
CONTINUOUS
62
6
100
AcDbLine
10
446.044944000000
20
178.501179243530
30
0.0
11
459.044944000000
21
178.501179243530
31
0.0
0
LINE
5
7ea
100
AcDbEntity
8
E-0
6
CONTINUOUS
62
6
100
AcDbLine
10
488.526765000000
20
178.501179243530
30
0.0
11
501.526765000000
21
178.501179243530
31
0.0
0
LINE
5
7eb
100
AcDbEntity
8
E-0
6
CONTINUOUS
62
6
100
AcDbLine
10
511.526765000000
20
178.501179243530
30
0.0
11
536.072489000000
21
178.501179243530
31
0.0
0
LINE
5
7ec
100
AcDbEntity
8
E-0
6
CONTINUOUS
62
6
100
AcDbLine
10
563.078884000000
20
178.501179243530
30
0.0
11
576.078884000000
21
178.501179243530
31
0.0
0
LINE
5
7ed
100
AcDbEntity
8
E-0
6
CONTINUOUS
62
6
100
AcDbLine
10
577.328623000000
20
178.501179243530
30
0.0
11
590.299586000000
21
178.501179243530
31
0.0
0
LINE
5
7ee
100
AcDbEntity
8
E-0
6
CONTINUOUS
62
6
100
AcDbLine
10
611.866478000000
20
178.501179243530
30
0.0
11
622.866478000000
21
178.501179243530
31
0.0
0
LINE
5
7ef
100
AcDbEntity
8
E-0
6
CONTINUOUS
62
6
100
AcDbLine
10
334.357447000000
20
180.501179243530
30
0.0
11
355.583197000000
21
180.501179243530
31
0.0
0
LINE
5
7f0
100
AcDbEntity
8
E-0
6
CONTINUOUS
62
6
100
AcDbLine
10
384.449252000000
20
180.501179243530
30
0.0
11
397.449252000000
21
180.501179243530
31
0.0
0
LINE
5
7f1
100
AcDbEntity
8
E-0
6
CONTINUOUS
62
6
100
AcDbLine
10
417.449252000000
20
180.501179243530
30
0.0
11
436.449252000000
21
180.501179243530
31
0.0
0
LINE
5
7f2
100
AcDbEntity
8
E-0
6
CONTINUOUS
62
6
100
AcDbLine
10
445.112328000000
20
180.501179243530
30
0.0
11
458.112328000000
21
180.501179243530
31
0.0
0
LINE
5
7f3
100
AcDbEntity
8
E-0
6
CONTINUOUS
62
6
100
AcDbLine
10
489.459381000000
20
180.501179243530
30
0.0
11
502.459381000000
21
180.501179243530
31
0.0
0
LINE
5
7f4
100
AcDbEntity
8
E-0
6
CONTINUOUS
62
6
100
AcDbLine
10
512.459381000000
20
180.501179243530
30
0.0
11
535.139874000000
21
180.501179243530
31
0.0
0
LINE
5
7f5
100
AcDbEntity
8
E-0
6
CONTINUOUS
62
6
100
AcDbLine
10
563.078884000000
20
180.501179243530
30
0.0
11
576.078884000000
21
180.501179243530
31
0.0
0
LINE
5
7f6
100
AcDbEntity
8
E-0
6
CONTINUOUS
62
6
100
AcDbLine
10
576.078884000000
20
180.501179243530
30
0.0
11
589.049847000000
21
180.501179243530
31
0.0
0
LINE
5
7f7
100
AcDbEntity
8
E-0
6
CONTINUOUS
62
6
100
AcDbLine
10
611.866478000000
20
180.501179243530
30
0.0
11
622.866478000000
21
180.501179243530
31
0.0
0
LINE
5
7f8
100
AcDbEntity
8
E-0
6
CONTINUOUS
62
6
100
AcDbLine
10
335.290063000000
20
182.501179243530
30
0.0
11
354.650581000000
21
182.501179243530
31
0.0
0
LINE
5
7f9
100
AcDbEntity
8
E-0
6
CONTINUOUS
62
6
100
AcDbLine
10
384.449252000000
20
182.501179243530
30
0.0
11
434.859385000000
21
182.501179243530
31
0.0
0
LINE
5
7fa
100
AcDbEntity
8
E-0
6
CONTINUOUS
62
6
100
AcDbLine
10
444.179713000000
20
182.501179243530
30
0.0
11
457.179713000000
21
182.501179243530
31
0.0
0
LINE
5
7fb
100
AcDbEntity
8
E-0
6
CONTINUOUS
62
6
100
AcDbLine
10
490.391996000000
20
182.501179243530
30
0.0
11
503.391996000000
21
182.501179243530
31
0.0
0
LINE
5
7fc
100
AcDbEntity
8
E-0
6
CONTINUOUS
62
6
100
AcDbLine
10
513.391996000000
20
182.501179243530
30
0.0
11
534.207258000000
21
182.501179243530
31
0.0
0
LINE
5
7fd
100
AcDbEntity
8
E-0
6
CONTINUOUS
62
6
100
AcDbLine
10
563.078884000000
20
182.501179243530
30
0.0
11
587.800108000000
21
182.501179243530
31
0.0
0
LINE
5
7fe
100
AcDbEntity
8
E-0
6
CONTINUOUS
62
6
100
AcDbLine
10
611.866478000000
20
182.501179243530
30
0.0
11
622.866478000000
21
182.501179243530
31
0.0
0
LINE
5
7ff
100
AcDbEntity
8
E-0
6
CONTINUOUS
62
6
100
AcDbLine
10
336.222678000000
20
184.501179243530
30
0.0
11
353.717966000000
21
184.501179243530
31
0.0
0
LINE
5
800
100
AcDbEntity
8
E-0
6
CONTINUOUS
62
6
100
AcDbLine
10
384.449252000000
20
184.501179243530
30
0.0
11
432.615118000000
21
184.501179243530
31
0.0
0
LINE
5
801
100
AcDbEntity
8
E-0
6
CONTINUOUS
62
6
100
AcDbLine
10
443.247098000000
20
184.501179243530
30
0.0
11
456.247098000000
21
184.501179243530
31
0.0
0
LINE
5
802
100
AcDbEntity
8
E-0
6
CONTINUOUS
62
6
100
AcDbLine
10
491.324611000000
20
184.501179243530
30
0.0
11
504.324611000000
21
184.501179243530
31
0.0
0
LINE
5
803
100
AcDbEntity
8
E-0
6
CONTINUOUS
62
6
100
AcDbLine
10
514.324611000000
20
184.501179243530
30
0.0
11
533.274643000000
21
184.501179243530
31
0.0
0
LINE
5
804
100
AcDbEntity
8
E-0
6
CONTINUOUS
62
6
100
AcDbLine
10
563.078884000000
20
184.501179243530
30
0.0
11
586.550369000001
21
184.501179243530
31
0.0
0
LINE
5
805
100
AcDbEntity
8
E-0
6
CONTINUOUS
62
6
100
AcDbLine
10
611.866478000000
20
184.501179243530
30
0.0
11
622.866478000000
21
184.501179243530
31
0.0
0
LINE
5
806
100
AcDbEntity
8
E-0
6
CONTINUOUS
62
6
100
AcDbLine
10
337.155293000000
20
186.501179243530
30
0.0
11
352.785351000000
21
186.501179243530
31
0.0
0
LINE
5
807
100
AcDbEntity
8
E-0
6
CONTINUOUS
62
6
100
AcDbLine
10
384.449252000000
20
186.501179243530
30
0.0
11
429.277320000000
21
186.501179243530
31
0.0
0
LINE
5
808
100
AcDbEntity
8
E-0
6
CONTINUOUS
62
6
100
AcDbLine
10
442.314482000000
20
186.501179243530
30
0.0
11
455.314482000000
21
186.501179243530
31
0.0
0
LINE
5
809
100
AcDbEntity
8
E-0
6
CONTINUOUS
62
6
100
AcDbLine
10
492.257227000000
20
186.501179243530
30
0.0
11
505.257227000000
21
186.501179243530
31
0.0
0
LINE
5
80a
100
AcDbEntity
8
E-0
6
CONTINUOUS
62
6
100
AcDbLine
10
515.257227000000
20
186.501179243530
30
0.0
11
532.342028000000
21
186.501179243530
31
0.0
0
LINE
5
80b
100
AcDbEntity
8
E-0
6
CONTINUOUS
62
6
100
AcDbLine
10
563.078884000000
20
186.501179243530
30
0.0
11
585.300631000000
21
186.501179243530
31
0.0
0
LINE
5
80c
100
AcDbEntity
8
E-0
6
CONTINUOUS
62
6
100
AcDbLine
10
611.866478000000
20
186.501179243530
30
0.0
11
622.866478000000
21
186.501179243530
31
0.0
0
LINE
5
80d
100
AcDbEntity
8
E-0
6
CONTINUOUS
62
6
100
AcDbLine
10
338.087908000000
20
188.501179243530
30
0.0
11
351.852735000000
21
188.501179243530
31
0.0
0
LINE
5
80e
100
AcDbEntity
8
E-0
6
CONTINUOUS
62
6
100
AcDbLine
10
384.449252000000
20
188.501179243530
30
0.0
11
424.449252000000
21
188.501179243530
31
0.0
0
LINE
5
80f
100
AcDbEntity
8
E-0
6
CONTINUOUS
62
6
100
AcDbLine
10
441.381867000000
20
188.501179243530
30
0.0
11
454.381867000000
21
188.501179243530
31
0.0
0
LINE
5
810
100
AcDbEntity
8
E-0
6
CONTINUOUS
62
6
100
AcDbLine
10
493.189842000000
20
188.501179243530
30
0.0
11
506.189842000000
21
188.501179243530
31
0.0
0
LINE
5
811
100
AcDbEntity
8
E-0
6
CONTINUOUS
62
6
100
AcDbLine
10
516.189842000000
20
188.501179243530
30
0.0
11
531.409412000000
21
188.501179243530
31
0.0
0
LINE
5
812
100
AcDbEntity
8
E-0
6
CONTINUOUS
62
6
100
AcDbLine
10
563.078884000000
20
188.501179243530
30
0.0
11
584.050892000000
21
188.501179243530
31
0.0
0
LINE
5
813
100
AcDbEntity
8
E-0
6
CONTINUOUS
62
6
100
AcDbLine
10
611.866478000000
20
188.501179243530
30
0.0
11
622.866478000000
21
188.501179243530
31
0.0
0
LINE
5
814
100
AcDbEntity
8
E-0
6
CONTINUOUS
62
6
100
AcDbLine
10
339.020524000000
20
190.501179243530
30
0.0
11
350.920120000000
21
190.501179243530
31
0.0
0
LINE
5
815
100
AcDbEntity
8
E-0
6
CONTINUOUS
62
6
100
AcDbLine
10
384.449252000000
20
190.501179243530
30
0.0
11
417.449252000000
21
190.501179243530
31
0.0
0
LINE
5
816
100
AcDbEntity
8
E-0
6
CONTINUOUS
62
6
100
AcDbLine
10
440.449252000000
20
190.501179243530
30
0.0
11
453.449252000000
21
190.501179243530
31
0.0
0
LINE
5
817
100
AcDbEntity
8
E-0
6
CONTINUOUS
62
6
100
AcDbLine
10
494.122457000000
20
190.501179243530
30
0.0
11
507.122457000000
21
190.501179243530
31
0.0
0
LINE
5
818
100
AcDbEntity
8
E-0
6
CONTINUOUS
62
6
100
AcDbLine
10
517.122457000000
20
190.501179243530
30
0.0
11
530.476797000000
21
190.501179243530
31
0.0
0
LINE
5
819
100
AcDbEntity
8
E-0
6
CONTINUOUS
62
6
100
AcDbLine
10
563.078884000000
20
190.501179243530
30
0.0
11
582.801153000000
21
190.501179243530
31
0.0
0
LINE
5
81a
100
AcDbEntity
8
E-0
6
CONTINUOUS
62
6
100
AcDbLine
10
611.866478000000
20
190.501179243530
30
0.0
11
622.866478000000
21
190.501179243530
31
0.0
0
LINE
5
81b
100
AcDbEntity
8
E-0
6
CONTINUOUS
62
6
100
AcDbLine
10
312.440987000000
20
133.501179243530
30
0.0
11
325.440987000000
21
133.501179243530
31
0.0
0
LINE
5
81c
100
AcDbEntity
8
E-0
6
CONTINUOUS
62
6
100
AcDbLine
10
364.499657000000
20
133.501179243530
30
0.0
11
377.499657000000
21
133.501179243530
31
0.0
0
LINE
5
81d
100
AcDbEntity
8
E-0
6
CONTINUOUS
62
6
100
AcDbLine
10
384.449252000000
20
133.501179243530
30
0.0
11
419.556524000000
21
133.501179243530
31
0.0
0
LINE
5
81e
100
AcDbEntity
8
E-0
6
CONTINUOUS
62
6
100
AcDbLine
10
467.028788000000
20
133.501179243530
30
0.0
11
480.542921000000
21
133.501179243530
31
0.0
0
LINE
5
81f
100
AcDbEntity
8
E-0
6
CONTINUOUS
62
6
100
AcDbLine
10
490.542921000000
20
133.501179243530
30
0.0
11
503.542921000000
21
133.501179243530
31
0.0
0
LINE
5
820
100
AcDbEntity
8
E-0
6
CONTINUOUS
62
6
100
AcDbLine
10
544.056333000000
20
133.501179243530
30
0.0
11
557.056333000000
21
133.501179243530
31
0.0
0
LINE
5
821
100
AcDbEntity
8
E-0
6
CONTINUOUS
62
6
100
AcDbLine
10
563.078884000000
20
133.501179243530
30
0.0
11
576.078884000000
21
133.501179243530
31
0.0
0
LINE
5
822
100
AcDbEntity
8
E-0
6
CONTINUOUS
62
6
100
AcDbLine
10
605.447744000000
20
133.501179243530
30
0.0
11
622.866478000000
21
133.501179243530
31
0.0
0
LINE
5
823
100
AcDbEntity
8
E-0
6
CONTINUOUS
62
6
100
AcDbLine
10
313.373603000000
20
135.501179243530
30
0.0
11
326.373603000000
21
135.501179243530
31
0.0
0
LINE
5
824
100
AcDbEntity
8
E-0
6
CONTINUOUS
62
6
100
AcDbLine
10
363.567041000000
20
135.501179243530
30
0.0
11
376.567041000000
21
135.501179243530
31
0.0
0
LINE
5
825
100
AcDbEntity
8
E-0
6
CONTINUOUS
62
6
100
AcDbLine
10
384.449252000000
20
135.501179243530
30
0.0
11
425.974878000000
21
135.501179243530
31
0.0
0
LINE
5
826
100
AcDbEntity
8
E-0
6
CONTINUOUS
62
6
100
AcDbLine
10
466.096173000000
20
135.501179243530
30
0.0
11
481.475536000000
21
135.501179243530
31
0.0
0
LINE
5
827
100
AcDbEntity
8
E-0
6
CONTINUOUS
62
6
100
AcDbLine
10
491.475536000000
20
135.501179243530
30
0.0
11
504.475536000000
21
135.501179243530
31
0.0
0
LINE
5
828
100
AcDbEntity
8
E-0
6
CONTINUOUS
62
6
100
AcDbLine
10
543.123718000000
20
135.501179243530
30
0.0
11
556.123718000000
21
135.501179243530
31
0.0
0
LINE
5
829
100
AcDbEntity
8
E-0
6
CONTINUOUS
62
6
100
AcDbLine
10
563.078884000000
20
135.501179243530
30
0.0
11
576.078884000000
21
135.501179243530
31
0.0
0
LINE
5
82a
100
AcDbEntity
8
E-0
6
CONTINUOUS
62
6
100
AcDbLine
10
604.198005000000
20
135.501179243530
30
0.0
11
622.866478000000
21
135.501179243530
31
0.0
0
LINE
5
82b
100
AcDbEntity
8
E-0
6
CONTINUOUS
62
6
100
AcDbLine
10
314.306218000000
20
137.501179243530
30
0.0
11
327.306218000000
21
137.501179243530
31
0.0
0
LINE
5
82c
100
AcDbEntity
8
E-0
6
CONTINUOUS
62
6
100
AcDbLine
10
362.634426000000
20
137.501179243530
30
0.0
11
375.634426000000
21
137.501179243530
31
0.0
0
LINE
5
82d
100
AcDbEntity
8
E-0
6
CONTINUOUS
62
6
100
AcDbLine
10
384.449252000000
20
137.501179243530
30
0.0
11
430.362980000000
21
137.501179243530
31
0.0
0
LINE
5
82e
100
AcDbEntity
8
E-0
6
CONTINUOUS
62
6
100
AcDbLine
10
465.163558000000
20
137.501179243530
30
0.0
11
482.408151000000
21
137.501179243530
31
0.0
0
LINE
5
82f
100
AcDbEntity
8
E-0
6
CONTINUOUS
62
6
100
AcDbLine
10
492.408151000000
20
137.501179243530
30
0.0
11
505.408151000000
21
137.501179243530
31
0.0
0
LINE
5
830
100
AcDbEntity
8
E-0
6
CONTINUOUS
62
6
100
AcDbLine
10
542.191103000000
20
137.501179243530
30
0.0
11
555.191103000000
21
137.501179243530
31
0.0
0
LINE
5
831
100
AcDbEntity
8
E-0
6
CONTINUOUS
62
6
100
AcDbLine
10
563.078884000000
20
137.501179243530
30
0.0
11
576.078884000000
21
137.501179243530
31
0.0
0
LINE
5
832
100
AcDbEntity
8
E-0
6
CONTINUOUS
62
6
100
AcDbLine
10
602.948267000000
20
137.501179243530
30
0.0
11
622.866478000000
21
137.501179243530
31
0.0
0
LINE
5
833
100
AcDbEntity
8
E-0
6
CONTINUOUS
62
6
100
AcDbLine
10
315.238833000000
20
139.501179243530
30
0.0
11
328.238833000000
21
139.501179243530
31
0.0
0
LINE
5
834
100
AcDbEntity
8
E-0
6
CONTINUOUS
62
6
100
AcDbLine
10
361.701811000000
20
139.501179243530
30
0.0
11
374.701811000000
21
139.501179243530
31
0.0
0
LINE
5
835
100
AcDbEntity
8
E-0
6
CONTINUOUS
62
6
100
AcDbLine
10
384.449252000000
20
139.501179243530
30
0.0
11
433.305918000000
21
139.501179243530
31
0.0
0
LINE
5
836
100
AcDbEntity
8
E-0
6
CONTINUOUS
62
6
100
AcDbLine
10
464.230942000000
20
139.501179243530
30
0.0
11
483.340767000000
21
139.501179243530
31
0.0
0
LINE
5
837
100
AcDbEntity
8
E-0
6
CONTINUOUS
62
6
100
AcDbLine
10
493.340767000000
20
139.501179243530
30
0.0
11
506.340767000000
21
139.501179243530
31
0.0
0
LINE
5
838
100
AcDbEntity
8
E-0
6
CONTINUOUS
62
6
100
AcDbLine
10
541.258488000000
20
139.501179243530
30
0.0
11
554.258488000000
21
139.501179243530
31
0.0
0
LINE
5
839
100
AcDbEntity
8
E-0
6
CONTINUOUS
62
6
100
AcDbLine
10
563.078884000000
20
139.501179243530
30
0.0
11
576.078884000000
21
139.501179243530
31
0.0
0
LINE
5
83a
100
AcDbEntity
8
E-0
6
CONTINUOUS
62
6
100
AcDbLine
10
601.698528000000
20
139.501179243530
30
0.0
11
622.866478000000
21
139.501179243530
31
0.0
0
LINE
5
83b
100
AcDbEntity
8
E-0
6
CONTINUOUS
62
6
100
AcDbLine
10
316.171449000000
20
141.501179243530
30
0.0
11
329.171449000000
21
141.501179243530
31
0.0
0
LINE
5
83c
100
AcDbEntity
8
E-0
6
CONTINUOUS
62
6
100
AcDbLine
10
360.769195000000
20
141.501179243530
30
0.0
11
373.769195000000
21
141.501179243530
31
0.0
0
LINE
5
83d
100
AcDbEntity
8
E-0
6
CONTINUOUS
62
6
100
AcDbLine
10
384.449252000000
20
141.501179243530
30
0.0
11
435.368275000000
21
141.501179243530
31
0.0
0
LINE
5
83e
100
AcDbEntity
8
E-0
6
CONTINUOUS
62
6
100
AcDbLine
10
463.298327000000
20
141.501179243530
30
0.0
11
484.273382000000
21
141.501179243530
31
0.0
0
LINE
5
83f
100
AcDbEntity
8
E-0
6
CONTINUOUS
62
6
100
AcDbLine
10
494.273382000000
20
141.501179243530
30
0.0
11
507.273382000000
21
141.501179243530
31
0.0
0
LINE
5
840
100
AcDbEntity
8
E-0
6
CONTINUOUS
62
6
100
AcDbLine
10
540.325872000000
20
141.501179243530
30
0.0
11
553.325872000000
21
141.501179243530
31
0.0
0
LINE
5
841
100
AcDbEntity
8
E-0
6
CONTINUOUS
62
6
100
AcDbLine
10
563.078884000000
20
141.501179243530
30
0.0
11
576.078884000000
21
141.501179243530
31
0.0
0
LINE
5
842
100
AcDbEntity
8
E-0
6
CONTINUOUS
62
6
100
AcDbLine
10
600.448789000000
20
141.501179243530
30
0.0
11
622.866478000000
21
141.501179243530
31
0.0
0
LINE
5
843
100
AcDbEntity
8
E-0
6
CONTINUOUS
62
6
100
AcDbLine
10
317.104064000000
20
143.501179243530
30
0.0
11
330.104064000000
21
143.501179243530
31
0.0
0
LINE
5
844
100
AcDbEntity
8
E-0
6
CONTINUOUS
62
6
100
AcDbLine
10
359.836580000000
20
143.501179243530
30
0.0
11
372.836580000000
21
143.501179243530
31
0.0
0
LINE
5
845
100
AcDbEntity
8
E-0
6
CONTINUOUS
62
6
100
AcDbLine
10
384.449252000000
20
143.501179243530
30
0.0
11
397.449252000000
21
143.501179243530
31
0.0
0
LINE
5
846
100
AcDbEntity
8
E-0
6
CONTINUOUS
62
6
100
AcDbLine
10
418.447700000000
20
143.501179243530
30
0.0
11
436.761059000000
21
143.501179243530
31
0.0
0
LINE
5
847
100
AcDbEntity
8
E-0
6
CONTINUOUS
62
6
100
AcDbLine
10
462.365712000000
20
143.501179243530
30
0.0
11
485.205997000000
21
143.501179243530
31
0.0
0
LINE
5
848
100
AcDbEntity
8
E-0
6
CONTINUOUS
62
6
100
AcDbLine
10
495.205997000000
20
143.501179243530
30
0.0
11
508.205997000000
21
143.501179243530
31
0.0
0
LINE
5
849
100
AcDbEntity
8
E-0
6
CONTINUOUS
62
6
100
AcDbLine
10
539.393257000000
20
143.501179243530
30
0.0
11
552.393257000000
21
143.501179243530
31
0.0
0
LINE
5
84a
100
AcDbEntity
8
E-0
6
CONTINUOUS
62
6
100
AcDbLine
10
563.078884000000
20
143.501179243530
30
0.0
11
576.078884000000
21
143.501179243530
31
0.0
0
LINE
5
84b
100
AcDbEntity
8
E-0
6
CONTINUOUS
62
6
100
AcDbLine
10
599.199050000000
20
143.501179243530
30
0.0
11
622.866478000000
21
143.501179243530
31
0.0
0
LINE
5
84c
100
AcDbEntity
8
E-0
6
CONTINUOUS
62
6
100
AcDbLine
10
318.036679000000
20
145.501179243530
30
0.0
11
331.036679000000
21
145.501179243530
31
0.0
0
LINE
5
84d
100
AcDbEntity
8
E-0
6
CONTINUOUS
62
6
100
AcDbLine
10
358.903965000000
20
145.501179243530
30
0.0
11
371.903965000000
21
145.501179243530
31
0.0
0
LINE
5
84e
100
AcDbEntity
8
E-0
6
CONTINUOUS
62
6
100
AcDbLine
10
384.449252000000
20
145.501179243530
30
0.0
11
397.449252000000
21
145.501179243530
31
0.0
0
LINE
5
84f
100
AcDbEntity
8
E-0
6
CONTINUOUS
62
6
100
AcDbLine
10
421.726038000000
20
145.501179243530
30
0.0
11
437.656817000000
21
145.501179243530
31
0.0
0
LINE
5
850
100
AcDbEntity
8
E-0
6
CONTINUOUS
62
6
100
AcDbLine
10
461.433096000000
20
145.501179243530
30
0.0
11
486.138613000000
21
145.501179243530
31
0.0
0
LINE
5
851
100
AcDbEntity
8
E-0
6
CONTINUOUS
62
6
100
AcDbLine
10
496.138613000000
20
145.501179243530
30
0.0
11
509.138613000000
21
145.501179243530
31
0.0
0
LINE
5
852
100
AcDbEntity
8
E-0
6
CONTINUOUS
62
6
100
AcDbLine
10
538.460642000000
20
145.501179243530
30
0.0
11
551.460642000000
21
145.501179243530
31
0.0
0
LINE
5
853
100
AcDbEntity
8
E-0
6
CONTINUOUS
62
6
100
AcDbLine
10
563.078884000000
20
145.501179243530
30
0.0
11
576.078884000000
21
145.501179243530
31
0.0
0
LINE
5
854
100
AcDbEntity
8
E-0
6
CONTINUOUS
62
6
100
AcDbLine
10
597.949312000000
20
145.501179243530
30
0.0
11
610.920274000000
21
145.501179243530
31
0.0
0
LINE
5
855
100
AcDbEntity
8
E-0
6
CONTINUOUS
62
6
100
AcDbLine
10
611.866478000000
20
145.501179243530
30
0.0
11
622.866478000000
21
145.501179243530
31
0.0
0
LINE
5
856
100
AcDbEntity
8
E-0
6
CONTINUOUS
62
6
100
AcDbLine
10
318.969295000000
20
147.501179243530
30
0.0
11
370.971349000000
21
147.501179243530
31
0.0
0
LINE
5
857
100
AcDbEntity
8
E-0
6
CONTINUOUS
62
6
100
AcDbLine
10
384.449252000000
20
147.501179243530
30
0.0
11
397.449252000000
21
147.501179243530
31
0.0
0
LINE
5
858
100
AcDbEntity
8
E-0
6
CONTINUOUS
62
6
100
AcDbLine
10
424.056404000000
20
147.501179243530
30
0.0
11
438.319403000000
21
147.501179243530
31
0.0
0
LINE
5
859
100
AcDbEntity
8
E-0
6
CONTINUOUS
62
6
100
AcDbLine
10
460.500481000000
20
147.501179243530
30
0.0
11
473.500481000000
21
147.501179243530
31
0.0
0
LINE
5
85a
100
AcDbEntity
8
E-0
6
CONTINUOUS
62
6
100
AcDbLine
10
474.071228000000
20
147.501179243530
30
0.0
11
487.071228000000
21
147.501179243530
31
0.0
0
LINE
5
85b
100
AcDbEntity
8
E-0
6
CONTINUOUS
62
6
100
AcDbLine
10
497.071228000000
20
147.501179243530
30
0.0
11
550.528026000000
21
147.501179243530
31
0.0
0
LINE
5
85c
100
AcDbEntity
8
E-0
6
CONTINUOUS
62
6
100
AcDbLine
10
563.078884000000
20
147.501179243530
30
0.0
11
576.078884000000
21
147.501179243530
31
0.0
0
LINE
5
85d
100
AcDbEntity
8
E-0
6
CONTINUOUS
62
6
100
AcDbLine
10
596.699573000000
20
147.501179243530
30
0.0
11
609.670535000000
21
147.501179243530
31
0.0
0
LINE
5
85e
100
AcDbEntity
8
E-0
6
CONTINUOUS
62
6
100
AcDbLine
10
611.866478000000
20
147.501179243530
30
0.0
11
622.866478000000
21
147.501179243530
31
0.0
0
LINE
5
85f
100
AcDbEntity
8
E-0
6
CONTINUOUS
62
6
100
AcDbLine
10
319.901910000000
20
149.501179243530
30
0.0
11
370.038734000000
21
149.501179243530
31
0.0
0
LINE
5
860
100
AcDbEntity
8
E-0
6
CONTINUOUS
62
6
100
AcDbLine
10
384.449252000000
20
149.501179243530
30
0.0
11
397.449252000000
21
149.501179243530
31
0.0
0
LINE
5
861
100
AcDbEntity
8
E-0
6
CONTINUOUS
62
6
100
AcDbLine
10
425.432197000000
20
149.501179243530
30
0.0
11
438.861181000000
21
149.501179243530
31
0.0
0
LINE
5
862
100
AcDbEntity
8
E-0
6
CONTINUOUS
62
6
100
AcDbLine
10
459.567866000000
20
149.501179243530
30
0.0
11
472.567866000000
21
149.501179243530
31
0.0
0
LINE
5
863
100
AcDbEntity
8
E-0
6
CONTINUOUS
62
6
100
AcDbLine
10
475.003843000000
20
149.501179243530
30
0.0
11
488.003843000000
21
149.501179243530
31
0.0
0
LINE
5
864
100
AcDbEntity
8
E-0
6
CONTINUOUS
62
6
100
AcDbLine
10
498.003843000000
20
149.501179243530
30
0.0
11
549.595411000000
21
149.501179243530
31
0.0
0
LINE
5
865
100
AcDbEntity
8
E-0
6
CONTINUOUS
62
6
100
AcDbLine
10
563.078884000000
20
149.501179243530
30
0.0
11
576.078884000000
21
149.501179243530
31
0.0
0
LINE
5
866
100
AcDbEntity
8
E-0
6
CONTINUOUS
62
6
100
AcDbLine
10
595.449834000000
20
149.501179243530
30
0.0
11
608.420797000000
21
149.501179243530
31
0.0
0
LINE
5
867
100
AcDbEntity
8
E-0
6
CONTINUOUS
62
6
100
AcDbLine
10
611.866478000000
20
149.501179243530
30
0.0
11
622.866478000000
21
149.501179243530
31
0.0
0
LINE
5
868
100
AcDbEntity
8
E-0
6
CONTINUOUS
62
6
100
AcDbLine
10
320.834525000000
20
151.501179243530
30
0.0
11
369.106119000000
21
151.501179243530
31
0.0
0
LINE
5
869
100
AcDbEntity
8
E-0
6
CONTINUOUS
62
6
100
AcDbLine
10
384.449252000000
20
151.501179243530
30
0.0
11
397.449252000000
21
151.501179243530
31
0.0
0
LINE
5
86a
100
AcDbEntity
8
E-0
6
CONTINUOUS
62
6
100
AcDbLine
10
426.301737000000
20
151.501179243530
30
0.0
11
439.333218000000
21
151.501179243530
31
0.0
0
LINE
5
86b
100
AcDbEntity
8
E-0
6
CONTINUOUS
62
6
100
AcDbLine
10
458.635250000000
20
151.501179243530
30
0.0
11
471.635250000000
21
151.501179243530
31
0.0
0
LINE
5
86c
100
AcDbEntity
8
E-0
6
CONTINUOUS
62
6
100
AcDbLine
10
475.936459000000
20
151.501179243530
30
0.0
11
488.936459000000
21
151.501179243530
31
0.0
0
LINE
5
86d
100
AcDbEntity
8
E-0
6
CONTINUOUS
62
6
100
AcDbLine
10
498.936459000000
20
151.501179243530
30
0.0
11
548.662796000000
21
151.501179243530
31
0.0
0
LINE
5
86e
100
AcDbEntity
8
E-0
6
CONTINUOUS
62
6
100
AcDbLine
10
563.078884000000
20
151.501179243530
30
0.0
11
576.078884000000
21
151.501179243530
31
0.0
0
LINE
5
86f
100
AcDbEntity
8
E-0
6
CONTINUOUS
62
6
100
AcDbLine
10
594.200096000000
20
151.501179243530
30
0.0
11
607.171058000000
21
151.501179243530
31
0.0
0
LINE
5
870
100
AcDbEntity
8
E-0
6
CONTINUOUS
62
6
100
AcDbLine
10
611.866478000000
20
151.501179243530
30
0.0
11
622.866478000000
21
151.501179243530
31
0.0
0
LINE
5
871
100
AcDbEntity
8
E-0
6
CONTINUOUS
62
6
100
AcDbLine
10
321.767140000000
20
153.501179243530
30
0.0
11
368.173503000000
21
153.501179243530
31
0.0
0
LINE
5
872
100
AcDbEntity
8
E-0
6
CONTINUOUS
62
6
100
AcDbLine
10
384.449252000000
20
153.501179243530
30
0.0
11
397.449252000000
21
153.501179243530
31
0.0
0
LINE
5
873
100
AcDbEntity
8
E-0
6
CONTINUOUS
62
6
100
AcDbLine
10
426.844425000000
20
153.501179243530
30
0.0
11
439.718723000000
21
153.501179243530
31
0.0
0
LINE
5
874
100
AcDbEntity
8
E-0
6
CONTINUOUS
62
6
100
AcDbLine
10
457.702635000000
20
153.501179243530
30
0.0
11
470.702635000000
21
153.501179243530
31
0.0
0
LINE
5
875
100
AcDbEntity
8
E-0
6
CONTINUOUS
62
6
100
AcDbLine
10
476.869074000000
20
153.501179243530
30
0.0
11
489.869074000000
21
153.501179243530
31
0.0
0
LINE
5
876
100
AcDbEntity
8
E-0
6
CONTINUOUS
62
6
100
AcDbLine
10
499.869074000000
20
153.501179243530
30
0.0
11
547.730180000000
21
153.501179243530
31
0.0
0
LINE
5
877
100
AcDbEntity
8
E-0
6
CONTINUOUS
62
6
100
AcDbLine
10
563.078884000000
20
153.501179243530
30
0.0
11
576.078884000000
21
153.501179243530
31
0.0
0
LINE
5
878
100
AcDbEntity
8
E-0
6
CONTINUOUS
62
6
100
AcDbLine
10
592.950357000000
20
153.501179243530
30
0.0
11
605.921319000000
21
153.501179243530
31
0.0
0
LINE
5
879
100
AcDbEntity
8
E-0
6
CONTINUOUS
62
6
100
AcDbLine
10
611.866478000000
20
153.501179243530
30
0.0
11
622.866478000000
21
153.501179243530
31
0.0
0
LINE
5
87a
100
AcDbEntity
8
E-0
6
CONTINUOUS
62
6
100
AcDbLine
10
322.699756000000
20
155.501179243530
30
0.0
11
367.240888000000
21
155.501179243530
31
0.0
0
LINE
5
87b
100
AcDbEntity
8
E-0
6
CONTINUOUS
62
6
100
AcDbLine
10
384.449252000000
20
155.501179243530
30
0.0
11
397.449252000000
21
155.501179243530
31
0.0
0
LINE
5
87c
100
AcDbEntity
8
E-0
6
CONTINUOUS
62
6
100
AcDbLine
10
427.174186000000
20
155.501179243530
30
0.0
11
440.021846000000
21
155.501179243530
31
0.0
0
LINE
5
87d
100
AcDbEntity
8
E-0
6
CONTINUOUS
62
6
100
AcDbLine
10
456.770020000000
20
155.501179243530
30
0.0
11
469.770020000000
21
155.501179243530
31
0.0
0
LINE
5
87e
100
AcDbEntity
8
E-0
6
CONTINUOUS
62
6
100
AcDbLine
10
477.801689000000
20
155.501179243530
30
0.0
11
490.801689000000
21
155.501179243530
31
0.0
0
LINE
5
87f
100
AcDbEntity
8
E-0
6
CONTINUOUS
62
6
100
AcDbLine
10
500.801689000000
20
155.501179243530
30
0.0
11
546.797565000000
21
155.501179243530
31
0.0
0
LINE
5
880
100
AcDbEntity
8
E-0
6
CONTINUOUS
62
6
100
AcDbLine
10
563.078884000000
20
155.501179243530
30
0.0
11
576.078884000000
21
155.501179243530
31
0.0
0
LINE
5
881
100
AcDbEntity
8
E-0
6
CONTINUOUS
62
6
100
AcDbLine
10
591.700618000000
20
155.501179243530
30
0.0
11
604.671581000000
21
155.501179243530
31
0.0
0
LINE
5
882
100
AcDbEntity
8
E-0
6
CONTINUOUS
62
6
100
AcDbLine
10
611.866478000000
20
155.501179243530
30
0.0
11
622.866478000000
21
155.501179243530
31
0.0
0
LINE
5
883
100
AcDbEntity
8
E-0
6
CONTINUOUS
62
6
100
AcDbLine
10
323.632371000000
20
157.501179243530
30
0.0
11
336.632371000000
21
157.501179243530
31
0.0
0
LINE
5
884
100
AcDbEntity
8
E-0
6
CONTINUOUS
62
6
100
AcDbLine
10
353.308273000000
20
157.501179243530
30
0.0
11
366.308273000000
21
157.501179243530
31
0.0
0
LINE
5
885
100
AcDbEntity
8
E-0
6
CONTINUOUS
62
6
100
AcDbLine
10
384.449252000000
20
157.501179243530
30
0.0
11
397.449252000000
21
157.501179243530
31
0.0
0
LINE
5
886
100
AcDbEntity
8
E-0
6
CONTINUOUS
62
6
100
AcDbLine
10
427.343263000000
20
157.501179243530
30
0.0
11
440.243345000000
21
157.501179243530
31
0.0
0
LINE
5
887
100
AcDbEntity
8
E-0
6
CONTINUOUS
62
6
100
AcDbLine
10
455.837404000000
20
157.501179243530
30
0.0
11
468.837404000000
21
157.501179243530
31
0.0
0
LINE
5
888
100
AcDbEntity
8
E-0
6
CONTINUOUS
62
6
100
AcDbLine
10
478.734305000000
20
157.501179243530
30
0.0
11
491.734305000000
21
157.501179243530
31
0.0
0
LINE
5
889
100
AcDbEntity
8
E-0
6
CONTINUOUS
62
6
100
AcDbLine
10
501.734305000000
20
157.501179243530
30
0.0
11
514.734305000000
21
157.501179243530
31
0.0
0
LINE
5
88a
100
AcDbEntity
8
E-0
6
CONTINUOUS
62
6
100
AcDbLine
10
532.864950000000
20
157.501179243530
30
0.0
11
545.864950000000
21
157.501179243530
31
0.0
0
LINE
5
88b
100
AcDbEntity
8
E-0
6
CONTINUOUS
62
6
100
AcDbLine
10
563.078884000000
20
157.501179243530
30
0.0
11
576.078884000000
21
157.501179243530
31
0.0
0
LINE
5
88c
100
AcDbEntity
8
E-0
6
CONTINUOUS
62
6
100
AcDbLine
10
590.450879000000
20
157.501179243530
30
0.0
11
603.421842000000
21
157.501179243530
31
0.0
0
LINE
5
88d
100
AcDbEntity
8
E-0
6
CONTINUOUS
62
6
100
AcDbLine
10
611.866478000000
20
157.501179243530
30
0.0
11
622.866478000000
21
157.501179243530
31
0.0
0
LINE
5
88e
100
AcDbEntity
8
E-0
6
CONTINUOUS
62
6
100
AcDbLine
10
324.564986000000
20
159.501179243530
30
0.0
11
337.564986000000
21
159.501179243530
31
0.0
0
LINE
5
88f
100
AcDbEntity
8
E-0
6
CONTINUOUS
62
6
100
AcDbLine
10
352.375658000000
20
159.501179243530
30
0.0
11
365.375658000000
21
159.501179243530
31
0.0
0
LINE
5
890
100
AcDbEntity
8
E-0
6
CONTINUOUS
62
6
100
AcDbLine
10
384.449252000000
20
159.501179243530
30
0.0
11
397.449252000000
21
159.501179243530
31
0.0
0
LINE
5
891
100
AcDbEntity
8
E-0
6
CONTINUOUS
62
6
100
AcDbLine
10
427.418451000000
20
159.501179243530
30
0.0
11
440.381584000000
21
159.501179243530
31
0.0
0
LINE
5
892
100
AcDbEntity
8
E-0
6
CONTINUOUS
62
6
100
AcDbLine
10
454.904789000000
20
159.501179243530
30
0.0
11
467.904789000000
21
159.501179243530
31
0.0
0
LINE
5
893
100
AcDbEntity
8
E-0
6
CONTINUOUS
62
6
100
AcDbLine
10
479.666920000000
20
159.501179243530
30
0.0
11
492.666920000000
21
159.501179243530
31
0.0
0
LINE
5
894
100
AcDbEntity
8
E-0
6
CONTINUOUS
62
6
100
AcDbLine
10
502.666920000000
20
159.501179243530
30
0.0
11
515.666920000000
21
159.501179243530
31
0.0
0
LINE
5
895
100
AcDbEntity
8
E-0
6
CONTINUOUS
62
6
100
AcDbLine
10
531.932334000000
20
159.501179243530
30
0.0
11
544.932334000000
21
159.501179243530
31
0.0
0
LINE
5
896
100
AcDbEntity
8
E-0
6
CONTINUOUS
62
6
100
AcDbLine
10
563.078884000000
20
159.501179243530
30
0.0
11
576.078884000000
21
159.501179243530
31
0.0
0
LINE
5
897
100
AcDbEntity
8
E-0
6
CONTINUOUS
62
6
100
AcDbLine
10
589.201141000000
20
159.501179243530
30
0.0
11
602.172103000000
21
159.501179243530
31
0.0
0
LINE
5
898
100
AcDbEntity
8
E-0
6
CONTINUOUS
62
6
100
AcDbLine
10
611.866478000000
20
159.501179243530
30
0.0
11
622.866478000000
21
159.501179243530
31
0.0
0
LINE
5
899
100
AcDbEntity
8
E-0
6
CONTINUOUS
62
6
100
AcDbLine
10
325.497602000000
20
161.501179243530
30
0.0
11
338.497602000000
21
161.501179243530
31
0.0
0
LINE
5
89a
100
AcDbEntity
8
E-0
6
CONTINUOUS
62
6
100
AcDbLine
10
351.443042000000
20
161.501179243530
30
0.0
11
364.443042000000
21
161.501179243530
31
0.0
0
LINE
5
89b
100
AcDbEntity
8
E-0
6
CONTINUOUS
62
6
100
AcDbLine
10
384.449252000000
20
161.501179243530
30
0.0
11
397.449252000000
21
161.501179243530
31
0.0
0
LINE
5
89c
100
AcDbEntity
8
E-0
6
CONTINUOUS
62
6
100
AcDbLine
10
427.448057000000
20
161.501179243530
30
0.0
11
440.446013000000
21
161.501179243530
31
0.0
0
LINE
5
89d
100
AcDbEntity
8
E-0
6
CONTINUOUS
62
6
100
AcDbLine
10
453.972174000000
20
161.501179243530
30
0.0
11
466.972174000000
21
161.501179243530
31
0.0
0
LINE
5
89e
100
AcDbEntity
8
E-0
6
CONTINUOUS
62
6
100
AcDbLine
10
480.599535000000
20
161.501179243530
30
0.0
11
493.599535000000
21
161.501179243530
31
0.0
0
LINE
5
89f
100
AcDbEntity
8
E-0
6
CONTINUOUS
62
6
100
AcDbLine
10
503.599535000000
20
161.501179243530
30
0.0
11
516.599535000000
21
161.501179243530
31
0.0
0
LINE
5
8a0
100
AcDbEntity
8
E-0
6
CONTINUOUS
62
6
100
AcDbLine
10
530.999719000000
20
161.501179243530
30
0.0
11
543.999719000000
21
161.501179243530
31
0.0
0
LINE
5
8a1
100
AcDbEntity
8
E-0
6
CONTINUOUS
62
6
100
AcDbLine
10
563.078884000000
20
161.501179243530
30
0.0
11
576.078884000000
21
161.501179243530
31
0.0
0
LINE
5
8a2
100
AcDbEntity
8
E-0
6
CONTINUOUS
62
6
100
AcDbLine
10
587.951402000000
20
161.501179243530
30
0.0
11
600.922365000000
21
161.501179243530
31
0.0
0
LINE
5
8a3
100
AcDbEntity
8
E-0
6
CONTINUOUS
62
6
100
AcDbLine
10
611.866478000000
20
161.501179243530
30
0.0
11
622.866478000000
21
161.501179243530
31
0.0
0
LINE
5
8a4
100
AcDbEntity
8
E-0
6
CONTINUOUS
62
6
100
AcDbLine
10
326.430217000000
20
163.501179243530
30
0.0
11
339.430217000000
21
163.501179243530
31
0.0
0
LINE
5
8a5
100
AcDbEntity
8
E-0
6
CONTINUOUS
62
6
100
AcDbLine
10
350.510427000000
20
163.501179243530
30
0.0
11
363.510427000000
21
163.501179243530
31
0.0
0
LINE
5
8a6
100
AcDbEntity
8
E-0
6
CONTINUOUS
62
6
100
AcDbLine
10
384.449252000000
20
163.501179243530
30
0.0
11
397.449252000000
21
163.501179243530
31
0.0
0
LINE
5
8a7
100
AcDbEntity
8
E-0
6
CONTINUOUS
62
6
100
AcDbLine
10
427.431952000000
20
163.501179243530
30
0.0
11
440.405426000000
21
163.501179243530
31
0.0
0
LINE
5
8a8
100
AcDbEntity
8
E-0
6
CONTINUOUS
62
6
100
AcDbLine
10
453.039558000000
20
163.501179243530
30
0.0
11
466.039558000000
21
163.501179243530
31
0.0
0
LINE
5
8a9
100
AcDbEntity
8
E-0
6
CONTINUOUS
62
6
100
AcDbLine
10
481.532151000000
20
163.501179243530
30
0.0
11
494.532151000000
21
163.501179243530
31
0.0
0
LINE
5
8aa
100
AcDbEntity
8
E-0
6
CONTINUOUS
62
6
100
AcDbLine
10
504.532151000000
20
163.501179243530
30
0.0
11
517.532151000000
21
163.501179243530
31
0.0
0
LINE
5
8ab
100
AcDbEntity
8
E-0
6
CONTINUOUS
62
6
100
AcDbLine
10
530.067104000000
20
163.501179243530
30
0.0
11
543.067104000000
21
163.501179243530
31
0.0
0
LINE
5
8ac
100
AcDbEntity
8
E-0
6
CONTINUOUS
62
6
100
AcDbLine
10
563.078884000000
20
163.501179243530
30
0.0
11
576.078884000000
21
163.501179243530
31
0.0
0
LINE
5
8ad
100
AcDbEntity
8
E-0
6
CONTINUOUS
62
6
100
AcDbLine
10
586.701663000000
20
163.501179243530
30
0.0
11
599.672626000000
21
163.501179243530
31
0.0
0
LINE
5
8ae
100
AcDbEntity
8
E-0
6
CONTINUOUS
62
6
100
AcDbLine
10
611.866478000000
20
163.501179243530
30
0.0
11
622.866478000000
21
163.501179243530
31
0.0
0
LINE
5
8af
100
AcDbEntity
8
E-0
6
CONTINUOUS
62
6
100
AcDbLine
10
327.362832000000
20
165.501179243530
30
0.0
11
340.362832000000
21
165.501179243530
31
0.0
0
LINE
5
8b0
100
AcDbEntity
8
E-0
6
CONTINUOUS
62
6
100
AcDbLine
10
349.577812000000
20
165.501179243530
30
0.0
11
362.577812000000
21
165.501179243530
31
0.0
0
LINE
5
8b1
100
AcDbEntity
8
E-0
6
CONTINUOUS
62
6
100
AcDbLine
10
384.449252000000
20
165.501179243530
30
0.0
11
397.449252000000
21
165.501179243530
31
0.0
0
LINE
5
8b2
100
AcDbEntity
8
E-0
6
CONTINUOUS
62
6
100
AcDbLine
10
427.371777000000
20
165.501179243530
30
0.0
11
440.288625000000
21
165.501179243530
31
0.0
0
LINE
5
8b3
100
AcDbEntity
8
E-0
6
CONTINUOUS
62
6
100
AcDbLine
10
452.106943000000
20
165.501179243530
30
0.0
11
465.106943000000
21
165.501179243530
31
0.0
0
LINE
5
8b4
100
AcDbEntity
8
E-0
6
CONTINUOUS
62
6
100
AcDbLine
10
482.464766000000
20
165.501179243530
30
0.0
11
495.464766000000
21
165.501179243530
31
0.0
0
LINE
5
8b5
100
AcDbEntity
8
E-0
6
CONTINUOUS
62
6
100
AcDbLine
10
505.464766000000
20
165.501179243530
30
0.0
11
518.464766000000
21
165.501179243530
31
0.0
0
LINE
5
8b6
100
AcDbEntity
8
E-0
6
CONTINUOUS
62
6
100
AcDbLine
10
529.134488000000
20
165.501179243530
30
0.0
11
542.134488000000
21
165.501179243530
31
0.0
0
LINE
5
8b7
100
AcDbEntity
8
E-0
6
CONTINUOUS
62
6
100
AcDbLine
10
563.078884000000
20
165.501179243530
30
0.0
11
576.078884000000
21
165.501179243530
31
0.0
0
LINE
5
8b8
100
AcDbEntity
8
E-0
6
CONTINUOUS
62
6
100
AcDbLine
10
585.451925000000
20
165.501179243530
30
0.0
11
598.422887000000
21
165.501179243530
31
0.0
0
LINE
5
8b9
100
AcDbEntity
8
E-0
6
CONTINUOUS
62
6
100
AcDbLine
10
611.866478000000
20
165.501179243530
30
0.0
11
622.866478000000
21
165.501179243530
31
0.0
0
LINE
5
8ba
100
AcDbEntity
8
E-0
6
CONTINUOUS
62
6
100
AcDbLine
10
328.295448000000
20
167.501179243530
30
0.0
11
341.295448000000
21
167.501179243530
31
0.0
0
LINE
5
8bb
100
AcDbEntity
8
E-0
6
CONTINUOUS
62
6
100
AcDbLine
10
348.645196000000
20
167.501179243530
30
0.0
11
361.645196000000
21
167.501179243530
31
0.0
0
LINE
5
8bc
100
AcDbEntity
8
E-0
6
CONTINUOUS
62
6
100
AcDbLine
10
384.449252000000
20
167.501179243530
30
0.0
11
397.449252000000
21
167.501179243530
31
0.0
0
LINE
5
8bd
100
AcDbEntity
8
E-0
6
CONTINUOUS
62
6
100
AcDbLine
10
427.212120000000
20
167.501179243530
30
0.0
11
440.086806000000
21
167.501179243530
31
0.0
0
LINE
5
8be
100
AcDbEntity
8
E-0
6
CONTINUOUS
62
6
100
AcDbLine
10
451.174328000000
20
167.501179243530
30
0.0
11
464.174328000000
21
167.501179243530
31
0.0
0
LINE
5
8bf
100
AcDbEntity
8
E-0
6
CONTINUOUS
62
6
100
AcDbLine
10
483.397381000000
20
167.501179243530
30
0.0
11
496.397381000000
21
167.501179243530
31
0.0
0
LINE
5
8c0
100
AcDbEntity
8
E-0
6
CONTINUOUS
62
6
100
AcDbLine
10
506.397381000000
20
167.501179243530
30
0.0
11
519.397381000000
21
167.501179243530
31
0.0
0
LINE
5
8c1
100
AcDbEntity
8
E-0
6
CONTINUOUS
62
6
100
AcDbLine
10
528.201873000000
20
167.501179243530
30
0.0
11
541.201873000000
21
167.501179243530
31
0.0
0
LINE
5
8c2
100
AcDbEntity
8
E-0
6
CONTINUOUS
62
6
100
AcDbLine
10
563.078884000000
20
167.501179243530
30
0.0
11
576.078884000000
21
167.501179243530
31
0.0
0
LINE
5
8c3
100
AcDbEntity
8
E-0
6
CONTINUOUS
62
6
100
AcDbLine
10
584.202186000000
20
167.501179243530
30
0.0
11
597.173148000000
21
167.501179243530
31
0.0
0
LINE
5
8c4
100
AcDbEntity
8
E-0
6
CONTINUOUS
62
6
100
AcDbLine
10
611.866478000000
20
167.501179243530
30
0.0
11
622.866478000000
21
167.501179243530
31
0.0
0
LINE
5
8c5
100
AcDbEntity
8
E-0
6
CONTINUOUS
62
6
100
AcDbLine
10
329.228063000000
20
169.501179243530
30
0.0
11
342.228063000000
21
169.501179243530
31
0.0
0
LINE
5
8c6
100
AcDbEntity
8
E-0
6
CONTINUOUS
62
6
100
AcDbLine
10
347.712581000000
20
169.501179243530
30
0.0
11
360.712581000000
21
169.501179243530
31
0.0
0
LINE
5
8c7
100
AcDbEntity
8
E-0
6
CONTINUOUS
62
6
100
AcDbLine
10
384.449252000000
20
169.501179243530
30
0.0
11
397.449252000000
21
169.501179243530
31
0.0
0
LINE
5
8c8
100
AcDbEntity
8
E-0
6
CONTINUOUS
62
6
100
AcDbLine
10
426.921204000000
20
169.501179243530
30
0.0
11
439.793182000000
21
169.501179243530
31
0.0
0
LINE
5
8c9
100
AcDbEntity
8
E-0
6
CONTINUOUS
62
6
100
AcDbLine
10
450.241713000000
20
169.501179243530
30
0.0
11
463.241713000000
21
169.501179243530
31
0.0
0
LINE
5
8ca
100
AcDbEntity
8
E-0
6
CONTINUOUS
62
6
100
AcDbLine
10
484.329997000000
20
169.501179243530
30
0.0
11
497.329997000000
21
169.501179243530
31
0.0
0
LINE
5
8cb
100
AcDbEntity
8
E-0
6
CONTINUOUS
62
6
100
AcDbLine
10
507.329997000000
20
169.501179243530
30
0.0
11
520.329997000000
21
169.501179243530
31
0.0
0
LINE
5
8cc
100
AcDbEntity
8
E-0
6
CONTINUOUS
62
6
100
AcDbLine
10
527.269258000000
20
169.501179243530
30
0.0
11
540.269258000000
21
169.501179243530
31
0.0
0
LINE
5
8cd
100
AcDbEntity
8
E-0
6
CONTINUOUS
62
6
100
AcDbLine
10
563.078884000000
20
169.501179243530
30
0.0
11
576.078884000000
21
169.501179243530
31
0.0
0
LINE
5
8ce
100
AcDbEntity
8
E-0
6
CONTINUOUS
62
6
100
AcDbLine
10
582.952447000000
20
169.501179243530
30
0.0
11
595.923410000000
21
169.501179243530
31
0.0
0
LINE
5
8cf
100
AcDbEntity
8
E-0
6
CONTINUOUS
62
6
100
AcDbLine
10
611.866478000000
20
169.501179243530
30
0.0
11
622.866478000000
21
169.501179243530
31
0.0
0
LINE
5
8d0
100
AcDbEntity
8
E-0
6
CONTINUOUS
62
6
100
AcDbLine
10
330.160678000000
20
171.501179243530
30
0.0
11
343.160678000000
21
171.501179243530
31
0.0
0
LINE
5
8d1
100
AcDbEntity
8
E-0
6
CONTINUOUS
62
6
100
AcDbLine
10
346.779966000000
20
171.501179243530
30
0.0
11
359.779966000000
21
171.501179243530
31
0.0
0
LINE
5
8d2
100
AcDbEntity
8
E-0
6
CONTINUOUS
62
6
100
AcDbLine
10
384.449252000000
20
171.501179243530
30
0.0
11
397.449252000000
21
171.501179243530
31
0.0
0
LINE
5
8d3
100
AcDbEntity
8
E-0
6
CONTINUOUS
62
6
100
AcDbLine
10
426.436501000000
20
171.501179243530
30
0.0
11
439.419710000000
21
171.501179243530
31
0.0
0
LINE
5
8d4
100
AcDbEntity
8
E-0
6
CONTINUOUS
62
6
100
AcDbLine
10
449.309097000000
20
171.501179243530
30
0.0
11
462.309097000000
21
171.501179243530
31
0.0
0
LINE
5
8d5
100
AcDbEntity
8
E-0
6
CONTINUOUS
62
6
100
AcDbLine
10
485.262612000000
20
171.501179243530
30
0.0
11
498.262612000000
21
171.501179243530
31
0.0
0
LINE
5
8d6
100
AcDbEntity
8
E-0
6
CONTINUOUS
62
6
100
AcDbLine
10
508.262612000000
20
171.501179243530
30
0.0
11
521.262612000000
21
171.501179243530
31
0.0
0
LINE
5
8d7
100
AcDbEntity
8
E-0
6
CONTINUOUS
62
6
100
AcDbLine
10
526.336642000000
20
171.501179243530
30
0.0
11
539.336642000000
21
171.501179243530
31
0.0
0
LINE
5
8d8
100
AcDbEntity
8
E-0
6
CONTINUOUS
62
6
100
AcDbLine
10
563.078884000000
20
171.501179243530
30
0.0
11
576.078884000000
21
171.501179243530
31
0.0
0
LINE
5
8d9
100
AcDbEntity
8
E-0
6
CONTINUOUS
62
6
100
AcDbLine
10
581.702709000000
20
171.501179243530
30
0.0
11
594.673671000000
21
171.501179243530
31
0.0
0
LINE
5
8da
100
AcDbEntity
8
E-0
6
CONTINUOUS
62
6
100
AcDbLine
10
611.866478000000
20
171.501179243530
30
0.0
11
622.866478000000
21
171.501179243530
31
0.0
0
LINE
5
8db
100
AcDbEntity
8
E-0
6
CONTINUOUS
62
6
100
AcDbLine
10
331.093294000000
20
173.501179243530
30
0.0
11
344.093294000000
21
173.501179243530
31
0.0
0
LINE
5
8dc
100
AcDbEntity
8
E-0
6
CONTINUOUS
62
6
100
AcDbLine
10
345.847350000000
20
173.501179243530
30
0.0
11
358.847350000000
21
173.501179243530
31
0.0
0
LINE
5
8dd
100
AcDbEntity
8
E-0
6
CONTINUOUS
62
6
100
AcDbLine
10
384.449252000000
20
173.501179243530
30
0.0
11
397.449252000000
21
173.501179243530
31
0.0
0
LINE
5
8de
100
AcDbEntity
8
E-0
6
CONTINUOUS
62
6
100
AcDbLine
10
425.652783000000
20
173.501179243530
30
0.0
11
438.967566000000
21
173.501179243530
31
0.0
0
LINE
5
8df
100
AcDbEntity
8
E-0
6
CONTINUOUS
62
6
100
AcDbLine
10
448.376482000000
20
173.501179243530
30
0.0
11
461.376482000000
21
173.501179243530
31
0.0
0
LINE
5
8e0
100
AcDbEntity
8
E-0
6
CONTINUOUS
62
6
100
AcDbLine
10
486.195227000000
20
173.501179243530
30
0.0
11
499.195227000000
21
173.501179243530
31
0.0
0
LINE
5
8e1
100
AcDbEntity
8
E-0
6
CONTINUOUS
62
6
100
AcDbLine
10
509.195227000000
20
173.501179243530
30
0.0
11
522.195227000000
21
173.501179243530
31
0.0
0
LINE
5
8e2
100
AcDbEntity
8
E-0
6
CONTINUOUS
62
6
100
AcDbLine
10
525.404027000001
20
173.501179243530
30
0.0
11
538.404027000001
21
173.501179243530
31
0.0
0
LINE
5
8e3
100
AcDbEntity
8
E-0
6
CONTINUOUS
62
6
100
AcDbLine
10
563.078884000000
20
173.501179243530
30
0.0
11
576.078884000000
21
173.501179243530
31
0.0
0
LINE
5
8e4
100
AcDbEntity
8
E-0
6
CONTINUOUS
62
6
100
AcDbLine
10
580.452970000000
20
173.501179243530
30
0.0
11
593.423932000000
21
173.501179243530
31
0.0
0
LINE
5
8e5
100
AcDbEntity
8
E-0
6
CONTINUOUS
62
6
100
AcDbLine
10
611.866478000000
20
173.501179243530
30
0.0
11
622.866478000000
21
173.501179243530
31
0.0
0
LINE
5
8e6
100
AcDbEntity
8
E-0
6
CONTINUOUS
62
6
100
AcDbLine
10
332.025909000000
20
175.501179243530
30
0.0
11
357.914735000000
21
175.501179243530
31
0.0
0
LINE
5
8e7
100
AcDbEntity
8
E-0
6
CONTINUOUS
62
6
100
AcDbLine
10
384.449252000000
20
175.501179243530
30
0.0
11
397.449252000000
21
175.501179243530
31
0.0
0
LINE
5
8e8
100
AcDbEntity
8
E-0
6
CONTINUOUS
62
6
100
AcDbLine
10
424.449252000000
20
175.501179243530
30
0.0
11
438.449252000000
21
175.501179243530
31
0.0
0
LINE
5
8e9
100
AcDbEntity
8
E-0
6
CONTINUOUS
62
6
100
AcDbLine
10
447.443867000000
20
175.501179243530
30
0.0
11
460.443867000000
21
175.501179243530
31
0.0
0
LINE
5
8ea
100
AcDbEntity
8
E-0
6
CONTINUOUS
62
6
100
AcDbLine
10
487.127842000000
20
175.501179243530
30
0.0
11
500.127842000000
21
175.501179243530
31
0.0
0
LINE
5
8eb
100
AcDbEntity
8
E-0
6
CONTINUOUS
62
6
100
AcDbLine
10
510.127842000000
20
175.501179243530
30
0.0
11
523.127842000000
21
175.501179243530
31
0.0
0
LINE
5
8ec
100
AcDbEntity
8
E-0
6
CONTINUOUS
62
6
100
AcDbLine
10
524.471412000000
20
175.501179243530
30
0.0
11
537.471412000000
21
175.501179243530
31
0.0
0
LINE
5
8ed
100
AcDbEntity
8
E-0
6
CONTINUOUS
62
6
100
AcDbLine
10
563.078884000000
20
175.501179243530
30
0.0
11
576.078884000000
21
175.501179243530
31
0.0
0
LINE
5
8ee
100
AcDbEntity
8
E-0
6
CONTINUOUS
62
6
100
AcDbLine
10
579.203231000000
20
175.501179243530
30
0.0
11
592.174194000000
21
175.501179243530
31
0.0
0
LINE
5
8ef
100
AcDbEntity
8
E-0
6
CONTINUOUS
62
6
100
AcDbLine
10
611.866478000000
20
175.501179243530
30
0.0
11
622.866478000000
21
175.501179243530
31
0.0
0
LINE
5
8f0
100
AcDbEntity
8
E-0
6
CONTINUOUS
62
6
100
AcDbLine
10
332.958524000000
20
177.501179243530
30
0.0
11
356.982120000000
21
177.501179243530
31
0.0
0
LINE
5
8f1
100
AcDbEntity
8
E-0
6
CONTINUOUS
62
6
100
AcDbLine
10
384.449252000000
20
177.501179243530
30
0.0
11
397.449252000000
21
177.501179243530
31
0.0
0
LINE
5
8f2
100
AcDbEntity
8
E-0
6
CONTINUOUS
62
6
100
AcDbLine
10
422.324751000000
20
177.501179243530
30
0.0
11
437.821238000000
21
177.501179243530
31
0.0
0
LINE
5
8f3
100
AcDbEntity
8
E-0
6
CONTINUOUS
62
6
100
AcDbLine
10
446.511251000000
20
177.501179243530
30
0.0
11
459.511251000000
21
177.501179243530
31
0.0
0
LINE
5
8f4
100
AcDbEntity
8
E-0
6
CONTINUOUS
62
6
100
AcDbLine
10
488.060458000000
20
177.501179243530
30
0.0
11
501.060458000000
21
177.501179243530
31
0.0
0
LINE
5
8f5
100
AcDbEntity
8
E-0
6
CONTINUOUS
62
6
100
AcDbLine
10
511.060458000000
20
177.501179243530
30
0.0
11
536.538797000000
21
177.501179243530
31
0.0
0
LINE
5
8f6
100
AcDbEntity
8
E-0
6
CONTINUOUS
62
6
100
AcDbLine
10
563.078884000000
20
177.501179243530
30
0.0
11
576.078884000000
21
177.501179243530
31
0.0
0
LINE
5
8f7
100
AcDbEntity
8
E-0
6
CONTINUOUS
62
6
100
AcDbLine
10
577.953492000000
20
177.501179243530
30
0.0
11
590.924455000000
21
177.501179243530
31
0.0
0
LINE
5
8f8
100
AcDbEntity
8
E-0
6
CONTINUOUS
62
6
100
AcDbLine
10
611.866478000000
20
177.501179243530
30
0.0
11
622.866478000000
21
177.501179243530
31
0.0
0
LINE
5
8f9
100
AcDbEntity
8
E-0
6
CONTINUOUS
62
6
100
AcDbLine
10
333.891140000000
20
179.501179243530
30
0.0
11
356.049504000000
21
179.501179243530
31
0.0
0
LINE
5
8fa
100
AcDbEntity
8
E-0
6
CONTINUOUS
62
6
100
AcDbLine
10
384.449252000000
20
179.501179243530
30
0.0
11
397.449252000000
21
179.501179243530
31
0.0
0
LINE
5
8fb
100
AcDbEntity
8
E-0
6
CONTINUOUS
62
6
100
AcDbLine
10
419.245907000000
20
179.501179243530
30
0.0
11
436.990622000000
21
179.501179243530
31
0.0
0
LINE
5
8fc
100
AcDbEntity
8
E-0
6
CONTINUOUS
62
6
100
AcDbLine
10
445.578636000000
20
179.501179243530
30
0.0
11
458.578636000000
21
179.501179243530
31
0.0
0
LINE
5
8fd
100
AcDbEntity
8
E-0
6
CONTINUOUS
62
6
100
AcDbLine
10
488.993073000000
20
179.501179243530
30
0.0
11
501.993073000000
21
179.501179243530
31
0.0
0
LINE
5
8fe
100
AcDbEntity
8
E-0
6
CONTINUOUS
62
6
100
AcDbLine
10
511.993073000000
20
179.501179243530
30
0.0
11
535.606181000000
21
179.501179243530
31
0.0
0
LINE
5
8ff
100
AcDbEntity
8
E-0
6
CONTINUOUS
62
6
100
AcDbLine
10
563.078884000000
20
179.501179243530
30
0.0
11
576.078884000000
21
179.501179243530
31
0.0
0
LINE
5
900
100
AcDbEntity
8
E-0
6
CONTINUOUS
62
6
100
AcDbLine
10
576.703754000000
20
179.501179243530
30
0.0
11
589.674716000000
21
179.501179243530
31
0.0
0
LINE
5
901
100
AcDbEntity
8
E-0
6
CONTINUOUS
62
6
100
AcDbLine
10
611.866478000000
20
179.501179243530
30
0.0
11
622.866478000000
21
179.501179243530
31
0.0
0
LINE
5
902
100
AcDbEntity
8
E-0
6
CONTINUOUS
62
6
100
AcDbLine
10
334.823755000000
20
181.501179243530
30
0.0
11
355.116889000000
21
181.501179243530
31
0.0
0
LINE
5
903
100
AcDbEntity
8
E-0
6
CONTINUOUS
62
6
100
AcDbLine
10
384.449252000000
20
181.501179243530
30
0.0
11
435.759811000000
21
181.501179243530
31
0.0
0
LINE
5
904
100
AcDbEntity
8
E-0
6
CONTINUOUS
62
6
100
AcDbLine
10
444.646021000000
20
181.501179243530
30
0.0
11
457.646021000000
21
181.501179243530
31
0.0
0
LINE
5
905
100
AcDbEntity
8
E-0
6
CONTINUOUS
62
6
100
AcDbLine
10
489.925688000000
20
181.501179243530
30
0.0
11
502.925688000000
21
181.501179243530
31
0.0
0
LINE
5
906
100
AcDbEntity
8
E-0
6
CONTINUOUS
62
6
100
AcDbLine
10
512.925688000000
20
181.501179243530
30
0.0
11
534.673566000000
21
181.501179243530
31
0.0
0
LINE
5
907
100
AcDbEntity
8
E-0
6
CONTINUOUS
62
6
100
AcDbLine
10
563.078884000000
20
181.501179243530
30
0.0
11
588.424977000000
21
181.501179243530
31
0.0
0
LINE
5
908
100
AcDbEntity
8
E-0
6
CONTINUOUS
62
6
100
AcDbLine
10
611.866478000000
20
181.501179243530
30
0.0
11
622.866478000000
21
181.501179243530
31
0.0
0
LINE
5
909
100
AcDbEntity
8
E-0
6
CONTINUOUS
62
6
100
AcDbLine
10
335.756370000000
20
183.501179243530
30
0.0
11
354.184274000000
21
183.501179243530
31
0.0
0
LINE
5
90a
100
AcDbEntity
8
E-0
6
CONTINUOUS
62
6
100
AcDbLine
10
384.449252000000
20
183.501179243530
30
0.0
11
433.868200000000
21
183.501179243530
31
0.0
0
LINE
5
90b
100
AcDbEntity
8
E-0
6
CONTINUOUS
62
6
100
AcDbLine
10
443.713405000000
20
183.501179243530
30
0.0
11
456.713405000000
21
183.501179243530
31
0.0
0
LINE
5
90c
100
AcDbEntity
8
E-0
6
CONTINUOUS
62
6
100
AcDbLine
10
490.858304000000
20
183.501179243530
30
0.0
11
503.858304000000
21
183.501179243530
31
0.0
0
LINE
5
90d
100
AcDbEntity
8
E-0
6
CONTINUOUS
62
6
100
AcDbLine
10
513.858304000000
20
183.501179243530
30
0.0
11
533.740951000000
21
183.501179243530
31
0.0
0
LINE
5
90e
100
AcDbEntity
8
E-0
6
CONTINUOUS
62
6
100
AcDbLine
10
563.078884000000
20
183.501179243530
30
0.0
11
587.175239000000
21
183.501179243530
31
0.0
0
LINE
5
90f
100
AcDbEntity
8
E-0
6
CONTINUOUS
62
6
100
AcDbLine
10
611.866478000000
20
183.501179243530
30
0.0
11
622.866478000000
21
183.501179243530
31
0.0
0
LINE
5
910
100
AcDbEntity
8
E-0
6
CONTINUOUS
62
6
100
AcDbLine
10
336.688986000000
20
185.501179243530
30
0.0
11
353.251658000000
21
185.501179243530
31
0.0
0
LINE
5
911
100
AcDbEntity
8
E-0
6
CONTINUOUS
62
6
100
AcDbLine
10
384.449252000000
20
185.501179243530
30
0.0
11
431.090541000000
21
185.501179243530
31
0.0
0
LINE
5
912
100
AcDbEntity
8
E-0
6
CONTINUOUS
62
6
100
AcDbLine
10
442.780790000000
20
185.501179243530
30
0.0
11
455.780790000000
21
185.501179243530
31
0.0
0
LINE
5
913
100
AcDbEntity
8
E-0
6
CONTINUOUS
62
6
100
AcDbLine
10
491.790919000000
20
185.501179243530
30
0.0
11
504.790919000000
21
185.501179243530
31
0.0
0
LINE
5
914
100
AcDbEntity
8
E-0
6
CONTINUOUS
62
6
100
AcDbLine
10
514.790919000000
20
185.501179243530
30
0.0
11
532.808335000000
21
185.501179243530
31
0.0
0
LINE
5
915
100
AcDbEntity
8
E-0
6
CONTINUOUS
62
6
100
AcDbLine
10
563.078884000000
20
185.501179243530
30
0.0
11
585.925500000000
21
185.501179243530
31
0.0
0
LINE
5
916
100
AcDbEntity
8
E-0
6
CONTINUOUS
62
6
100
AcDbLine
10
611.866478000000
20
185.501179243530
30
0.0
11
622.866478000000
21
185.501179243530
31
0.0
0
LINE
5
917
100
AcDbEntity
8
E-0
6
CONTINUOUS
62
6
100
AcDbLine
10
337.621601000000
20
187.501179243530
30
0.0
11
352.319043000000
21
187.501179243530
31
0.0
0
LINE
5
918
100
AcDbEntity
8
E-0
6
CONTINUOUS
62
6
100
AcDbLine
10
384.449252000000
20
187.501179243530
30
0.0
11
427.079882000000
21
187.501179243530
31
0.0
0
LINE
5
919
100
AcDbEntity
8
E-0
6
CONTINUOUS
62
6
100
AcDbLine
10
441.848175000000
20
187.501179243530
30
0.0
11
454.848175000000
21
187.501179243530
31
0.0
0
LINE
5
91a
100
AcDbEntity
8
E-0
6
CONTINUOUS
62
6
100
AcDbLine
10
492.723534000000
20
187.501179243530
30
0.0
11
505.723534000000
21
187.501179243530
31
0.0
0
LINE
5
91b
100
AcDbEntity
8
E-0
6
CONTINUOUS
62
6
100
AcDbLine
10
515.723534000000
20
187.501179243530
30
0.0
11
531.875720000000
21
187.501179243530
31
0.0
0
LINE
5
91c
100
AcDbEntity
8
E-0
6
CONTINUOUS
62
6
100
AcDbLine
10
563.078884000000
20
187.501179243530
30
0.0
11
584.675761000000
21
187.501179243530
31
0.0
0
LINE
5
91d
100
AcDbEntity
8
E-0
6
CONTINUOUS
62
6
100
AcDbLine
10
611.866478000000
20
187.501179243530
30
0.0
11
622.866478000000
21
187.501179243530
31
0.0
0
LINE
5
91e
100
AcDbEntity
8
E-0
6
CONTINUOUS
62
6
100
AcDbLine
10
338.554216000000
20
189.501179243530
30
0.0
11
351.386428000000
21
189.501179243530
31
0.0
0
LINE
5
91f
100
AcDbEntity
8
E-0
6
CONTINUOUS
62
6
100
AcDbLine
10
384.449252000000
20
189.501179243530
30
0.0
11
421.195925000000
21
189.501179243530
31
0.0
0
LINE
5
920
100
AcDbEntity
8
E-0
6
CONTINUOUS
62
6
100
AcDbLine
10
440.915559000000
20
189.501179243530
30
0.0
11
453.915559000000
21
189.501179243530
31
0.0
0
LINE
5
921
100
AcDbEntity
8
E-0
6
CONTINUOUS
62
6
100
AcDbLine
10
493.656150000000
20
189.501179243530
30
0.0
11
506.656150000000
21
189.501179243530
31
0.0
0
LINE
5
922
100
AcDbEntity
8
E-0
6
CONTINUOUS
62
6
100
AcDbLine
10
516.656150000000
20
189.501179243530
30
0.0
11
530.943105000000
21
189.501179243530
31
0.0
0
LINE
5
923
100
AcDbEntity
8
E-0
6
CONTINUOUS
62
6
100
AcDbLine
10
563.078884000000
20
189.501179243530
30
0.0
11
583.426023000000
21
189.501179243530
31
0.0
0
LINE
5
924
100
AcDbEntity
8
E-0
6
CONTINUOUS
62
6
100
AcDbLine
10
611.866478000000
20
189.501179243530
30
0.0
11
622.866478000000
21
189.501179243530
31
0.0
0
LINE
5
925
100
AcDbEntity
8
E-0
6
CONTINUOUS
62
6
100
AcDbLine
10
204.111624000000
20
134.190526243530
30
0.0
11
246.150122000000
21
134.190526243530
31
0.0
0
LINE
5
926
100
AcDbEntity
8
E-0
6
CONTINUOUS
62
6
100
AcDbLine
10
204.111624000000
20
135.190526243530
30
0.0
11
246.150122000000
21
135.190526243530
31
0.0
0
LINE
5
927
100
AcDbEntity
8
E-0
6
CONTINUOUS
62
6
100
AcDbLine
10
204.111624000000
20
136.190526243530
30
0.0
11
246.150122000000
21
136.190526243530
31
0.0
0
LINE
5
928
100
AcDbEntity
8
E-0
6
CONTINUOUS
62
6
100
AcDbLine
10
204.111624000000
20
137.190526243530
30
0.0
11
246.150122000000
21
137.190526243530
31
0.0
0
LINE
5
929
100
AcDbEntity
8
E-0
6
CONTINUOUS
62
6
100
AcDbLine
10
204.111624000000
20
138.190526243530
30
0.0
11
246.150122000000
21
138.190526243530
31
0.0
0
LINE
5
92a
100
AcDbEntity
8
E-0
6
CONTINUOUS
62
6
100
AcDbLine
10
204.111624000000
20
139.190526243530
30
0.0
11
246.150122000000
21
139.190526243530
31
0.0
0
LINE
5
92b
100
AcDbEntity
8
E-0
6
CONTINUOUS
62
6
100
AcDbLine
10
204.111624000000
20
140.190526243530
30
0.0
11
246.150122000000
21
140.190526243530
31
0.0
0
LINE
5
92c
100
AcDbEntity
8
E-0
6
CONTINUOUS
62
6
100
AcDbLine
10
204.111624000000
20
141.190526243530
30
0.0
11
246.150122000000
21
141.190526243530
31
0.0
0
LINE
5
92d
100
AcDbEntity
8
E-0
6
CONTINUOUS
62
6
100
AcDbLine
10
204.111624000000
20
142.190526243530
30
0.0
11
246.150122000000
21
142.190526243530
31
0.0
0
LINE
5
92e
100
AcDbEntity
8
E-0
6
CONTINUOUS
62
6
100
AcDbLine
10
204.111624000000
20
143.190526243530
30
0.0
11
246.150122000000
21
143.190526243530
31
0.0
0
LINE
5
92f
100
AcDbEntity
8
E-0
6
CONTINUOUS
62
6
100
AcDbLine
10
204.111624000000
20
144.190526243530
30
0.0
11
246.150122000000
21
144.190526243530
31
0.0
0
LINE
5
930
100
AcDbEntity
8
E-0
6
CONTINUOUS
62
6
100
AcDbLine
10
204.111624000000
20
145.190526243530
30
0.0
11
246.150122000000
21
145.190526243530
31
0.0
0
LINE
5
931
100
AcDbEntity
8
E-0
6
CONTINUOUS
62
6
100
AcDbLine
10
204.111624000000
20
146.190526243530
30
0.0
11
246.150122000000
21
146.190526243530
31
0.0
0
LINE
5
932
100
AcDbEntity
8
E-0
6
CONTINUOUS
62
6
100
AcDbLine
10
204.111624000000
20
147.190526243530
30
0.0
11
246.150122000000
21
147.190526243530
31
0.0
0
LINE
5
933
100
AcDbEntity
8
E-0
6
CONTINUOUS
62
6
100
AcDbLine
10
204.111624000000
20
148.190526243530
30
0.0
11
246.150122000000
21
148.190526243530
31
0.0
0
LINE
5
934
100
AcDbEntity
8
E-0
6
CONTINUOUS
62
6
100
AcDbLine
10
204.111624000000
20
149.190526243530
30
0.0
11
246.150122000000
21
149.190526243530
31
0.0
0
LINE
5
935
100
AcDbEntity
8
E-0
6
CONTINUOUS
62
6
100
AcDbLine
10
204.111624000000
20
150.190526243530
30
0.0
11
246.150122000000
21
150.190526243530
31
0.0
0
LINE
5
936
100
AcDbEntity
8
E-0
6
CONTINUOUS
62
6
100
AcDbLine
10
204.111624000000
20
151.190526243530
30
0.0
11
246.150122000000
21
151.190526243530
31
0.0
0
LINE
5
937
100
AcDbEntity
8
E-0
6
CONTINUOUS
62
6
100
AcDbLine
10
204.111624000000
20
152.190526243530
30
0.0
11
246.150122000000
21
152.190526243530
31
0.0
0
LINE
5
938
100
AcDbEntity
8
E-0
6
CONTINUOUS
62
6
100
AcDbLine
10
204.111624000000
20
153.190526243530
30
0.0
11
246.150122000000
21
153.190526243530
31
0.0
0
LINE
5
939
100
AcDbEntity
8
E-0
6
CONTINUOUS
62
6
100
AcDbLine
10
204.111624000000
20
154.190526243530
30
0.0
11
246.150122000000
21
154.190526243530
31
0.0
0
LINE
5
93a
100
AcDbEntity
8
E-0
6
CONTINUOUS
62
6
100
AcDbLine
10
204.111624000000
20
155.190526243530
30
0.0
11
246.150122000000
21
155.190526243530
31
0.0
0
LINE
5
93b
100
AcDbEntity
8
E-0
6
CONTINUOUS
62
6
100
AcDbLine
10
204.111624000000
20
156.190526243530
30
0.0
11
246.150122000000
21
156.190526243530
31
0.0
0
LINE
5
93c
100
AcDbEntity
8
E-0
6
CONTINUOUS
62
6
100
AcDbLine
10
204.111624000000
20
157.190526243530
30
0.0
11
246.150122000000
21
157.190526243530
31
0.0
0
LINE
5
93d
100
AcDbEntity
8
E-0
6
CONTINUOUS
62
6
100
AcDbLine
10
204.111624000000
20
158.190526243530
30
0.0
11
246.150122000000
21
158.190526243530
31
0.0
0
LINE
5
93e
100
AcDbEntity
8
E-0
6
CONTINUOUS
62
6
100
AcDbLine
10
204.111624000000
20
159.190526243530
30
0.0
11
246.150122000000
21
159.190526243530
31
0.0
0
LINE
5
93f
100
AcDbEntity
8
E-0
6
CONTINUOUS
62
6
100
AcDbLine
10
204.111624000000
20
160.190526243530
30
0.0
11
246.150122000000
21
160.190526243530
31
0.0
0
LINE
5
940
100
AcDbEntity
8
E-0
6
CONTINUOUS
62
6
100
AcDbLine
10
204.111624000000
20
161.190526243530
30
0.0
11
246.150122000000
21
161.190526243530
31
0.0
0
LINE
5
941
100
AcDbEntity
8
E-0
6
CONTINUOUS
62
6
100
AcDbLine
10
204.111624000000
20
162.190526243530
30
0.0
11
246.150122000000
21
162.190526243530
31
0.0
0
LINE
5
942
100
AcDbEntity
8
E-0
6
CONTINUOUS
62
6
100
AcDbLine
10
204.111624000000
20
163.190526243530
30
0.0
11
246.150122000000
21
163.190526243530
31
0.0
0
LINE
5
943
100
AcDbEntity
8
E-0
6
CONTINUOUS
62
6
100
AcDbLine
10
204.111624000000
20
164.190526243530
30
0.0
11
246.150122000000
21
164.190526243530
31
0.0
0
LINE
5
944
100
AcDbEntity
8
E-0
6
CONTINUOUS
62
6
100
AcDbLine
10
204.111624000000
20
165.190526243530
30
0.0
11
246.150122000000
21
165.190526243530
31
0.0
0
LINE
5
945
100
AcDbEntity
8
E-0
6
CONTINUOUS
62
6
100
AcDbLine
10
204.111624000000
20
166.190526243530
30
0.0
11
246.150122000000
21
166.190526243530
31
0.0
0
LINE
5
946
100
AcDbEntity
8
E-0
6
CONTINUOUS
62
6
100
AcDbLine
10
204.111624000000
20
167.190526243530
30
0.0
11
246.150122000000
21
167.190526243530
31
0.0
0
LINE
5
947
100
AcDbEntity
8
E-0
6
CONTINUOUS
62
6
100
AcDbLine
10
204.111624000000
20
168.190526243530
30
0.0
11
246.150122000000
21
168.190526243530
31
0.0
0
LINE
5
948
100
AcDbEntity
8
E-0
6
CONTINUOUS
62
6
100
AcDbLine
10
204.111624000000
20
169.190526243530
30
0.0
11
246.150122000000
21
169.190526243530
31
0.0
0
LINE
5
949
100
AcDbEntity
8
E-0
6
CONTINUOUS
62
6
100
AcDbLine
10
204.111624000000
20
170.190526243530
30
0.0
11
246.150122000000
21
170.190526243530
31
0.0
0
LINE
5
94a
100
AcDbEntity
8
E-0
6
CONTINUOUS
62
6
100
AcDbLine
10
204.111624000000
20
171.190526243530
30
0.0
11
246.150122000000
21
171.190526243530
31
0.0
0
LINE
5
94b
100
AcDbEntity
8
E-0
6
CONTINUOUS
62
6
100
AcDbLine
10
204.111624000000
20
172.190526243530
30
0.0
11
246.150122000000
21
172.190526243530
31
0.0
0
LINE
5
94c
100
AcDbEntity
8
E-0
6
CONTINUOUS
62
6
100
AcDbLine
10
204.111624000000
20
173.190526243530
30
0.0
11
246.150122000000
21
173.190526243530
31
0.0
0
LINE
5
94d
100
AcDbEntity
8
E-0
6
CONTINUOUS
62
6
100
AcDbLine
10
204.111624000000
20
174.190526243530
30
0.0
11
246.150122000000
21
174.190526243530
31
0.0
0
LINE
5
94e
100
AcDbEntity
8
E-0
6
CONTINUOUS
62
6
100
AcDbLine
10
204.111624000000
20
175.190526243530
30
0.0
11
246.150122000000
21
175.190526243530
31
0.0
0
LINE
5
94f
100
AcDbEntity
8
E-0
6
CONTINUOUS
62
6
100
AcDbLine
10
298.923249000000
20
222.190526243530
30
0.0
11
313.558827000000
21
222.190526243530
31
0.0
0
LINE
5
950
100
AcDbEntity
8
E-0
6
CONTINUOUS
62
6
100
AcDbLine
10
296.200265000000
20
224.190526243530
30
0.0
11
316.281811000000
21
224.190526243530
31
0.0
0
LINE
5
951
100
AcDbEntity
8
E-0
6
CONTINUOUS
62
6
100
AcDbLine
10
294.405320000000
20
226.190526243530
30
0.0
11
318.076756000000
21
226.190526243530
31
0.0
0
LINE
5
952
100
AcDbEntity
8
E-0
6
CONTINUOUS
62
6
100
AcDbLine
10
293.150916000000
20
228.190526243530
30
0.0
11
319.331161000000
21
228.190526243530
31
0.0
0
LINE
5
953
100
AcDbEntity
8
E-0
6
CONTINUOUS
62
6
100
AcDbLine
10
292.290468000000
20
230.190526243530
30
0.0
11
320.191608000000
21
230.190526243530
31
0.0
0
LINE
5
954
100
AcDbEntity
8
E-0
6
CONTINUOUS
62
6
100
AcDbLine
10
291.753613000000
20
232.190526243530
30
0.0
11
320.728463000000
21
232.190526243530
31
0.0
0
LINE
5
955
100
AcDbEntity
8
E-0
6
CONTINUOUS
62
6
100
AcDbLine
10
291.504940000000
20
234.190526243530
30
0.0
11
320.977136000000
21
234.190526243530
31
0.0
0
LINE
5
956
100
AcDbEntity
8
E-0
6
CONTINUOUS
62
6
100
AcDbLine
10
291.529829000000
20
236.190526243530
30
0.0
11
320.952247000000
21
236.190526243530
31
0.0
0
LINE
5
957
100
AcDbEntity
8
E-0
6
CONTINUOUS
62
6
100
AcDbLine
10
291.829697000000
20
238.190526243530
30
0.0
11
320.652379000000
21
238.190526243530
31
0.0
0
LINE
5
958
100
AcDbEntity
8
E-0
6
CONTINUOUS
62
6
100
AcDbLine
10
292.422433000000
20
240.190526243530
30
0.0
11
320.059643000000
21
240.190526243530
31
0.0
0
LINE
5
959
100
AcDbEntity
8
E-0
6
CONTINUOUS
62
6
100
AcDbLine
10
293.348368000000
20
242.190526243530
30
0.0
11
319.133708000000
21
242.190526243530
31
0.0
0
LINE
5
95a
100
AcDbEntity
8
E-0
6
CONTINUOUS
62
6
100
AcDbLine
10
294.687336000000
20
244.190526243530
30
0.0
11
317.794740000000
21
244.190526243530
31
0.0
0
LINE
5
95b
100
AcDbEntity
8
E-0
6
CONTINUOUS
62
6
100
AcDbLine
10
296.610092000000
20
246.190526243530
30
0.0
11
315.871984000000
21
246.190526243530
31
0.0
0
LINE
5
95c
100
AcDbEntity
8
E-0
6
CONTINUOUS
62
6
100
AcDbLine
10
299.606115000000
20
248.190526243530
30
0.0
11
312.875962000000
21
248.190526243530
31
0.0
0
LINE
5
95d
100
AcDbEntity
8
E-0
6
CONTINUOUS
62
6
100
AcDbLine
10
320.223159000000
20
230.282895243530
30
0.0
11
320.223159000000
21
239.731702243530
31
0.0
0
LINE
5
95e
100
AcDbEntity
8
E-0
6
CONTINUOUS
62
6
100
AcDbLine
10
318.223159000000
20
226.390543243530
30
0.0
11
318.223159000000
21
243.624054243530
31
0.0
0
LINE
5
95f
100
AcDbEntity
8
E-0
6
CONTINUOUS
62
6
100
AcDbLine
10
316.223159000000
20
224.136376243530
30
0.0
11
316.223159000000
21
245.878221243530
31
0.0
0
LINE
5
960
100
AcDbEntity
8
E-0
6
CONTINUOUS
62
6
100
AcDbLine
10
314.223159000000
20
222.593377243530
30
0.0
11
314.223159000000
21
247.421220243530
31
0.0
0
LINE
5
961
100
AcDbEntity
8
E-0
6
CONTINUOUS
62
6
100
AcDbLine
10
312.223159000000
20
221.515304243530
30
0.0
11
312.223159000000
21
248.499293243530
31
0.0
0
LINE
5
962
100
AcDbEntity
8
E-0
6
CONTINUOUS
62
6
100
AcDbLine
10
310.223159000000
20
220.795951243530
30
0.0
11
310.223159000000
21
249.218646243530
31
0.0
0
LINE
5
963
100
AcDbEntity
8
E-0
6
CONTINUOUS
62
6
100
AcDbLine
10
308.223159000000
20
220.382289243530
30
0.0
11
308.223159000000
21
249.632307243530
31
0.0
0
LINE
5
964
100
AcDbEntity
8
E-0
6
CONTINUOUS
62
6
100
AcDbLine
10
306.223159000000
20
220.248593243530
30
0.0
11
306.223159000000
21
249.766003243530
31
0.0
0
LINE
5
965
100
AcDbEntity
8
E-0
6
CONTINUOUS
62
6
100
AcDbLine
10
245.223159000000
20
133.984896243530
30
0.0
11
245.223159000000
21
176.082589243530
31
0.0
0
LINE
5
966
100
AcDbEntity
8
E-0
6
CONTINUOUS
62
6
100
AcDbLine
10
244.223159000000
20
133.984896243530
30
0.0
11
244.223159000000
21
176.082589243530
31
0.0
0
LINE
5
967
100
AcDbEntity
8
E-0
6
CONTINUOUS
62
6
100
AcDbLine
10
243.223159000000
20
133.984896243530
30
0.0
11
243.223159000000
21
176.082589243530
31
0.0
0
LINE
5
968
100
AcDbEntity
8
E-0
6
CONTINUOUS
62
6
100
AcDbLine
10
242.223159000000
20
133.984896243530
30
0.0
11
242.223159000000
21
176.082589243530
31
0.0
0
LINE
5
969
100
AcDbEntity
8
E-0
6
CONTINUOUS
62
6
100
AcDbLine
10
241.223159000000
20
133.984896243530
30
0.0
11
241.223159000000
21
176.082589243530
31
0.0
0
LINE
5
96a
100
AcDbEntity
8
E-0
6
CONTINUOUS
62
6
100
AcDbLine
10
240.223159000000
20
133.984896243530
30
0.0
11
240.223159000000
21
176.082589243530
31
0.0
0
LINE
5
96b
100
AcDbEntity
8
E-0
6
CONTINUOUS
62
6
100
AcDbLine
10
239.223159000000
20
133.984896243530
30
0.0
11
239.223159000000
21
176.082589243530
31
0.0
0
LINE
5
96c
100
AcDbEntity
8
E-0
6
CONTINUOUS
62
6
100
AcDbLine
10
238.223159000000
20
133.984896243530
30
0.0
11
238.223159000000
21
176.082589243530
31
0.0
0
LINE
5
96d
100
AcDbEntity
8
E-0
6
CONTINUOUS
62
6
100
AcDbLine
10
237.223159000000
20
133.984896243530
30
0.0
11
237.223159000000
21
176.082589243530
31
0.0
0
LINE
5
96e
100
AcDbEntity
8
E-0
6
CONTINUOUS
62
6
100
AcDbLine
10
236.223159000000
20
133.984896243530
30
0.0
11
236.223159000000
21
176.082589243530
31
0.0
0
LINE
5
96f
100
AcDbEntity
8
E-0
6
CONTINUOUS
62
6
100
AcDbLine
10
235.223159000000
20
133.984896243530
30
0.0
11
235.223159000000
21
176.082589243530
31
0.0
0
LINE
5
970
100
AcDbEntity
8
E-0
6
CONTINUOUS
62
6
100
AcDbLine
10
234.223159000000
20
133.984896243530
30
0.0
11
234.223159000000
21
176.082589243530
31
0.0
0
LINE
5
971
100
AcDbEntity
8
E-0
6
CONTINUOUS
62
6
100
AcDbLine
10
233.223159000000
20
133.984896243530
30
0.0
11
233.223159000000
21
176.082589243530
31
0.0
0
LINE
5
972
100
AcDbEntity
8
E-0
6
CONTINUOUS
62
6
100
AcDbLine
10
232.223159000000
20
133.984896243530
30
0.0
11
232.223159000000
21
176.082589243530
31
0.0
0
LINE
5
973
100
AcDbEntity
8
E-0
6
CONTINUOUS
62
6
100
AcDbLine
10
231.223159000000
20
133.984896243530
30
0.0
11
231.223159000000
21
176.082589243530
31
0.0
0
LINE
5
974
100
AcDbEntity
8
E-0
6
CONTINUOUS
62
6
100
AcDbLine
10
230.223159000000
20
133.984896243530
30
0.0
11
230.223159000000
21
176.082589243530
31
0.0
0
LINE
5
975
100
AcDbEntity
8
E-0
6
CONTINUOUS
62
6
100
AcDbLine
10
229.223159000000
20
133.984896243530
30
0.0
11
229.223159000000
21
176.082589243530
31
0.0
0
LINE
5
976
100
AcDbEntity
8
E-0
6
CONTINUOUS
62
6
100
AcDbLine
10
228.223159000000
20
133.984896243530
30
0.0
11
228.223159000000
21
176.082589243530
31
0.0
0
LINE
5
977
100
AcDbEntity
8
E-0
6
CONTINUOUS
62
6
100
AcDbLine
10
227.223159000000
20
133.984896243530
30
0.0
11
227.223159000000
21
176.082589243530
31
0.0
0
LINE
5
978
100
AcDbEntity
8
E-0
6
CONTINUOUS
62
6
100
AcDbLine
10
226.223159000000
20
133.984896243530
30
0.0
11
226.223159000000
21
176.082589243530
31
0.0
0
LINE
5
979
100
AcDbEntity
8
E-0
6
CONTINUOUS
62
6
100
AcDbLine
10
225.223159000000
20
133.984896243530
30
0.0
11
225.223159000000
21
176.082589243530
31
0.0
0
LINE
5
97a
100
AcDbEntity
8
E-0
6
CONTINUOUS
62
6
100
AcDbLine
10
224.223159000000
20
133.984896243530
30
0.0
11
224.223159000000
21
176.082589243530
31
0.0
0
LINE
5
97b
100
AcDbEntity
8
E-0
6
CONTINUOUS
62
6
100
AcDbLine
10
223.223159000000
20
133.984896243530
30
0.0
11
223.223159000000
21
176.082589243530
31
0.0
0
LINE
5
97c
100
AcDbEntity
8
E-0
6
CONTINUOUS
62
6
100
AcDbLine
10
222.223159000000
20
133.984896243530
30
0.0
11
222.223159000000
21
176.082589243530
31
0.0
0
LINE
5
97d
100
AcDbEntity
8
E-0
6
CONTINUOUS
62
6
100
AcDbLine
10
221.223159000000
20
133.984896243530
30
0.0
11
221.223159000000
21
176.082589243530
31
0.0
0
LINE
5
97e
100
AcDbEntity
8
E-0
6
CONTINUOUS
62
6
100
AcDbLine
10
220.223159000000
20
133.984896243530
30
0.0
11
220.223159000000
21
176.082589243530
31
0.0
0
LINE
5
97f
100
AcDbEntity
8
E-0
6
CONTINUOUS
62
6
100
AcDbLine
10
219.223159000000
20
133.984896243530
30
0.0
11
219.223159000000
21
176.082589243530
31
0.0
0
LINE
5
980
100
AcDbEntity
8
E-0
6
CONTINUOUS
62
6
100
AcDbLine
10
218.223159000000
20
133.984896243530
30
0.0
11
218.223159000000
21
176.082589243530
31
0.0
0
LINE
5
981
100
AcDbEntity
8
E-0
6
CONTINUOUS
62
6
100
AcDbLine
10
217.223159000000
20
133.984896243530
30
0.0
11
217.223159000000
21
176.082589243530
31
0.0
0
LINE
5
982
100
AcDbEntity
8
E-0
6
CONTINUOUS
62
6
100
AcDbLine
10
216.223159000000
20
133.984896243530
30
0.0
11
216.223159000000
21
176.082589243530
31
0.0
0
LINE
5
983
100
AcDbEntity
8
E-0
6
CONTINUOUS
62
6
100
AcDbLine
10
215.223159000000
20
133.984896243530
30
0.0
11
215.223159000000
21
176.082589243530
31
0.0
0
LINE
5
984
100
AcDbEntity
8
E-0
6
CONTINUOUS
62
6
100
AcDbLine
10
214.223159000000
20
133.984896243530
30
0.0
11
214.223159000000
21
176.082589243530
31
0.0
0
LINE
5
985
100
AcDbEntity
8
E-0
6
CONTINUOUS
62
6
100
AcDbLine
10
213.223159000000
20
133.984896243530
30
0.0
11
213.223159000000
21
176.082589243530
31
0.0
0
LINE
5
986
100
AcDbEntity
8
E-0
6
CONTINUOUS
62
6
100
AcDbLine
10
212.223159000000
20
133.984896243530
30
0.0
11
212.223159000000
21
176.082589243530
31
0.0
0
LINE
5
987
100
AcDbEntity
8
E-0
6
CONTINUOUS
62
6
100
AcDbLine
10
211.223159000000
20
133.984896243530
30
0.0
11
211.223159000000
21
176.082589243530
31
0.0
0
LINE
5
988
100
AcDbEntity
8
E-0
6
CONTINUOUS
62
6
100
AcDbLine
10
210.223159000000
20
133.984896243530
30
0.0
11
210.223159000000
21
176.082589243530
31
0.0
0
LINE
5
989
100
AcDbEntity
8
E-0
6
CONTINUOUS
62
6
100
AcDbLine
10
209.223159000000
20
133.984896243530
30
0.0
11
209.223159000000
21
176.082589243530
31
0.0
0
LINE
5
98a
100
AcDbEntity
8
E-0
6
CONTINUOUS
62
6
100
AcDbLine
10
208.223159000000
20
133.984896243530
30
0.0
11
208.223159000000
21
176.082589243530
31
0.0
0
LINE
5
98b
100
AcDbEntity
8
E-0
6
CONTINUOUS
62
6
100
AcDbLine
10
207.223159000000
20
133.984896243530
30
0.0
11
207.223159000000
21
176.082589243530
31
0.0
0
LINE
5
98c
100
AcDbEntity
8
E-0
6
CONTINUOUS
62
6
100
AcDbLine
10
206.223159000000
20
133.984896243530
30
0.0
11
206.223159000000
21
176.082589243530
31
0.0
0
LINE
5
98d
100
AcDbEntity
8
E-0
6
CONTINUOUS
62
6
100
AcDbLine
10
205.223159000000
20
133.984896243530
30
0.0
11
205.223159000000
21
176.082589243530
31
0.0
0
LINE
5
98e
100
AcDbEntity
8
E-0
6
CONTINUOUS
62
6
100
AcDbLine
10
204.223159000000
20
133.984896243530
30
0.0
11
204.223159000000
21
176.082589243530
31
0.0
0
LINE
5
98f
100
AcDbEntity
8
E-0
6
CONTINUOUS
62
6
100
AcDbLine
10
227.220635000000
20
206.853922243530
30
0.0
11
170.319051000000
21
132.765738243530
31
0.0
0
LINE
5
990
100
AcDbEntity
8
E-0
6
CONTINUOUS
62
6
100
AcDbLine
10
170.319051000000
20
132.765738243530
30
0.0
11
164.745018000000
21
130.443224243530
31
0.0
0
LINE
5
991
100
AcDbEntity
8
E-0
6
CONTINUOUS
62
6
100
AcDbLine
10
164.745018000000
20
130.443224243530
30
0.0
11
159.635488000000
21
128.585213243530
31
0.0
0
LINE
5
992
100
AcDbEntity
8
E-0
6
CONTINUOUS
62
6
100
AcDbLine
10
159.635488000000
20
128.585213243530
30
0.0
11
156.848472000000
21
131.139978243530
31
0.0
0
LINE
5
993
100
AcDbEntity
8
E-0
6
CONTINUOUS
62
6
100
AcDbLine
10
156.848472000000
20
131.139978243530
30
0.0
11
154.525958000000
21
134.391497243530
31
0.0
0
LINE
5
994
100
AcDbEntity
8
E-0
6
CONTINUOUS
62
6
100
AcDbLine
10
154.525958000000
20
134.391497243530
30
0.0
11
152.667947000000
21
140.662284243530
31
0.0
0
LINE
5
995
100
AcDbEntity
8
E-0
6
CONTINUOUS
62
6
100
AcDbLine
10
152.667947000000
20
140.662284243530
30
0.0
11
154.525958000000
21
146.468568243530
31
0.0
0
LINE
5
996
100
AcDbEntity
8
E-0
6
CONTINUOUS
62
6
100
AcDbLine
10
154.525958000000
20
146.468568243530
30
0.0
11
161.493499000000
21
156.455377243530
31
0.0
0
LINE
5
997
100
AcDbEntity
8
E-0
6
CONTINUOUS
62
6
100
AcDbLine
10
161.493499000000
20
156.455377243530
30
0.0
11
213.982307000000
21
227.524294243530
31
0.0
0
LINE
5
998
100
AcDbEntity
8
E-0
6
CONTINUOUS
62
6
100
AcDbLine
10
213.982307000000
20
227.524294243530
30
0.0
11
213.982307000000
21
232.633824243530
31
0.0
0
LINE
5
999
100
AcDbEntity
8
E-0
6
CONTINUOUS
62
6
100
AcDbLine
10
213.982307000000
20
232.633824243530
30
0.0
11
215.375815000000
21
235.885343243530
31
0.0
0
LINE
5
99a
100
AcDbEntity
8
E-0
6
CONTINUOUS
62
6
100
AcDbLine
10
215.375815000000
20
235.885343243530
30
0.0
11
219.091837000000
21
240.065867243530
31
0.0
0
LINE
5
99b
100
AcDbEntity
8
E-0
6
CONTINUOUS
62
6
100
AcDbLine
10
219.091837000000
20
240.065867243530
30
0.0
11
220.253094000000
21
241.227124243530
31
0.0
0
LINE
5
99c
100
AcDbEntity
8
E-0
6
CONTINUOUS
62
6
100
AcDbLine
10
220.253094000000
20
241.227124243530
30
0.0
11
222.343356000000
21
244.246392243530
31
0.0
0
LINE
5
99d
100
AcDbEntity
8
E-0
6
CONTINUOUS
62
6
100
AcDbLine
10
222.343356000000
20
244.246392243530
30
0.0
11
225.827126000000
21
244.710895243530
31
0.0
0
LINE
5
99e
100
AcDbEntity
8
E-0
6
CONTINUOUS
62
6
100
AcDbLine
10
225.827126000000
20
244.710895243530
30
0.0
11
231.865662000000
21
245.872151243530
31
0.0
0
LINE
5
99f
100
AcDbEntity
8
E-0
6
CONTINUOUS
62
6
100
AcDbLine
10
231.865662000000
20
245.872151243530
30
0.0
11
234.188175000000
21
245.639900243530
31
0.0
0
LINE
5
9a0
100
AcDbEntity
8
E-0
6
CONTINUOUS
62
6
100
AcDbLine
10
234.188175000000
20
245.639900243530
30
0.0
11
239.065454000000
21
244.014140243530
31
0.0
0
LINE
5
9a1
100
AcDbEntity
8
E-0
6
CONTINUOUS
62
6
100
AcDbLine
10
239.065454000000
20
244.014140243530
30
0.0
11
240.923465000000
21
241.691627243530
31
0.0
0
LINE
5
9a2
100
AcDbEntity
8
E-0
6
CONTINUOUS
62
6
100
AcDbLine
10
240.923465000000
20
241.691627243530
30
0.0
11
246.032995000000
21
234.956337243530
31
0.0
0
LINE
5
9a3
100
AcDbEntity
8
E-0
6
CONTINUOUS
62
6
100
AcDbLine
10
246.032995000000
20
234.956337243530
30
0.0
11
261.826088000000
21
208.711933243530
31
0.0
0
LINE
5
9a4
100
AcDbEntity
8
E-0
6
CONTINUOUS
62
6
100
AcDbLine
10
273.014716000000
20
189.810506243530
30
0.0
11
295.493432000000
21
151.006963243530
31
0.0
0
LINE
5
9a5
100
AcDbEntity
8
E-0
6
CONTINUOUS
62
6
100
AcDbLine
10
295.493432000000
20
151.006963243530
30
0.0
11
297.648975000000
21
145.464139243530
31
0.0
0
LINE
5
9a6
100
AcDbEntity
8
E-0
6
CONTINUOUS
62
6
100
AcDbLine
10
297.648975000000
20
145.464139243530
30
0.0
11
296.725171000000
21
142.692728243530
31
0.0
0
LINE
5
9a7
100
AcDbEntity
8
E-0
6
CONTINUOUS
62
6
100
AcDbLine
10
296.725171000000
20
142.692728243530
30
0.0
11
293.953759000000
21
138.843545243530
31
0.0
0
LINE
5
9a8
100
AcDbEntity
8
E-0
6
CONTINUOUS
62
6
100
AcDbLine
10
293.953759000000
20
138.843545243530
30
0.0
11
283.176048000000
21
135.610232243530
31
0.0
0
LINE
5
9a9
100
AcDbEntity
8
E-0
6
CONTINUOUS
62
6
100
AcDbLine
10
283.176048000000
20
135.610232243530
30
0.0
11
276.709421000000
21
133.300722243530
31
0.0
0
LINE
5
9aa
100
AcDbEntity
8
E-0
6
CONTINUOUS
62
6
100
AcDbLine
10
276.709421000000
20
133.300722243530
30
0.0
11
271.012630000000
21
135.610232243530
31
0.0
0
LINE
5
9ab
100
AcDbEntity
8
E-0
6
CONTINUOUS
62
6
100
AcDbLine
10
271.012630000000
20
135.610232243530
30
0.0
11
262.236494000000
21
145.002238243530
31
0.0
0
LINE
5
9ac
100
AcDbEntity
8
E-0
6
CONTINUOUS
62
6
100
AcDbLine
10
262.236494000000
20
145.002238243530
30
0.0
11
261.928559000000
21
150.083159243530
31
0.0
0
LINE
5
9ad
100
AcDbEntity
8
E-0
6
CONTINUOUS
62
6
100
AcDbLine
10
261.928559000000
20
150.083159243530
30
0.0
11
227.220635000000
21
206.853922243530
31
0.0
0
LINE
5
9ae
100
AcDbEntity
8
E-0
6
CONTINUOUS
62
6
100
AcDbLine
10
292.873230000000
20
138.519386243530
30
0.0
11
295.898713000000
21
141.544869243530
31
0.0
0
LINE
5
9af
100
AcDbEntity
8
E-0
6
CONTINUOUS
62
6
100
AcDbLine
10
288.832619000000
20
137.307203243530
30
0.0
11
297.464337000000
21
145.938921243530
31
0.0
0
LINE
5
9b0
100
AcDbEntity
8
E-0
6
CONTINUOUS
62
6
100
AcDbLine
10
284.792009000000
20
136.095020243530
30
0.0
11
296.672378000000
21
147.975389243530
31
0.0
0
LINE
5
9b1
100
AcDbEntity
8
E-0
6
CONTINUOUS
62
6
100
AcDbLine
10
280.535875000000
20
134.667313243530
30
0.0
11
295.880418000000
21
150.011856243530
31
0.0
0
LINE
5
9b2
100
AcDbEntity
8
E-0
6
CONTINUOUS
62
6
100
AcDbLine
10
276.447173000000
20
133.407039243530
30
0.0
11
294.962908000000
21
151.922773243530
31
0.0
0
LINE
5
9b3
100
AcDbEntity
8
E-0
6
CONTINUOUS
62
6
100
AcDbLine
10
274.434639000000
20
134.222931243530
30
0.0
11
293.925423000000
21
153.713715243530
31
0.0
0
LINE
5
9b4
100
AcDbEntity
8
E-0
6
CONTINUOUS
62
6
100
AcDbLine
10
272.422104000000
20
135.038823243530
30
0.0
11
292.887938000000
21
155.504657243530
31
0.0
0
LINE
5
9b5
100
AcDbEntity
8
E-0
6
CONTINUOUS
62
6
100
AcDbLine
10
270.603223000000
20
136.048369243530
30
0.0
11
291.850453000000
21
157.295600243530
31
0.0
0
LINE
5
9b6
100
AcDbEntity
8
E-0
6
CONTINUOUS
62
6
100
AcDbLine
10
269.236949000000
20
137.510522243530
30
0.0
11
290.812969000000
21
159.086542243530
31
0.0
0
LINE
5
9b7
100
AcDbEntity
8
E-0
6
CONTINUOUS
62
6
100
AcDbLine
10
267.870675000000
20
138.972675243530
30
0.0
11
289.775484000000
21
160.877485243530
31
0.0
0
LINE
5
9b8
100
AcDbEntity
8
E-0
6
CONTINUOUS
62
6
100
AcDbLine
10
266.504401000000
20
140.434828243530
30
0.0
11
288.737999000000
21
162.668427243530
31
0.0
0
LINE
5
9b9
100
AcDbEntity
8
E-0
6
CONTINUOUS
62
6
100
AcDbLine
10
265.138126000000
20
141.896981243530
30
0.0
11
287.700514000000
21
164.459369243530
31
0.0
0
LINE
5
9ba
100
AcDbEntity
8
E-0
6
CONTINUOUS
62
6
100
AcDbLine
10
263.771852000000
20
143.359134243530
30
0.0
11
286.663029000000
21
166.250312243530
31
0.0
0
LINE
5
9bb
100
AcDbEntity
8
E-0
6
CONTINUOUS
62
6
100
AcDbLine
10
262.405578000000
20
144.821287243530
30
0.0
11
285.625545000000
21
168.041254243530
31
0.0
0
LINE
5
9bc
100
AcDbEntity
8
E-0
6
CONTINUOUS
62
6
100
AcDbLine
10
262.094871000000
20
147.339008243530
30
0.0
11
284.588060000000
21
169.832196243530
31
0.0
0
LINE
5
9bd
100
AcDbEntity
8
E-0
6
CONTINUOUS
62
6
100
AcDbLine
10
261.933247000000
20
150.005810243530
30
0.0
11
283.550575000000
21
171.623139243530
31
0.0
0
LINE
5
9be
100
AcDbEntity
8
E-0
6
CONTINUOUS
62
6
100
AcDbLine
10
260.886551000000
20
151.787542243530
30
0.0
11
282.513090000000
21
173.414081243530
31
0.0
0
LINE
5
9bf
100
AcDbEntity
8
E-0
6
CONTINUOUS
62
6
100
AcDbLine
10
259.813418000000
20
153.542835243530
30
0.0
11
281.475606000000
21
175.205023243530
31
0.0
0
LINE
5
9c0
100
AcDbEntity
8
E-0
6
CONTINUOUS
62
6
100
AcDbLine
10
258.740284000000
20
155.298129243530
30
0.0
11
280.438121000000
21
176.995966243530
31
0.0
0
LINE
5
9c1
100
AcDbEntity
8
E-0
6
CONTINUOUS
62
6
100
AcDbLine
10
257.667151000000
20
157.053423243530
30
0.0
11
279.400636000000
21
178.786908243530
31
0.0
0
LINE
5
9c2
100
AcDbEntity
8
E-0
6
CONTINUOUS
62
6
100
AcDbLine
10
256.594017000000
20
158.808717243530
30
0.0
11
278.363151000000
21
180.577850243530
31
0.0
0
LINE
5
9c3
100
AcDbEntity
8
E-0
6
CONTINUOUS
62
6
100
AcDbLine
10
255.520884000000
20
160.564010243530
30
0.0
11
277.325666000000
21
182.368793243530
31
0.0
0
LINE
5
9c4
100
AcDbEntity
8
E-0
6
CONTINUOUS
62
6
100
AcDbLine
10
254.447751000000
20
162.319304243530
30
0.0
11
276.288182000000
21
184.159735243530
31
0.0
0
LINE
5
9c5
100
AcDbEntity
8
E-0
6
CONTINUOUS
62
6
100
AcDbLine
10
253.374617000000
20
164.074598243530
30
0.0
11
275.250697000000
21
185.950677243530
31
0.0
0
LINE
5
9c6
100
AcDbEntity
8
E-0
6
CONTINUOUS
62
6
100
AcDbLine
10
252.301484000000
20
165.829891243530
30
0.0
11
274.213212000000
21
187.741620243530
31
0.0
0
LINE
5
9c7
100
AcDbEntity
8
E-0
6
CONTINUOUS
62
6
100
AcDbLine
10
251.228350000000
20
167.585185243530
30
0.0
11
273.175727000000
21
189.532562243530
31
0.0
0
LINE
5
9c8
100
AcDbEntity
8
E-0
6
CONTINUOUS
62
6
100
AcDbLine
10
250.155217000000
20
169.340479243530
30
0.0
11
270.625244000000
21
189.810506243530
31
0.0
0
LINE
5
9c9
100
AcDbEntity
8
E-0
6
CONTINUOUS
62
6
100
AcDbLine
10
249.082084000000
20
171.095773243530
30
0.0
11
267.796817000000
21
189.810506243530
31
0.0
0
LINE
5
9ca
100
AcDbEntity
8
E-0
6
CONTINUOUS
62
6
100
AcDbLine
10
248.008950000000
20
172.851066243530
30
0.0
11
264.968390000000
21
189.810506243530
31
0.0
0
LINE
5
9cb
100
AcDbEntity
8
E-0
6
CONTINUOUS
62
6
100
AcDbLine
10
246.935817000000
20
174.606360243530
30
0.0
11
262.139963000000
21
189.810506243530
31
0.0
0
LINE
5
9cc
100
AcDbEntity
8
E-0
6
CONTINUOUS
62
6
100
AcDbLine
10
245.862683000000
20
176.361654243530
30
0.0
11
259.311536000000
21
189.810506243530
31
0.0
0
LINE
5
9cd
100
AcDbEntity
8
E-0
6
CONTINUOUS
62
6
100
AcDbLine
10
244.789550000000
20
178.116948243530
30
0.0
11
256.483109000000
21
189.810506243530
31
0.0
0
LINE
5
9ce
100
AcDbEntity
8
E-0
6
CONTINUOUS
62
6
100
AcDbLine
10
243.716417000000
20
179.872241243530
30
0.0
11
253.654682000000
21
189.810506243530
31
0.0
0
LINE
5
9cf
100
AcDbEntity
8
E-0
6
CONTINUOUS
62
6
100
AcDbLine
10
242.643283000000
20
181.627535243530
30
0.0
11
251.032309000000
21
190.016561243530
31
0.0
0
LINE
5
9d0
100
AcDbEntity
8
E-0
6
CONTINUOUS
62
6
100
AcDbLine
10
241.570150000000
20
183.382829243530
30
0.0
11
254.896013000000
21
196.708692243530
31
0.0
0
LINE
5
9d1
100
AcDbEntity
8
E-0
6
CONTINUOUS
62
6
100
AcDbLine
10
240.497017000000
20
185.138122243530
30
0.0
11
258.759716000000
21
203.400822243530
31
0.0
0
LINE
5
9d2
100
AcDbEntity
8
E-0
6
CONTINUOUS
62
6
100
AcDbLine
10
239.423883000000
20
186.893416243530
30
0.0
11
261.606802000000
21
209.076335243530
31
0.0
0
LINE
5
9d3
100
AcDbEntity
8
E-0
6
CONTINUOUS
62
6
100
AcDbLine
10
238.350750000000
20
188.648710243530
30
0.0
11
260.544188000000
21
210.842148243530
31
0.0
0
LINE
5
9d4
100
AcDbEntity
8
E-0
6
CONTINUOUS
62
6
100
AcDbLine
10
237.277616000000
20
190.404004243530
30
0.0
11
259.481575000000
21
212.607962243530
31
0.0
0
LINE
5
9d5
100
AcDbEntity
8
E-0
6
CONTINUOUS
62
6
100
AcDbLine
10
236.204483000000
20
192.159297243530
30
0.0
11
258.418961000000
21
214.373776243530
31
0.0
0
LINE
5
9d6
100
AcDbEntity
8
E-0
6
CONTINUOUS
62
6
100
AcDbLine
10
235.131350000000
20
193.914591243530
30
0.0
11
257.356348000000
21
216.139589243530
31
0.0
0
LINE
5
9d7
100
AcDbEntity
8
E-0
6
CONTINUOUS
62
6
100
AcDbLine
10
234.058216000000
20
195.669885243530
30
0.0
11
256.293734000000
21
217.905403243530
31
0.0
0
LINE
5
9d8
100
AcDbEntity
8
E-0
6
CONTINUOUS
62
6
100
AcDbLine
10
166.901778000000
20
131.341874243530
30
0.0
11
176.918850000000
21
141.358946243530
31
0.0
0
LINE
5
9d9
100
AcDbEntity
8
E-0
6
CONTINUOUS
62
6
100
AcDbLine
10
232.985083000000
20
197.425179243530
30
0.0
11
255.231121000000
21
219.671217243530
31
0.0
0
LINE
5
9da
100
AcDbEntity
8
E-0
6
CONTINUOUS
62
6
100
AcDbLine
10
162.277377000000
20
129.545900243530
30
0.0
11
186.283237000000
21
153.551760243530
31
0.0
0
LINE
5
9db
100
AcDbEntity
8
E-0
6
CONTINUOUS
62
6
100
AcDbLine
10
231.911949000000
20
199.180472243530
30
0.0
11
254.168507000000
21
221.437030243530
31
0.0
0
LINE
5
9dc
100
AcDbEntity
8
E-0
6
CONTINUOUS
62
6
100
AcDbLine
10
159.036936000000
20
129.133886243530
30
0.0
11
195.647624000000
21
165.744574243530
31
0.0
0
LINE
5
9dd
100
AcDbEntity
8
E-0
6
CONTINUOUS
62
6
100
AcDbLine
10
230.838816000000
20
200.935766243530
30
0.0
11
253.105894000000
21
223.202844243530
31
0.0
0
LINE
5
9de
100
AcDbEntity
8
E-0
6
CONTINUOUS
62
6
100
AcDbLine
10
157.561235000000
20
130.486612243530
30
0.0
11
205.012011000000
21
177.937389243530
31
0.0
0
LINE
5
9df
100
AcDbEntity
8
E-0
6
CONTINUOUS
62
6
100
AcDbLine
10
229.765683000000
20
202.691060243530
30
0.0
11
252.043280000000
21
224.968657243530
31
0.0
0
LINE
5
9e0
100
AcDbEntity
8
E-0
6
CONTINUOUS
62
6
100
AcDbLine
10
156.239181000000
20
131.992985243530
30
0.0
11
214.376398000000
21
190.130203243530
31
0.0
0
LINE
5
9e1
100
AcDbEntity
8
E-0
6
CONTINUOUS
62
6
100
AcDbLine
10
228.692549000000
20
204.446354243530
30
0.0
11
250.980667000000
21
226.734471243530
31
0.0
0
LINE
5
9e2
100
AcDbEntity
8
E-0
6
CONTINUOUS
62
6
100
AcDbLine
10
155.060670000000
20
133.642901243530
30
0.0
11
223.740786000000
21
202.323017243530
31
0.0
0
LINE
5
9e3
100
AcDbEntity
8
E-0
6
CONTINUOUS
62
6
100
AcDbLine
10
227.619416000000
20
206.201647243530
30
0.0
11
249.918053000000
21
228.500285243530
31
0.0
0
LINE
5
9e4
100
AcDbEntity
8
E-0
6
CONTINUOUS
62
6
100
AcDbLine
10
154.172788000000
20
135.583446243530
30
0.0
11
248.855440000000
21
230.266098243530
31
0.0
0
LINE
5
9e5
100
AcDbEntity
8
E-0
6
CONTINUOUS
62
6
100
AcDbLine
10
153.526290000000
20
137.765376243530
30
0.0
11
247.792826000000
21
232.031912243530
31
0.0
0
LINE
5
9e6
100
AcDbEntity
8
E-0
6
CONTINUOUS
62
6
100
AcDbLine
10
152.879793000000
20
139.947305243530
30
0.0
11
246.730213000000
21
233.797725243530
31
0.0
0
LINE
5
9e7
100
AcDbEntity
8
E-0
6
CONTINUOUS
62
6
100
AcDbLine
10
153.562819000000
20
143.458759243530
30
0.0
11
245.613443000000
21
235.509383243530
31
0.0
0
LINE
5
9e8
100
AcDbEntity
8
E-0
6
CONTINUOUS
62
6
100
AcDbLine
10
156.330012000000
20
149.054380243530
30
0.0
11
244.393337000000
21
237.117704243530
31
0.0
0
LINE
5
9e9
100
AcDbEntity
8
E-0
6
CONTINUOUS
62
6
100
AcDbLine
10
163.162838000000
20
158.715632243530
30
0.0
11
243.173231000000
21
238.726026243530
31
0.0
0
LINE
5
9ea
100
AcDbEntity
8
E-0
6
CONTINUOUS
62
6
100
AcDbLine
10
171.153144000000
20
169.534366243530
30
0.0
11
241.953126000000
21
240.334347243530
31
0.0
0
LINE
5
9eb
100
AcDbEntity
8
E-0
6
CONTINUOUS
62
6
100
AcDbLine
10
179.143451000000
20
180.353099243530
30
0.0
11
240.727249000000
21
241.936897243530
31
0.0
0
LINE
5
9ec
100
AcDbEntity
8
E-0
6
CONTINUOUS
62
6
100
AcDbLine
10
187.133757000000
20
191.171833243530
30
0.0
11
239.470170000000
21
243.508246243530
31
0.0
0
LINE
5
9ed
100
AcDbEntity
8
E-0
6
CONTINUOUS
62
6
100
AcDbLine
10
195.124064000000
20
201.990567243530
30
0.0
11
237.627092000000
21
244.493595243530
31
0.0
0
LINE
5
9ee
100
AcDbEntity
8
E-0
6
CONTINUOUS
62
6
100
AcDbLine
10
203.114371000000
20
212.809301243530
30
0.0
11
235.505771000000
21
245.200701243530
31
0.0
0
LINE
5
9ef
100
AcDbEntity
8
E-0
6
CONTINUOUS
62
6
100
AcDbLine
10
211.104677000000
20
223.628034243530
30
0.0
11
233.213964000000
21
245.737321243530
31
0.0
0
LINE
5
9f0
100
AcDbEntity
8
E-0
6
CONTINUOUS
62
6
100
AcDbLine
10
213.982307000000
20
229.334091243530
30
0.0
11
230.200059000000
21
245.551843243530
31
0.0
0
LINE
5
9f1
100
AcDbEntity
8
E-0
6
CONTINUOUS
62
6
100
AcDbLine
10
213.982307000000
20
232.162518243530
30
0.0
11
226.698197000000
21
244.878408243530
31
0.0
0
LINE
5
9f2
100
AcDbEntity
8
E-0
6
CONTINUOUS
62
6
100
AcDbLine
10
220.330961000000
20
241.339600243530
30
0.0
11
223.375353000000
21
244.383991243530
31
0.0
0
LINE
5
9f3
100
AcDbEntity
8
E-0
6
CONTINUOUS
62
6
100
AcDbLine
10
154.445886000000
20
134.661741243530
30
0.0
11
160.285900000000
21
128.821727243530
31
0.0
0
LINE
5
9f4
100
AcDbEntity
8
E-0
6
CONTINUOUS
62
6
100
AcDbLine
10
153.254969000000
20
138.681085243530
30
0.0
11
162.360080000000
21
129.575974243530
31
0.0
0
LINE
5
9f5
100
AcDbEntity
8
E-0
6
CONTINUOUS
62
6
100
AcDbLine
10
153.015644000000
20
141.748837243530
30
0.0
11
164.434260000000
21
130.330221243530
31
0.0
0
LINE
5
9f6
100
AcDbEntity
8
E-0
6
CONTINUOUS
62
6
100
AcDbLine
10
153.701323000000
20
143.891585243530
30
0.0
11
166.442429000000
21
131.150479243530
31
0.0
0
LINE
5
9f7
100
AcDbEntity
8
E-0
6
CONTINUOUS
62
6
100
AcDbLine
10
154.387003000000
20
146.034333243530
30
0.0
11
168.438966000000
21
131.982369243530
31
0.0
0
LINE
5
9f8
100
AcDbEntity
8
E-0
6
CONTINUOUS
62
6
100
AcDbLine
10
155.452767000000
20
147.796995243530
30
0.0
11
170.390715000000
21
132.859047243530
31
0.0
0
LINE
5
9f9
100
AcDbEntity
8
E-0
6
CONTINUOUS
62
6
100
AcDbLine
10
156.615135000000
20
149.463055243530
30
0.0
11
171.619376000000
21
134.458814243530
31
0.0
0
LINE
5
9fa
100
AcDbEntity
8
E-0
6
CONTINUOUS
62
6
100
AcDbLine
10
157.777502000000
20
151.129115243530
30
0.0
11
172.848036000000
21
136.058580243530
31
0.0
0
LINE
5
9fb
100
AcDbEntity
8
E-0
6
CONTINUOUS
62
6
100
AcDbLine
10
158.939869000000
20
152.795174243530
30
0.0
11
174.076697000000
21
137.658347243530
31
0.0
0
LINE
5
9fc
100
AcDbEntity
8
E-0
6
CONTINUOUS
62
6
100
AcDbLine
10
160.102237000000
20
154.461234243530
30
0.0
11
175.305358000000
21
139.258113243530
31
0.0
0
LINE
5
9fd
100
AcDbEntity
8
E-0
6
CONTINUOUS
62
6
100
AcDbLine
10
161.264604000000
20
156.127294243530
30
0.0
11
176.534018000000
21
140.857879243530
31
0.0
0
LINE
5
9fe
100
AcDbEntity
8
E-0
6
CONTINUOUS
62
6
100
AcDbLine
10
162.458438000000
20
157.761887243530
30
0.0
11
177.762679000000
21
142.457646243530
31
0.0
0
LINE
5
9ff
100
AcDbEntity
8
E-0
6
CONTINUOUS
62
6
100
AcDbLine
10
163.659988000000
20
159.388764243530
30
0.0
11
178.991340000000
21
144.057412243530
31
0.0
0
LINE
5
a00
100
AcDbEntity
8
E-0
6
CONTINUOUS
62
6
100
AcDbLine
10
164.861538000000
20
161.015642243530
30
0.0
11
180.220001000000
21
145.657179243530
31
0.0
0
LINE
5
a01
100
AcDbEntity
8
E-0
6
CONTINUOUS
62
6
100
AcDbLine
10
166.063087000000
20
162.642519243530
30
0.0
11
181.448661000000
21
147.256945243530
31
0.0
0
LINE
5
a02
100
AcDbEntity
8
E-0
6
CONTINUOUS
62
6
100
AcDbLine
10
167.264637000000
20
164.269396243530
30
0.0
11
182.677322000000
21
148.856711243530
31
0.0
0
LINE
5
a03
100
AcDbEntity
8
E-0
6
CONTINUOUS
62
6
100
AcDbLine
10
168.466187000000
20
165.896273243530
30
0.0
11
183.905983000000
21
150.456478243530
31
0.0
0
LINE
5
a04
100
AcDbEntity
8
E-0
6
CONTINUOUS
62
6
100
AcDbLine
10
169.667737000000
20
167.523151243530
30
0.0
11
185.134643000000
21
152.056244243530
31
0.0
0
LINE
5
a05
100
AcDbEntity
8
E-0
6
CONTINUOUS
62
6
100
AcDbLine
10
170.869287000000
20
169.150028243530
30
0.0
11
186.363304000000
21
153.656011243530
31
0.0
0
LINE
5
a06
100
AcDbEntity
8
E-0
6
CONTINUOUS
62
6
100
AcDbLine
10
172.070837000000
20
170.776905243530
30
0.0
11
187.591965000000
21
155.255777243530
31
0.0
0
LINE
5
a07
100
AcDbEntity
8
E-0
6
CONTINUOUS
62
6
100
AcDbLine
10
173.272387000000
20
172.403782243530
30
0.0
11
188.820626000000
21
156.855543243530
31
0.0
0
LINE
5
a08
100
AcDbEntity
8
E-0
6
CONTINUOUS
62
6
100
AcDbLine
10
174.473937000000
20
174.030660243530
30
0.0
11
190.049286000000
21
158.455310243530
31
0.0
0
LINE
5
a09
100
AcDbEntity
8
E-0
6
CONTINUOUS
62
6
100
AcDbLine
10
175.675486000000
20
175.657537243530
30
0.0
11
191.277947000000
21
160.055076243530
31
0.0
0
LINE
5
a0a
100
AcDbEntity
8
E-0
6
CONTINUOUS
62
6
100
AcDbLine
10
176.877036000000
20
177.284414243530
30
0.0
11
192.506608000000
21
161.654843243530
31
0.0
0
LINE
5
a0b
100
AcDbEntity
8
E-0
6
CONTINUOUS
62
6
100
AcDbLine
10
178.078586000000
20
178.911291243530
30
0.0
11
193.735268000000
21
163.254609243530
31
0.0
0
LINE
5
a0c
100
AcDbEntity
8
E-0
6
CONTINUOUS
62
6
100
AcDbLine
10
179.280136000000
20
180.538169243530
30
0.0
11
194.963929000000
21
164.854376243530
31
0.0
0
LINE
5
a0d
100
AcDbEntity
8
E-0
6
CONTINUOUS
62
6
100
AcDbLine
10
180.481686000000
20
182.165046243530
30
0.0
11
196.192590000000
21
166.454142243530
31
0.0
0
LINE
5
a0e
100
AcDbEntity
8
E-0
6
CONTINUOUS
62
6
100
AcDbLine
10
181.683236000000
20
183.791923243530
30
0.0
11
197.421251000000
21
168.053908243530
31
0.0
0
LINE
5
a0f
100
AcDbEntity
8
E-0
6
CONTINUOUS
62
6
100
AcDbLine
10
182.884786000000
20
185.418800243530
30
0.0
11
198.649911000000
21
169.653675243530
31
0.0
0
LINE
5
a10
100
AcDbEntity
8
E-0
6
CONTINUOUS
62
6
100
AcDbLine
10
184.086336000000
20
187.045678243530
30
0.0
11
199.878572000000
21
171.253441243530
31
0.0
0
LINE
5
a11
100
AcDbEntity
8
E-0
6
CONTINUOUS
62
6
100
AcDbLine
10
185.287885000000
20
188.672555243530
30
0.0
11
201.107233000000
21
172.853208243530
31
0.0
0
LINE
5
a12
100
AcDbEntity
8
E-0
6
CONTINUOUS
62
6
100
AcDbLine
10
186.489435000000
20
190.299432243530
30
0.0
11
202.335894000000
21
174.452974243530
31
0.0
0
LINE
5
a13
100
AcDbEntity
8
E-0
6
CONTINUOUS
62
6
100
AcDbLine
10
187.690985000000
20
191.926309243530
30
0.0
11
203.564554000000
21
176.052740243530
31
0.0
0
LINE
5
a14
100
AcDbEntity
8
E-0
6
CONTINUOUS
62
6
100
AcDbLine
10
188.892535000000
20
193.553187243530
30
0.0
11
204.793215000000
21
177.652507243530
31
0.0
0
LINE
5
a15
100
AcDbEntity
8
E-0
6
CONTINUOUS
62
6
100
AcDbLine
10
190.094085000000
20
195.180064243530
30
0.0
11
206.021876000000
21
179.252273243530
31
0.0
0
LINE
5
a16
100
AcDbEntity
8
E-0
6
CONTINUOUS
62
6
100
AcDbLine
10
191.295635000000
20
196.806941243530
30
0.0
11
207.250536000000
21
180.852040243530
31
0.0
0
LINE
5
a17
100
AcDbEntity
8
E-0
6
CONTINUOUS
62
6
100
AcDbLine
10
192.497185000000
20
198.433818243530
30
0.0
11
208.479197000000
21
182.451806243530
31
0.0
0
LINE
5
a18
100
AcDbEntity
8
E-0
6
CONTINUOUS
62
6
100
AcDbLine
10
193.698734000000
20
200.060696243530
30
0.0
11
209.707858000000
21
184.051572243530
31
0.0
0
LINE
5
a19
100
AcDbEntity
8
E-0
6
CONTINUOUS
62
6
100
AcDbLine
10
194.900284000000
20
201.687573243530
30
0.0
11
210.936519000000
21
185.651339243530
31
0.0
0
LINE
5
a1a
100
AcDbEntity
8
E-0
6
CONTINUOUS
62
6
100
AcDbLine
10
196.101834000000
20
203.314450243530
30
0.0
11
212.165179000000
21
187.251105243530
31
0.0
0
LINE
5
a1b
100
AcDbEntity
8
E-0
6
CONTINUOUS
62
6
100
AcDbLine
10
197.303384000000
20
204.941328243530
30
0.0
11
213.393840000000
21
188.850872243530
31
0.0
0
LINE
5
a1c
100
AcDbEntity
8
E-0
6
CONTINUOUS
62
6
100
AcDbLine
10
198.504934000000
20
206.568205243530
30
0.0
11
214.622501000000
21
190.450638243530
31
0.0
0
LINE
5
a1d
100
AcDbEntity
8
E-0
6
CONTINUOUS
62
6
100
AcDbLine
10
199.706484000000
20
208.195082243530
30
0.0
11
215.851161000000
21
192.050404243530
31
0.0
0
LINE
5
a1e
100
AcDbEntity
8
E-0
6
CONTINUOUS
62
6
100
AcDbLine
10
262.193730000000
20
145.707836243530
30
0.0
11
273.163178000000
21
134.738388243530
31
0.0
0
LINE
5
a1f
100
AcDbEntity
8
E-0
6
CONTINUOUS
62
6
100
AcDbLine
10
200.908034000000
20
209.821959243530
30
0.0
11
217.079822000000
21
193.650171243530
31
0.0
0
LINE
5
a20
100
AcDbEntity
8
E-0
6
CONTINUOUS
62
6
100
AcDbLine
10
262.011251000000
20
148.718742243530
30
0.0
11
277.239837000000
21
133.490156243530
31
0.0
0
LINE
5
a21
100
AcDbEntity
8
E-0
6
CONTINUOUS
62
6
100
AcDbLine
10
202.109584000000
20
211.448837243530
30
0.0
11
218.308483000000
21
195.249937243530
31
0.0
0
LINE
5
a22
100
AcDbEntity
8
E-0
6
CONTINUOUS
62
6
100
AcDbLine
10
259.495381000000
20
154.063040243530
30
0.0
11
279.323941000000
21
134.234479243530
31
0.0
0
LINE
5
a23
100
AcDbEntity
8
E-0
6
CONTINUOUS
62
6
100
AcDbLine
10
203.311133000000
20
213.075714243530
30
0.0
11
219.537144000000
21
196.849704243530
31
0.0
0
LINE
5
a24
100
AcDbEntity
8
E-0
6
CONTINUOUS
62
6
100
AcDbLine
10
255.045870000000
20
161.340977243530
30
0.0
11
281.408045000000
21
134.978802243530
31
0.0
0
LINE
5
a25
100
AcDbEntity
8
E-0
6
CONTINUOUS
62
6
100
AcDbLine
10
204.512683000000
20
214.702591243530
30
0.0
11
220.765804000000
21
198.449470243530
31
0.0
0
LINE
5
a26
100
AcDbEntity
8
E-0
6
CONTINUOUS
62
6
100
AcDbLine
10
250.596359000000
20
168.618915243530
30
0.0
11
283.506044000000
21
135.709231243530
31
0.0
0
LINE
5
a27
100
AcDbEntity
8
E-0
6
CONTINUOUS
62
6
100
AcDbLine
10
205.714233000000
20
216.329468243530
30
0.0
11
221.994465000000
21
200.049236243530
31
0.0
0
LINE
5
a28
100
AcDbEntity
8
E-0
6
CONTINUOUS
62
6
100
AcDbLine
10
246.146849000000
20
175.896853243530
30
0.0
11
285.681757000000
21
136.361944243530
31
0.0
0
LINE
5
a29
100
AcDbEntity
8
E-0
6
CONTINUOUS
62
6
100
AcDbLine
10
206.915783000000
20
217.956346243530
30
0.0
11
223.223126000000
21
201.649003243530
31
0.0
0
LINE
5
a2a
100
AcDbEntity
8
E-0
6
CONTINUOUS
62
6
100
AcDbLine
10
241.697338000000
20
183.174790243530
30
0.0
11
287.857470000000
21
137.014658243530
31
0.0
0
LINE
5
a2b
100
AcDbEntity
8
E-0
6
CONTINUOUS
62
6
100
AcDbLine
10
208.117333000000
20
219.583223243530
30
0.0
11
224.451786000000
21
203.248769243530
31
0.0
0
LINE
5
a2c
100
AcDbEntity
8
E-0
6
CONTINUOUS
62
6
100
AcDbLine
10
237.247828000000
20
190.452728243530
30
0.0
11
290.033183000000
21
137.667372243530
31
0.0
0
LINE
5
a2d
100
AcDbEntity
8
E-0
6
CONTINUOUS
62
6
100
AcDbLine
10
209.318883000000
20
221.210100243530
30
0.0
11
225.680447000000
21
204.848536243530
31
0.0
0
LINE
5
a2e
100
AcDbEntity
8
E-0
6
CONTINUOUS
62
6
100
AcDbLine
10
232.798317000000
20
197.730666243530
30
0.0
11
292.208897000000
21
138.320086243530
31
0.0
0
LINE
5
a2f
100
AcDbEntity
8
E-0
6
CONTINUOUS
62
6
100
AcDbLine
10
210.520433000000
20
222.836977243530
30
0.0
11
226.909108000000
21
206.448302243530
31
0.0
0
LINE
5
a30
100
AcDbEntity
8
E-0
6
CONTINUOUS
62
6
100
AcDbLine
10
228.348807000000
20
205.008603243530
30
0.0
11
294.188222000000
21
139.169188243530
31
0.0
0
LINE
5
a31
100
AcDbEntity
8
E-0
6
CONTINUOUS
62
6
100
AcDbLine
10
211.721982000000
20
224.463855243530
30
0.0
11
295.372215000000
21
140.813622243530
31
0.0
0
LINE
5
a32
100
AcDbEntity
8
E-0
6
CONTINUOUS
62
6
100
AcDbLine
10
212.923532000000
20
226.090732243530
30
0.0
11
296.556208000000
21
142.458057243530
31
0.0
0
LINE
5
a33
100
AcDbEntity
8
E-0
6
CONTINUOUS
62
6
100
AcDbLine
10
213.982307000000
20
227.860384243530
30
0.0
11
251.322868000000
21
190.519823243530
31
0.0
0
LINE
5
a34
100
AcDbEntity
8
E-0
6
CONTINUOUS
62
6
100
AcDbLine
10
252.032185000000
20
189.810506243530
30
0.0
11
297.331369000000
21
144.511322243530
31
0.0
0
LINE
5
a35
100
AcDbEntity
8
E-0
6
CONTINUOUS
62
6
100
AcDbLine
10
213.982307000000
20
230.688812243530
30
0.0
11
252.358144000000
21
192.312974243530
31
0.0
0
LINE
5
a36
100
AcDbEntity
8
E-0
6
CONTINUOUS
62
6
100
AcDbLine
10
254.860612000000
20
189.810506243530
30
0.0
11
296.657517000000
21
148.013601243530
31
0.0
0
LINE
5
a37
100
AcDbEntity
8
E-0
6
CONTINUOUS
62
6
100
AcDbLine
10
214.247331000000
20
233.252214243530
30
0.0
11
253.393420000000
21
194.106125243530
31
0.0
0
LINE
5
a38
100
AcDbEntity
8
E-0
6
CONTINUOUS
62
6
100
AcDbLine
10
257.689039000000
20
189.810506243530
30
0.0
11
294.117637000000
21
153.381909243530
31
0.0
0
LINE
5
a39
100
AcDbEntity
8
E-0
6
CONTINUOUS
62
6
100
AcDbLine
10
215.095859000000
20
235.232113243530
30
0.0
11
254.428697000000
21
195.899276243530
31
0.0
0
LINE
5
a3a
100
AcDbEntity
8
E-0
6
CONTINUOUS
62
6
100
AcDbLine
10
260.517466000000
20
189.810506243530
30
0.0
11
290.222991000000
21
160.104981243530
31
0.0
0
LINE
5
a3b
100
AcDbEntity
8
E-0
6
CONTINUOUS
62
6
100
AcDbLine
10
216.267694000000
20
236.888706243530
30
0.0
11
255.463973000000
21
197.692427243530
31
0.0
0
LINE
5
a3c
100
AcDbEntity
8
E-0
6
CONTINUOUS
62
6
100
AcDbLine
10
263.345894000000
20
189.810506243530
30
0.0
11
286.328346000000
21
166.828054243530
31
0.0
0
LINE
5
a3d
100
AcDbEntity
8
E-0
6
CONTINUOUS
62
6
100
AcDbLine
10
217.598718000000
20
238.386109243530
30
0.0
11
256.499249000000
21
199.485578243530
31
0.0
0
LINE
5
a3e
100
AcDbEntity
8
E-0
6
CONTINUOUS
62
6
100
AcDbLine
10
266.174321000000
20
189.810506243530
30
0.0
11
282.433701000000
21
173.551126243530
31
0.0
0
LINE
5
a3f
100
AcDbEntity
8
E-0
6
CONTINUOUS
62
6
100
AcDbLine
10
218.929743000000
20
239.883511243530
30
0.0
11
257.534525000000
21
201.278729243530
31
0.0
0
LINE
5
a40
100
AcDbEntity
8
E-0
6
CONTINUOUS
62
6
100
AcDbLine
10
269.002748000000
20
189.810506243530
30
0.0
11
278.539055000000
21
180.274199243530
31
0.0
0
LINE
5
a41
100
AcDbEntity
8
E-0
6
CONTINUOUS
62
6
100
AcDbLine
10
220.319147000000
20
241.322534243530
30
0.0
11
258.569801000000
21
203.071880243530
31
0.0
0
LINE
5
a42
100
AcDbEntity
8
E-0
6
CONTINUOUS
62
6
100
AcDbLine
10
271.831175000000
20
189.810506243530
30
0.0
11
274.644410000000
21
186.997271243530
31
0.0
0
LINE
5
a43
100
AcDbEntity
8
E-0
6
CONTINUOUS
62
6
100
AcDbLine
10
221.476231000000
20
242.993878243530
30
0.0
11
259.605077000000
21
204.865031243530
31
0.0
0
LINE
5
a44
100
AcDbEntity
8
E-0
6
CONTINUOUS
62
6
100
AcDbLine
10
222.968757000000
20
244.329779243530
30
0.0
11
260.640354000000
21
206.658182243530
31
0.0
0
LINE
5
a45
100
AcDbEntity
8
E-0
6
CONTINUOUS
62
6
100
AcDbLine
10
225.464428000000
20
244.662535243530
30
0.0
11
261.675630000000
21
208.451333243530
31
0.0
0
LINE
5
a46
100
AcDbEntity
8
E-0
6
CONTINUOUS
62
6
100
AcDbLine
10
227.854597000000
20
245.100793243530
30
0.0
11
258.173175000000
21
214.782215243530
31
0.0
0
LINE
5
a47
100
AcDbEntity
8
E-0
6
CONTINUOUS
62
6
100
AcDbLine
10
230.226826000000
20
245.556991243530
30
0.0
11
253.899107000000
21
221.884710243530
31
0.0
0
LINE
5
a48
100
AcDbEntity
8
E-0
6
CONTINUOUS
62
6
100
AcDbLine
10
232.837252000000
20
245.774992243530
30
0.0
11
249.625039000000
21
228.987205243530
31
0.0
0
LINE
5
a49
100
AcDbEntity
8
E-0
6
CONTINUOUS
62
6
100
AcDbLine
10
236.607069000000
20
244.833602243530
30
0.0
11
244.614501000000
21
236.826170243530
31
0.0
0
LINE
5
a4a
100
AcDbEntity
8
E-0
6
CONTINUOUS
62
6
100
AcDbLine
10
304.223159000000
20
220.387180243530
30
0.0
11
304.223159000000
21
249.627417243530
31
0.0
0
LINE
5
a4b
100
AcDbEntity
8
E-0
6
CONTINUOUS
62
6
100
AcDbLine
10
302.223159000000
20
220.806019243530
30
0.0
11
302.223159000000
21
249.208578243530
31
0.0
0
LINE
5
a4c
100
AcDbEntity
8
E-0
6
CONTINUOUS
62
6
100
AcDbLine
10
300.223159000000
20
221.531215243530
30
0.0
11
300.223159000000
21
248.483382243530
31
0.0
0
LINE
5
a4d
100
AcDbEntity
8
E-0
6
CONTINUOUS
62
6
100
AcDbLine
10
298.223159000000
20
222.616443243530
30
0.0
11
298.223159000000
21
247.398154243530
31
0.0
0
LINE
5
a4e
100
AcDbEntity
8
E-0
6
CONTINUOUS
62
6
100
AcDbLine
10
296.223159000000
20
224.169319243530
30
0.0
11
296.223159000000
21
245.845277243530
31
0.0
0
LINE
5
a4f
100
AcDbEntity
8
E-0
6
CONTINUOUS
62
6
100
AcDbLine
10
294.223159000000
20
226.440486243530
30
0.0
11
294.223159000000
21
243.574111243530
31
0.0
0
LINE
5
a50
100
AcDbEntity
8
E-0
6
CONTINUOUS
62
6
100
AcDbLine
10
292.223159000000
20
230.390074243530
30
0.0
11
292.223159000000
21
239.624522243530
31
0.0
0
LINE
5
a51
100
AcDbEntity
8
E-0
6
CONTINUOUS
62
6
100
AcDbLine
10
251.132748000000
20
190.190526243530
30
0.0
11
293.693939000000
21
190.190526243530
31
0.0
0
LINE
5
a52
100
AcDbEntity
8
E-0
6
CONTINUOUS
62
6
100
AcDbLine
10
252.287448000000
20
192.190526243530
30
0.0
11
292.539239000000
21
192.190526243530
31
0.0
0
LINE
5
a53
100
AcDbEntity
8
E-0
6
CONTINUOUS
62
6
100
AcDbLine
10
253.442149000000
20
194.190526243530
30
0.0
11
291.384538000000
21
194.190526243530
31
0.0
0
LINE
5
a54
100
AcDbEntity
8
E-0
6
CONTINUOUS
62
6
100
AcDbLine
10
254.596850000000
20
196.190526243530
30
0.0
11
290.229838000000
21
196.190526243530
31
0.0
0
LINE
5
a55
100
AcDbEntity
8
E-0
6
CONTINUOUS
62
6
100
AcDbLine
10
255.751550000000
20
198.190526243530
30
0.0
11
289.075137000000
21
198.190526243530
31
0.0
0
LINE
5
a56
100
AcDbEntity
8
E-0
6
CONTINUOUS
62
6
100
AcDbLine
10
256.906251000000
20
200.190526243530
30
0.0
11
287.920436000000
21
200.190526243530
31
0.0
0
LINE
5
a57
100
AcDbEntity
8
E-0
6
CONTINUOUS
62
6
100
AcDbLine
10
258.060951000000
20
202.190526243530
30
0.0
11
286.765736000000
21
202.190526243530
31
0.0
0
LINE
5
a58
100
AcDbEntity
8
E-0
6
CONTINUOUS
62
6
100
AcDbLine
10
259.215652000000
20
204.190526243530
30
0.0
11
285.611035000000
21
204.190526243530
31
0.0
0
LINE
5
a59
100
AcDbEntity
8
E-0
6
CONTINUOUS
62
6
100
AcDbLine
10
260.370352000000
20
206.190526243530
30
0.0
11
284.456335000000
21
206.190526243530
31
0.0
0
LINE
5
a5a
100
AcDbEntity
8
E-0
6
CONTINUOUS
62
6
100
AcDbLine
10
261.525053000000
20
208.190526243530
30
0.0
11
283.301634000000
21
208.190526243530
31
0.0
0
LINE
5
a5b
100
AcDbEntity
8
E-0
6
CONTINUOUS
62
6
100
AcDbLine
10
262.679753000000
20
210.190526243530
30
0.0
11
282.146934000000
21
210.190526243530
31
0.0
0
LINE
5
a5c
100
AcDbEntity
8
E-0
6
CONTINUOUS
62
6
100
AcDbLine
10
263.834454000000
20
212.190526243530
30
0.0
11
280.992233000000
21
212.190526243530
31
0.0
0
LINE
5
a5d
100
AcDbEntity
8
E-0
6
CONTINUOUS
62
6
100
AcDbLine
10
264.989154000000
20
214.190526243530
30
0.0
11
279.837533000000
21
214.190526243530
31
0.0
0
LINE
5
a5e
100
AcDbEntity
8
E-0
6
CONTINUOUS
62
6
100
AcDbLine
10
266.143855000000
20
216.190526243530
30
0.0
11
278.682832000000
21
216.190526243530
31
0.0
0
LINE
5
a5f
100
AcDbEntity
8
E-0
6
CONTINUOUS
62
6
100
AcDbLine
10
267.298555000000
20
218.190526243530
30
0.0
11
277.528132000000
21
218.190526243530
31
0.0
0
LINE
5
a60
100
AcDbEntity
8
E-0
6
CONTINUOUS
62
6
100
AcDbLine
10
268.453256000000
20
220.190526243530
30
0.0
11
276.373431000000
21
220.190526243530
31
0.0
0
LINE
5
a61
100
AcDbEntity
8
E-0
6
CONTINUOUS
62
6
100
AcDbLine
10
269.607957000000
20
222.190526243530
30
0.0
11
275.218731000000
21
222.190526243530
31
0.0
0
LINE
5
a62
100
AcDbEntity
8
E-0
6
CONTINUOUS
62
6
100
AcDbLine
10
270.762657000000
20
224.190526243530
30
0.0
11
274.064030000000
21
224.190526243530
31
0.0
0
LINE
5
a63
100
AcDbEntity
8
E-0
6
CONTINUOUS
62
6
100
AcDbLine
10
271.917358000000
20
226.190526243530
30
0.0
11
272.909329000000
21
226.190526243530
31
0.0
0
LINE
5
a64
100
AcDbEntity
8
E-0
6
CONTINUOUS
62
6
100
AcDbLine
10
292.223159000000
20
189.810506243530
30
0.0
11
292.223159000000
21
192.737992243530
31
0.0
0
LINE
5
a65
100
AcDbEntity
8
E-0
6
CONTINUOUS
62
6
100
AcDbLine
10
290.223159000000
20
189.810506243530
30
0.0
11
290.223159000000
21
196.202093243530
31
0.0
0
LINE
5
a66
100
AcDbEntity
8
E-0
6
CONTINUOUS
62
6
100
AcDbLine
10
288.223159000000
20
189.810506243530
30
0.0
11
288.223159000000
21
199.666195243530
31
0.0
0
LINE
5
a67
100
AcDbEntity
8
E-0
6
CONTINUOUS
62
6
100
AcDbLine
10
286.223159000000
20
189.810506243530
30
0.0
11
286.223159000000
21
203.130297243530
31
0.0
0
LINE
5
a68
100
AcDbEntity
8
E-0
6
CONTINUOUS
62
6
100
AcDbLine
10
284.223159000000
20
189.810506243530
30
0.0
11
284.223159000000
21
206.594398243530
31
0.0
0
LINE
5
a69
100
AcDbEntity
8
E-0
6
CONTINUOUS
62
6
100
AcDbLine
10
282.223159000000
20
189.810506243530
30
0.0
11
282.223159000000
21
210.058500243530
31
0.0
0
LINE
5
a6a
100
AcDbEntity
8
E-0
6
CONTINUOUS
62
6
100
AcDbLine
10
280.223159000000
20
189.810506243530
30
0.0
11
280.223159000000
21
213.522601243530
31
0.0
0
LINE
5
a6b
100
AcDbEntity
8
E-0
6
CONTINUOUS
62
6
100
AcDbLine
10
278.223159000000
20
189.810506243530
30
0.0
11
278.223159000000
21
216.986703243530
31
0.0
0
LINE
5
a6c
100
AcDbEntity
8
E-0
6
CONTINUOUS
62
6
100
AcDbLine
10
276.223159000000
20
189.810506243530
30
0.0
11
276.223159000000
21
220.450805243530
31
0.0
0
LINE
5
a6d
100
AcDbEntity
8
E-0
6
CONTINUOUS
62
6
100
AcDbLine
10
274.223159000000
20
189.810506243530
30
0.0
11
274.223159000000
21
223.914906243530
31
0.0
0
LINE
5
a6e
100
AcDbEntity
8
E-0
6
CONTINUOUS
62
6
100
AcDbLine
10
272.223159000000
20
189.810506243530
30
0.0
11
272.223159000000
21
226.720189243530
31
0.0
0
LINE
5
a6f
100
AcDbEntity
8
E-0
6
CONTINUOUS
62
6
100
AcDbLine
10
270.223159000000
20
189.810506243530
30
0.0
11
270.223159000000
21
223.256088243530
31
0.0
0
LINE
5
a70
100
AcDbEntity
8
E-0
6
CONTINUOUS
62
6
100
AcDbLine
10
268.223159000000
20
189.810506243530
30
0.0
11
268.223159000000
21
219.791986243530
31
0.0
0
LINE
5
a71
100
AcDbEntity
8
E-0
6
CONTINUOUS
62
6
100
AcDbLine
10
266.223159000000
20
189.810506243530
30
0.0
11
266.223159000000
21
216.327884243530
31
0.0
0
LINE
5
a72
100
AcDbEntity
8
E-0
6
CONTINUOUS
62
6
100
AcDbLine
10
264.223159000000
20
189.810506243530
30
0.0
11
264.223159000000
21
212.863783243530
31
0.0
0
LINE
5
a73
100
AcDbEntity
8
E-0
6
CONTINUOUS
62
6
100
AcDbLine
10
262.223159000000
20
189.810506243530
30
0.0
11
262.223159000000
21
209.399681243530
31
0.0
0
LINE
5
a74
100
AcDbEntity
8
E-0
6
CONTINUOUS
62
6
100
AcDbLine
10
260.223159000000
20
189.810506243530
30
0.0
11
260.223159000000
21
205.935580243530
31
0.0
0
LINE
5
a75
100
AcDbEntity
8
E-0
6
CONTINUOUS
62
6
100
AcDbLine
10
258.223159000000
20
189.810506243530
30
0.0
11
258.223159000000
21
202.471478243530
31
0.0
0
LINE
5
a76
100
AcDbEntity
8
E-0
6
CONTINUOUS
62
6
100
AcDbLine
10
256.223159000000
20
189.810506243530
30
0.0
11
256.223159000000
21
199.007376243530
31
0.0
0
LINE
5
a77
100
AcDbEntity
8
E-0
6
CONTINUOUS
62
6
100
AcDbLine
10
254.223159000000
20
189.810506243530
30
0.0
11
254.223159000000
21
195.543275243530
31
0.0
0
LINE
5
a78
100
AcDbEntity
8
E-0
6
CONTINUOUS
62
6
100
AcDbLine
10
252.223159000000
20
189.810506243530
30
0.0
11
252.223159000000
21
192.079173243530
31
0.0
0
LINE
5
a79
100
AcDbEntity
8
F-0
6
CONTINUOUS
62
6
100
AcDbLine
10
1562.232782000000
20
211.675608243530
30
0.0
11
1562.232782000000
21
99.175608243530
31
0.0
0
LINE
5
a7a
100
AcDbEntity
8
F-0
6
CONTINUOUS
62
6
100
AcDbLine
10
1712.232782000000
20
211.675608243530
30
0.0
11
1712.232782000000
21
99.175608243530
31
0.0
0
LINE
5
a7b
100
AcDbEntity
8
F-0
6
CONTINUOUS
62
6
100
AcDbLine
10
2012.232782000000
20
181.675608243530
30
0.0
11
1362.232782000000
21
181.675608243530
31
0.0
0
LINE
5
a7c
100
AcDbEntity
8
F-0
6
CONTINUOUS
62
6
100
AcDbLine
10
1812.232782000000
20
279.175608243530
30
0.0
11
1812.232782000000
21
99.175608243530
31
0.0
0
LINE
5
a7d
100
AcDbEntity
8
F-0
6
CONTINUOUS
62
6
100
AcDbLine
10
1912.232782000000
20
279.175608243530
30
0.0
11
1912.232782000000
21
99.175608243530
31
0.0
0
LINE
5
a7e
100
AcDbEntity
8
F-0
6
CONTINUOUS
62
6
100
AcDbLine
10
2012.232782000000
20
245.425608243530
30
0.0
11
1912.232782000000
21
245.425608243530
31
0.0
0
LINE
5
a7f
100
AcDbEntity
8
F-0
6
CONTINUOUS
62
6
100
AcDbLine
10
2012.232782000000
20
211.675608243530
30
0.0
11
1362.232782000000
21
211.675608243530
31
0.0
0
CIRCLE
5
a80
100
AcDbEntity
8
2-0
6
CONTINUOUS
62
2
100
AcDbCircle
10
1837.232782000000
20
245.425608243530
30
0.0
40
20.000000000000
0
CIRCLE
5
a81
100
AcDbEntity
8
2-0
6
CONTINUOUS
62
2
100
AcDbCircle
10
1837.232782000000
20
245.425608243530
30
0.0
40
10.000000000000
0
LINE
5
a82
100
AcDbEntity
8
1-1
6
CENTER2
62
16
100
AcDbLine
10
1837.232782000000
20
270.425608243530
30
0.0
11
1837.232782000000
21
220.425608243530
31
0.0
0
LINE
5
a83
100
AcDbEntity
8
2-0
6
CONTINUOUS
62
2
100
AcDbLine
10
1867.232782000000
20
255.425608243530
30
0.0
11
1902.232782000000
21
265.425608243530
31
0.0
0
LINE
5
a84
100
AcDbEntity
8
2-0
6
CONTINUOUS
62
2
100
AcDbLine
10
1902.232782000000
20
265.425608243530
30
0.0
11
1902.232782000000
21
225.425608243530
31
0.0
0
LINE
5
a85
100
AcDbEntity
8
2-0
6
CONTINUOUS
62
2
100
AcDbLine
10
1867.232782000000
20
235.425608243530
30
0.0
11
1902.232782000000
21
225.425608243530
31
0.0
0
LINE
5
a86
100
AcDbEntity
8
2-0
6
CONTINUOUS
62
2
100
AcDbLine
10
1867.232782000000
20
255.425608243530
30
0.0
11
1867.232782000000
21
235.425608243530
31
0.0
0
LINE
5
a87
100
AcDbEntity
8
1-1
6
CENTER2
62
16
100
AcDbLine
10
1812.232782000000
20
245.425608243530
30
0.0
11
1907.232782000000
21
245.425608243530
31
0.0
0
LINE
5
a88
100
AcDbEntity
8
F-0
6
CONTINUOUS
62
6
100
AcDbLine
10
1362.232782000000
20
189.175608243530
30
0.0
11
687.767213000000
21
189.175608243530
31
0.0
0
LINE
5
a89
100
AcDbEntity
8
F-0
6
CONTINUOUS
62
6
100
AcDbLine
10
687.767213000000
20
99.175608243530
30
0.0
11
687.767213000000
21
279.175608243530
31
0.0
0
TEXT
5
a8a
100
AcDbEntity
8
2-1
62
4
100
AcDbText
10
697.767
20
252.477
30
0.0
40
25.600
1
品番
41
1.000
50
0.000
100
AcDbText
0
TEXT
5
a8b
100
AcDbEntity
8
2-1
62
4
100
AcDbText
10
697.767
20
162.516
30
0.0
40
25.600
1
名称
41
1.000
50
0.000
100
AcDbText
0
TEXT
5
a8c
100
AcDbEntity
8
2-1
62
4
100
AcDbText
10
1840.640
20
183.593
30
0.0
40
25.600
1
検図
41
1.000
50
0.000
100
AcDbText
0
LINE
5
a8d
100
AcDbEntity
8
F-0
6
CONTINUOUS
62
6
100
AcDbLine
10
87.767213000000
20
279.175608243530
30
0.0
11
87.767213000000
21
99.175608243530
31
0.0
0
TEXT
5
a8e
100
AcDbEntity
8
2-1
62
4
100
AcDbText
10
1940.899
20
249.741
30
0.0
40
25.600
1
単位
41
1.000
50
0.000
100
AcDbText
0
TEXT
5
a8f
100
AcDbEntity
8
2-1
62
4
100
AcDbText
10
1933.661
20
219.324
30
0.0
40
25.600
1
mm
41
1.000
50
0.000
100
AcDbText
0
TEXT
5
a90
100
AcDbEntity
8
2-1
62
4
100
AcDbText
10
1574.757
20
127.866
30
0.0
40
25.600
1
S=1：10
41
1.000
50
0.000
100
AcDbText
0
TEXT
5
a91
100
AcDbEntity
8
2-1
62
4
100
AcDbText
10
1396.995
20
127.866
30
0.0
40
25.600
1
10.10.01
41
1.000
50
0.000
100
AcDbText
0
TEXT
5
a92
100
AcDbEntity
8
2-1
62
4
100
AcDbText
10
1741.566
20
127.866
30
0.0
40
25.600
1
竹内
41
1.000
50
0.000
100
AcDbText
0
TEXT
5
a93
100
AcDbEntity
8
2-1
62
4
100
AcDbText
10
1439.566
20
184.116
30
0.0
40
25.600
1
日付
41
1.000
50
0.000
100
AcDbText
0
TEXT
5
a94
100
AcDbEntity
8
2-1
62
4
100
AcDbText
10
1591.518
20
184.116
30
0.0
40
25.600
1
SCALE
41
1.000
50
0.000
100
AcDbText
0
TEXT
5
a95
100
AcDbEntity
8
2-1
62
4
100
AcDbText
10
1741.566
20
184.116
30
0.0
40
25.600
1
製図
41
1.000
50
0.000
100
AcDbText
0
TEXT
5
a96
100
AcDbEntity
8
2-1
62
4
100
AcDbText
10
899.286
20
209.056
30
0.0
40
51.200
1
GI-L250
41
1.000
50
0.000
100
AcDbText
0
TEXT
5
a97
100
AcDbEntity
8
2-1
62
4
100
AcDbText
10
964.048
20
119.056
30
0.0
40
51.200
1
Idea
41
1.000
50
0.000
100
AcDbText
0
TEXT
5
a98
100
AcDbEntity
8
2-1
62
4
100
AcDbText
10
131.903
20
323.165
30
0.0
40
25.600
1
焼成による寸法誤差が生じることがありますのであらかじめご了承下さい。
41
1.000
50
0.000
100
AcDbText
0
TEXT
5
a99
100
AcDbEntity
8
2-1
62
4
100
AcDbText
10
132.422
20
394.500
30
0.0
40
25.600
1
深さ：150mm
41
1.000
50
0.000
100
AcDbText
0
TEXT
5
a9a
100
AcDbEntity
8
2-1
62
4
100
AcDbText
10
132.817
20
468.042
30
0.0
40
25.600
1
オーバーフロー：有
41
1.000
50
0.000
100
AcDbText
0
TEXT
5
a9b
100
AcDbEntity
8
2-1
62
4
100
AcDbText
10
129.910
20
433.489
30
0.0
40
25.600
1
タイプ：アンダーシンク型
41
1.000
50
0.000
100
AcDbText
0
TEXT
5
a9c
100
AcDbEntity
8
2-1
62
4
100
AcDbText
10
132.422
20
361.762
30
0.0
40
25.600
1
取り付けには固定金具GI-LBISをご利用下さい。
41
1.000
50
0.000
100
AcDbText
0
ENDSEC
0
EOF
