0
SECTION
2
HEADER
9
$ACADVER
1
AC1009
9
$DWGCODEPAGE
3
ANSI_932
9
$EXTMIN
10
0.000
20
0.000
30
0.0
9
$EXTMAX
10
4752.000
20
3360.000
30
0.0
9
$LTSCALE
40
8.000
9
$PDMODE
70
0
9
$PDSIZE
40
40.0
0
ENDSEC
0
SECTION
2
TABLES
0
TABLE
2
LTYPE
70
9
0
LTYPE
5
1f4
2
CONTINUOUS
70
64
3
SolidLine
72
65
73
0
40
0.0
0
LTYPE
5
1f5
2
DOT
70
64
3
--  --  --  --  --  --  --  --     
72
65
73
2
40
3.000
49
1.000
49
-2.000
0
LTYPE
5
1f6
2
DASHED
70
64
3
----    ----    ----    ----    
72
65
73
2
40
5.000
49
2.000
49
-3.000
0
LTYPE
5
1f7
2
DASHED2
70
64
3
------  ------  ------  ------ 
72
65
73
2
40
10.000
49
4.000
49
-6.000
0
LTYPE
5
1f8
2
CENTER
70
64
3
----- - ----- - ----- - ----- - 
72
65
73
4
40
10.000
49
6.000
49
-3.000
49
1.000
49
-3.000
0
LTYPE
5
1f9
2
CENTER2
70
64
3
----------  --  ----------  -- 
72
65
73
4
40
17.000
49
12.000
49
-5.000
49
2.000
49
-5.000
0
LTYPE
5
1fa
2
PHANTOM
70
64
3
--- - - --- - - --- - - --- - -
72
65
73
6
40
13.000
49
5.000
49
-3.000
49
1.000
49
-3.000
49
1.000
49
-3.000
0
LTYPE
5
1fb
2
PHANTOM2
70
64
3
--------  -  -  --------  -  -
72
65
73
6
40
20.000
49
6.000
49
-5.000
49
2.000
49
-5.000
49
2.000
49
-5.000
0
LTYPE
5
1fc
2
HIDDEN
70
64
3
-   -   -   -   -   -   -   -   
72
65
73
2
40
3.000
49
0.500
49
-2.500
0
ENDTAB
0
TABLE
2
STYLE
70
1
0
STYLE
5
1fd
100
AcDbSymbolTableRecord
100
AcDbTextStyleTableRecord
2
STANDARD
70
0
40
0.0
41
1.0
50
0.0
71
0
42
0.0
3
txt.shx
4
extfont.shx
0
STYLE
5
1fe
100
AcDbSymbolTableRecord
100
AcDbTextStyleTableRecord
2
TATEGAKI
70
4
40
0.0
41
1.0
50
0.0
71
0
42
0.0
3
txt.shx
4
extfont.shx
0
STYLE
5
1ff
100
AcDbSymbolTableRecord
100
AcDbTextStyleTableRecord
2
DIM
70
0
40
0.0
41
0.75
50
0.0
71
0
42
0.0
3
txt.shx
4
extfont.shx
0
STYLE
5
200
100
AcDbSymbolTableRecord
100
AcDbTextStyleTableRecord
2
_Gothic__
70
0
40
0.0
41
1.0
50
0.0
71
0
42
0.0
3
MS Gothic
4

0
STYLE
5
201
100
AcDbSymbolTableRecord
100
AcDbTextStyleTableRecord
2
_TateGothic_
70
4
40
0.0
41
1.0
50
0.0
71
0
42
0.0
3
@MS Gothic
4

0
ENDTAB
0
TABLE
2
LAYER
5
403
100
AcDbSymbolTable
70
10
0
LAYER
5
404
100
AcDbSymbolTableRecord
100
AcDbLayerTableRecord
2
2-0
70
0
62
7
6
CONTINUOUS
0
LAYER
5
405
100
AcDbSymbolTableRecord
100
AcDbLayerTableRecord
2
3-0
70
0
62
7
6
CONTINUOUS
0
LAYER
5
406
100
AcDbSymbolTableRecord
100
AcDbLayerTableRecord
2
5-0
70
0
62
7
6
CONTINUOUS
0
LAYER
5
407
100
AcDbSymbolTableRecord
100
AcDbLayerTableRecord
2
6-0
70
0
62
7
6
CONTINUOUS
0
LAYER
5
408
100
AcDbSymbolTableRecord
100
AcDbLayerTableRecord
2
7-0
70
0
62
-7
6
CONTINUOUS
0
LAYER
5
409
100
AcDbSymbolTableRecord
100
AcDbLayerTableRecord
2
8-0
70
0
62
-7
6
CONTINUOUS
0
LAYER
5
40a
100
AcDbSymbolTableRecord
100
AcDbLayerTableRecord
2
9-0
70
0
62
2
6
DASHED2
0
LAYER
5
40b
100
AcDbSymbolTableRecord
100
AcDbLayerTableRecord
2
A-0
70
0
62
6
6
CONTINUOUS
0
LAYER
5
40c
100
AcDbSymbolTableRecord
100
AcDbLayerTableRecord
2
B-0
70
0
62
6
6
CONTINUOUS
0
LAYER
5
40d
100
AcDbSymbolTableRecord
100
AcDbLayerTableRecord
2
C-0
70
0
62
3
6
CONTINUOUS
0
LAYER
5
40e
100
AcDbSymbolTableRecord
100
AcDbLayerTableRecord
2
D-0
70
0
62
1
6
CENTER2
0
LAYER
5
40f
100
AcDbSymbolTableRecord
100
AcDbLayerTableRecord
2
E-0
70
0
62
4
6
CONTINUOUS
0
ENDTAB
0
ENDSEC
0
SECTION
2
ENTITIES
0
LINE
5
410
100
AcDbEntity
8
8-0
6
CONTINUOUS
62
7
100
AcDbLine
10
0.000000000000
20
0.000000000000
30
0.0
11
2100.000000000000
21
0.000000000000
31
0.0
0
LINE
5
411
100
AcDbEntity
8
8-0
6
CONTINUOUS
62
7
100
AcDbLine
10
2100.000000000000
20
0.000000000000
30
0.0
11
2100.000000000000
21
2970.000000000000
31
0.0
0
LINE
5
412
100
AcDbEntity
8
8-0
6
CONTINUOUS
62
7
100
AcDbLine
10
2100.000000000000
20
2970.000000000000
30
0.0
11
0.000000000000
21
2970.000000000000
31
0.0
0
LINE
5
413
100
AcDbEntity
8
8-0
6
CONTINUOUS
62
7
100
AcDbLine
10
0.000000000000
20
2970.000000000000
30
0.0
11
0.000000000000
21
0.000000000000
31
0.0
0
LINE
5
414
100
AcDbEntity
8
5-0
6
CONTINUOUS
62
5
100
AcDbLine
10
287.614521000000
20
1359.175609000000
30
0.0
11
987.614521000000
21
1359.175609000000
31
0.0
0
LINE
5
415
100
AcDbEntity
8
5-0
6
CONTINUOUS
62
5
100
AcDbLine
10
287.614521000000
20
1359.175609000000
30
0.0
11
300.614521000000
21
1379.175609000000
31
0.0
0
LINE
5
416
100
AcDbEntity
8
5-0
6
CONTINUOUS
62
5
100
AcDbLine
10
287.614521000000
20
1359.175609000000
30
0.0
11
397.614521000000
21
1285.175609000000
31
0.0
0
LINE
5
417
100
AcDbEntity
8
5-0
6
CONTINUOUS
62
5
100
AcDbLine
10
397.614521000000
20
1279.175609000000
30
0.0
11
397.614521000000
21
1285.175609000000
31
0.0
0
LINE
5
418
100
AcDbEntity
8
5-0
6
CONTINUOUS
62
5
100
AcDbLine
10
877.614521000000
20
1279.175609000000
30
0.0
11
877.614521000000
21
1285.175609000000
31
0.0
0
LINE
5
419
100
AcDbEntity
8
5-0
6
CONTINUOUS
62
5
100
AcDbLine
10
987.614521000000
20
1359.175609000000
30
0.0
11
974.614521000000
21
1379.175609000000
31
0.0
0
LINE
5
41a
100
AcDbEntity
8
5-0
6
CONTINUOUS
62
5
100
AcDbLine
10
987.614521000000
20
1359.175609000000
30
0.0
11
877.614521000000
21
1285.175609000000
31
0.0
0
LINE
5
41b
100
AcDbEntity
8
5-0
6
CONTINUOUS
62
5
100
AcDbLine
10
300.614521000000
20
1379.175609000000
30
0.0
11
974.614521000000
21
1379.175609000000
31
0.0
0
LINE
5
41c
100
AcDbEntity
8
5-0
6
CONTINUOUS
62
5
100
AcDbLine
10
397.614521000000
20
1285.175609000000
30
0.0
11
877.614521000000
21
1285.175609000000
31
0.0
0
LINE
5
41d
100
AcDbEntity
8
5-0
6
CONTINUOUS
62
5
100
AcDbLine
10
397.614521000000
20
1279.175609000000
30
0.0
11
877.614521000000
21
1279.175609000000
31
0.0
0
LINE
5
41e
100
AcDbEntity
8
5-0
6
CONTINUOUS
62
5
100
AcDbLine
10
600.114521000000
20
1243.175609000000
30
0.0
11
675.114521000000
21
1243.175609000000
31
0.0
0
LINE
5
41f
100
AcDbEntity
8
5-0
6
CONTINUOUS
62
5
100
AcDbLine
10
600.114521000000
20
1243.175609000000
30
0.0
11
600.114521000000
21
1279.175609000000
31
0.0
0
LINE
5
420
100
AcDbEntity
8
5-0
6
CONTINUOUS
62
5
100
AcDbLine
10
675.114521000000
20
1243.175609000000
30
0.0
11
675.114521000000
21
1279.175609000000
31
0.0
0
LINE
5
421
100
AcDbEntity
8
5-0
6
CONTINUOUS
62
5
100
AcDbLine
10
987.614521000000
20
2270.824391000000
30
0.0
11
982.297234000000
21
2305.554027000000
31
0.0
0
LINE
5
422
100
AcDbEntity
8
5-0
6
CONTINUOUS
62
5
100
AcDbLine
10
982.297234000000
20
2305.554027000000
30
0.0
11
966.506938000000
21
2339.228420000000
31
0.0
0
LINE
5
423
100
AcDbEntity
8
5-0
6
CONTINUOUS
62
5
100
AcDbLine
10
966.506938000000
20
2339.228420000000
30
0.0
11
940.723412000000
21
2370.824391000000
31
0.0
0
LINE
5
424
100
AcDbEntity
8
5-0
6
CONTINUOUS
62
5
100
AcDbLine
10
940.723412000000
20
2370.824391000000
30
0.0
11
905.730076000000
21
2399.381913000000
31
0.0
0
LINE
5
425
100
AcDbEntity
8
5-0
6
CONTINUOUS
62
5
100
AcDbLine
10
905.730076000000
20
2399.381913000000
30
0.0
11
862.590184000000
21
2424.033280000000
31
0.0
0
LINE
5
426
100
AcDbEntity
8
5-0
6
CONTINUOUS
62
5
100
AcDbLine
10
862.590184000000
20
2424.033280000000
30
0.0
11
812.614521000000
21
2444.029472000000
31
0.0
0
LINE
5
427
100
AcDbEntity
8
5-0
6
CONTINUOUS
62
5
100
AcDbLine
10
812.614521000000
20
2444.029472000000
30
0.0
11
757.321571000000
21
2458.762915000000
31
0.0
0
LINE
5
428
100
AcDbEntity
8
5-0
6
CONTINUOUS
62
5
100
AcDbLine
10
757.321571000000
20
2458.762915000000
30
0.0
11
698.391383000000
21
2467.785942000000
31
0.0
0
LINE
5
429
100
AcDbEntity
8
5-0
6
CONTINUOUS
62
5
100
AcDbLine
10
698.391383000000
20
2467.785942000000
30
0.0
11
637.614521000000
21
2470.824391000000
31
0.0
0
LINE
5
42a
100
AcDbEntity
8
5-0
6
CONTINUOUS
62
5
100
AcDbLine
10
637.614521000000
20
2470.824391000000
30
0.0
11
576.837659000000
21
2467.785942000000
31
0.0
0
LINE
5
42b
100
AcDbEntity
8
5-0
6
CONTINUOUS
62
5
100
AcDbLine
10
576.837659000000
20
2467.785942000000
30
0.0
11
517.907471000000
21
2458.762915000000
31
0.0
0
LINE
5
42c
100
AcDbEntity
8
5-0
6
CONTINUOUS
62
5
100
AcDbLine
10
517.907471000000
20
2458.762915000000
30
0.0
11
462.614521000000
21
2444.029472000000
31
0.0
0
LINE
5
42d
100
AcDbEntity
8
5-0
6
CONTINUOUS
62
5
100
AcDbLine
10
462.614521000000
20
2444.029472000000
30
0.0
11
412.638857000000
21
2424.033280000000
31
0.0
0
LINE
5
42e
100
AcDbEntity
8
5-0
6
CONTINUOUS
62
5
100
AcDbLine
10
412.638857000000
20
2424.033280000000
30
0.0
11
369.498966000000
21
2399.381913000000
31
0.0
0
LINE
5
42f
100
AcDbEntity
8
5-0
6
CONTINUOUS
62
5
100
AcDbLine
10
369.498966000000
20
2399.381913000000
30
0.0
11
334.505629000000
21
2370.824391000000
31
0.0
0
LINE
5
430
100
AcDbEntity
8
5-0
6
CONTINUOUS
62
5
100
AcDbLine
10
334.505629000000
20
2370.824391000000
30
0.0
11
308.722104000000
21
2339.228420000000
31
0.0
0
LINE
5
431
100
AcDbEntity
8
5-0
6
CONTINUOUS
62
5
100
AcDbLine
10
308.722104000000
20
2339.228420000000
30
0.0
11
292.931807000000
21
2305.554027000000
31
0.0
0
LINE
5
432
100
AcDbEntity
8
5-0
6
CONTINUOUS
62
5
100
AcDbLine
10
292.931807000000
20
2305.554027000000
30
0.0
11
287.614521000000
21
2270.824391000000
31
0.0
0
LINE
5
433
100
AcDbEntity
8
5-0
6
CONTINUOUS
62
5
100
AcDbLine
10
287.614521000000
20
2270.824391000000
30
0.0
11
292.931807000000
21
2236.094756000000
31
0.0
0
LINE
5
434
100
AcDbEntity
8
5-0
6
CONTINUOUS
62
5
100
AcDbLine
10
292.931807000000
20
2236.094756000000
30
0.0
11
308.722104000000
21
2202.420362000000
31
0.0
0
LINE
5
435
100
AcDbEntity
8
5-0
6
CONTINUOUS
62
5
100
AcDbLine
10
308.722104000000
20
2202.420362000000
30
0.0
11
334.505629000000
21
2170.824391000000
31
0.0
0
LINE
5
436
100
AcDbEntity
8
5-0
6
CONTINUOUS
62
5
100
AcDbLine
10
334.505629000000
20
2170.824391000000
30
0.0
11
369.498966000000
21
2142.266869000000
31
0.0
0
LINE
5
437
100
AcDbEntity
8
5-0
6
CONTINUOUS
62
5
100
AcDbLine
10
369.498966000000
20
2142.266869000000
30
0.0
11
412.638857000000
21
2117.615503000000
31
0.0
0
LINE
5
438
100
AcDbEntity
8
5-0
6
CONTINUOUS
62
5
100
AcDbLine
10
412.638857000000
20
2117.615503000000
30
0.0
11
462.614521000000
21
2097.619310000000
31
0.0
0
LINE
5
439
100
AcDbEntity
8
5-0
6
CONTINUOUS
62
5
100
AcDbLine
10
462.614521000000
20
2097.619310000000
30
0.0
11
517.907471000000
21
2082.885867000000
31
0.0
0
LINE
5
43a
100
AcDbEntity
8
5-0
6
CONTINUOUS
62
5
100
AcDbLine
10
517.907471000000
20
2082.885867000000
30
0.0
11
576.837659000000
21
2073.862841000000
31
0.0
0
LINE
5
43b
100
AcDbEntity
8
5-0
6
CONTINUOUS
62
5
100
AcDbLine
10
576.837659000000
20
2073.862841000000
30
0.0
11
637.614521000000
21
2070.824391000000
31
0.0
0
LINE
5
43c
100
AcDbEntity
8
5-0
6
CONTINUOUS
62
5
100
AcDbLine
10
637.614521000000
20
2070.824391000000
30
0.0
11
698.391383000000
21
2073.862841000000
31
0.0
0
LINE
5
43d
100
AcDbEntity
8
5-0
6
CONTINUOUS
62
5
100
AcDbLine
10
698.391383000000
20
2073.862841000000
30
0.0
11
757.321571000000
21
2082.885867000000
31
0.0
0
LINE
5
43e
100
AcDbEntity
8
5-0
6
CONTINUOUS
62
5
100
AcDbLine
10
757.321571000000
20
2082.885867000000
30
0.0
11
812.614521000000
21
2097.619310000000
31
0.0
0
LINE
5
43f
100
AcDbEntity
8
5-0
6
CONTINUOUS
62
5
100
AcDbLine
10
812.614521000000
20
2097.619310000000
30
0.0
11
862.590184000000
21
2117.615503000000
31
0.0
0
LINE
5
440
100
AcDbEntity
8
5-0
6
CONTINUOUS
62
5
100
AcDbLine
10
862.590184000000
20
2117.615503000000
30
0.0
11
905.730076000000
21
2142.266869000000
31
0.0
0
LINE
5
441
100
AcDbEntity
8
5-0
6
CONTINUOUS
62
5
100
AcDbLine
10
905.730076000000
20
2142.266869000000
30
0.0
11
940.723412000000
21
2170.824391000000
31
0.0
0
LINE
5
442
100
AcDbEntity
8
5-0
6
CONTINUOUS
62
5
100
AcDbLine
10
940.723412000000
20
2170.824391000000
30
0.0
11
966.506938000000
21
2202.420362000000
31
0.0
0
LINE
5
443
100
AcDbEntity
8
5-0
6
CONTINUOUS
62
5
100
AcDbLine
10
966.506938000000
20
2202.420362000000
30
0.0
11
982.297234000000
21
2236.094756000000
31
0.0
0
LINE
5
444
100
AcDbEntity
8
5-0
6
CONTINUOUS
62
5
100
AcDbLine
10
982.297234000000
20
2236.094756000000
30
0.0
11
987.614521000000
21
2270.824391000000
31
0.0
0
LINE
5
445
100
AcDbEntity
8
5-0
6
CONTINUOUS
62
5
100
AcDbLine
10
877.614521000000
20
2270.824391000000
30
0.0
11
873.968382000000
21
2292.964534000000
31
0.0
0
LINE
5
446
100
AcDbEntity
8
5-0
6
CONTINUOUS
62
5
100
AcDbLine
10
873.968382000000
20
2292.964534000000
30
0.0
11
863.140750000000
21
2314.431959000000
31
0.0
0
LINE
5
447
100
AcDbEntity
8
5-0
6
CONTINUOUS
62
5
100
AcDbLine
10
863.140750000000
20
2314.431959000000
30
0.0
11
845.460618000000
21
2334.574391000000
31
0.0
0
LINE
5
448
100
AcDbEntity
8
5-0
6
CONTINUOUS
62
5
100
AcDbLine
10
845.460618000000
20
2334.574391000000
30
0.0
11
821.465187000000
21
2352.779811000000
31
0.0
0
LINE
5
449
100
AcDbEntity
8
5-0
6
CONTINUOUS
62
5
100
AcDbLine
10
821.465187000000
20
2352.779811000000
30
0.0
11
791.883547000000
21
2368.495058000000
31
0.0
0
LINE
5
44a
100
AcDbEntity
8
5-0
6
CONTINUOUS
62
5
100
AcDbLine
10
791.883547000000
20
2368.495058000000
30
0.0
11
757.614521000000
21
2381.242630000000
31
0.0
0
LINE
5
44b
100
AcDbEntity
8
5-0
6
CONTINUOUS
62
5
100
AcDbLine
10
757.614521000000
20
2381.242630000000
30
0.0
11
719.699355000000
21
2390.635200000000
31
0.0
0
LINE
5
44c
100
AcDbEntity
8
5-0
6
CONTINUOUS
62
5
100
AcDbLine
10
719.699355000000
20
2390.635200000000
30
0.0
11
679.290083000000
21
2396.387380000000
31
0.0
0
LINE
5
44d
100
AcDbEntity
8
5-0
6
CONTINUOUS
62
5
100
AcDbLine
10
679.290083000000
20
2396.387380000000
30
0.0
11
637.614521000000
21
2398.324391000000
31
0.0
0
LINE
5
44e
100
AcDbEntity
8
5-0
6
CONTINUOUS
62
5
100
AcDbLine
10
637.614521000000
20
2398.324391000000
30
0.0
11
595.938958000000
21
2396.387380000000
31
0.0
0
LINE
5
44f
100
AcDbEntity
8
5-0
6
CONTINUOUS
62
5
100
AcDbLine
10
595.938958000000
20
2396.387380000000
30
0.0
11
555.529686000000
21
2390.635200000000
31
0.0
0
LINE
5
450
100
AcDbEntity
8
5-0
6
CONTINUOUS
62
5
100
AcDbLine
10
555.529686000000
20
2390.635200000000
30
0.0
11
517.614521000000
21
2381.242630000000
31
0.0
0
LINE
5
451
100
AcDbEntity
8
5-0
6
CONTINUOUS
62
5
100
AcDbLine
10
517.614521000000
20
2381.242630000000
30
0.0
11
483.345494000000
21
2368.495058000000
31
0.0
0
LINE
5
452
100
AcDbEntity
8
5-0
6
CONTINUOUS
62
5
100
AcDbLine
10
483.345494000000
20
2368.495058000000
30
0.0
11
453.763854000000
21
2352.779811000000
31
0.0
0
LINE
5
453
100
AcDbEntity
8
5-0
6
CONTINUOUS
62
5
100
AcDbLine
10
453.763854000000
20
2352.779811000000
30
0.0
11
429.768424000000
21
2334.574391000000
31
0.0
0
LINE
5
454
100
AcDbEntity
8
5-0
6
CONTINUOUS
62
5
100
AcDbLine
10
429.768424000000
20
2334.574391000000
30
0.0
11
412.088292000000
21
2314.431959000000
31
0.0
0
LINE
5
455
100
AcDbEntity
8
5-0
6
CONTINUOUS
62
5
100
AcDbLine
10
412.088292000000
20
2314.431959000000
30
0.0
11
401.260660000000
21
2292.964534000000
31
0.0
0
LINE
5
456
100
AcDbEntity
8
5-0
6
CONTINUOUS
62
5
100
AcDbLine
10
401.260660000000
20
2292.964534000000
30
0.0
11
397.614521000000
21
2270.824391000000
31
0.0
0
LINE
5
457
100
AcDbEntity
8
5-0
6
CONTINUOUS
62
5
100
AcDbLine
10
397.614521000000
20
2270.824391000000
30
0.0
11
401.260660000000
21
2248.684248000000
31
0.0
0
LINE
5
458
100
AcDbEntity
8
5-0
6
CONTINUOUS
62
5
100
AcDbLine
10
401.260660000000
20
2248.684248000000
30
0.0
11
412.088292000000
21
2227.216823000000
31
0.0
0
LINE
5
459
100
AcDbEntity
8
5-0
6
CONTINUOUS
62
5
100
AcDbLine
10
412.088292000000
20
2227.216823000000
30
0.0
11
429.768424000000
21
2207.074391000000
31
0.0
0
LINE
5
45a
100
AcDbEntity
8
5-0
6
CONTINUOUS
62
5
100
AcDbLine
10
429.768424000000
20
2207.074391000000
30
0.0
11
453.763854000000
21
2188.868971000000
31
0.0
0
LINE
5
45b
100
AcDbEntity
8
5-0
6
CONTINUOUS
62
5
100
AcDbLine
10
453.763854000000
20
2188.868971000000
30
0.0
11
483.345494000000
21
2173.153725000000
31
0.0
0
LINE
5
45c
100
AcDbEntity
8
5-0
6
CONTINUOUS
62
5
100
AcDbLine
10
483.345494000000
20
2173.153725000000
30
0.0
11
517.614521000000
21
2160.406152000000
31
0.0
0
LINE
5
45d
100
AcDbEntity
8
5-0
6
CONTINUOUS
62
5
100
AcDbLine
10
517.614521000000
20
2160.406152000000
30
0.0
11
555.529686000000
21
2151.013582000000
31
0.0
0
LINE
5
45e
100
AcDbEntity
8
5-0
6
CONTINUOUS
62
5
100
AcDbLine
10
555.529686000000
20
2151.013582000000
30
0.0
11
595.938958000000
21
2145.261403000000
31
0.0
0
LINE
5
45f
100
AcDbEntity
8
5-0
6
CONTINUOUS
62
5
100
AcDbLine
10
595.938958000000
20
2145.261403000000
30
0.0
11
637.614521000000
21
2143.324391000000
31
0.0
0
LINE
5
460
100
AcDbEntity
8
5-0
6
CONTINUOUS
62
5
100
AcDbLine
10
637.614521000000
20
2143.324391000000
30
0.0
11
679.290083000000
21
2145.261403000000
31
0.0
0
LINE
5
461
100
AcDbEntity
8
5-0
6
CONTINUOUS
62
5
100
AcDbLine
10
679.290083000000
20
2145.261403000000
30
0.0
11
719.699355000000
21
2151.013582000000
31
0.0
0
LINE
5
462
100
AcDbEntity
8
5-0
6
CONTINUOUS
62
5
100
AcDbLine
10
719.699355000000
20
2151.013582000000
30
0.0
11
757.614521000000
21
2160.406152000000
31
0.0
0
LINE
5
463
100
AcDbEntity
8
5-0
6
CONTINUOUS
62
5
100
AcDbLine
10
757.614521000000
20
2160.406152000000
30
0.0
11
791.883547000000
21
2173.153725000000
31
0.0
0
LINE
5
464
100
AcDbEntity
8
5-0
6
CONTINUOUS
62
5
100
AcDbLine
10
791.883547000000
20
2173.153725000000
30
0.0
11
821.465187000000
21
2188.868971000000
31
0.0
0
LINE
5
465
100
AcDbEntity
8
5-0
6
CONTINUOUS
62
5
100
AcDbLine
10
821.465187000000
20
2188.868971000000
30
0.0
11
845.460618000000
21
2207.074391000000
31
0.0
0
LINE
5
466
100
AcDbEntity
8
5-0
6
CONTINUOUS
62
5
100
AcDbLine
10
845.460618000000
20
2207.074391000000
30
0.0
11
863.140750000000
21
2227.216823000000
31
0.0
0
LINE
5
467
100
AcDbEntity
8
5-0
6
CONTINUOUS
62
5
100
AcDbLine
10
863.140750000000
20
2227.216823000000
30
0.0
11
873.968382000000
21
2248.684248000000
31
0.0
0
LINE
5
468
100
AcDbEntity
8
5-0
6
CONTINUOUS
62
5
100
AcDbLine
10
873.968382000000
20
2248.684248000000
30
0.0
11
877.614521000000
21
2270.824391000000
31
0.0
0
LINE
5
469
100
AcDbEntity
8
5-0
6
CONTINUOUS
62
5
100
AcDbLine
10
974.614521000000
20
2270.824391000000
30
0.0
11
969.494734000000
21
2303.296600000000
31
0.0
0
LINE
5
46a
100
AcDbEntity
8
5-0
6
CONTINUOUS
62
5
100
AcDbLine
10
969.494734000000
20
2303.296600000000
30
0.0
11
954.290934000000
21
2334.782158000000
31
0.0
0
LINE
5
46b
100
AcDbEntity
8
5-0
6
CONTINUOUS
62
5
100
AcDbLine
10
954.290934000000
20
2334.782158000000
30
0.0
11
929.465082000000
21
2364.324391000000
31
0.0
0
LINE
5
46c
100
AcDbEntity
8
5-0
6
CONTINUOUS
62
5
100
AcDbLine
10
929.465082000000
20
2364.324391000000
30
0.0
11
895.771498000000
21
2391.025674000000
31
0.0
0
LINE
5
46d
100
AcDbEntity
8
5-0
6
CONTINUOUS
62
5
100
AcDbLine
10
895.771498000000
20
2391.025674000000
30
0.0
11
854.233945000000
21
2414.074702000000
31
0.0
0
LINE
5
46e
100
AcDbEntity
8
5-0
6
CONTINUOUS
62
5
100
AcDbLine
10
854.233945000000
20
2414.074702000000
30
0.0
11
806.114521000000
21
2432.771141000000
31
0.0
0
LINE
5
46f
100
AcDbEntity
8
5-0
6
CONTINUOUS
62
5
100
AcDbLine
10
806.114521000000
20
2432.771141000000
30
0.0
11
752.875309000000
21
2446.546911000000
31
0.0
0
LINE
5
470
100
AcDbEntity
8
5-0
6
CONTINUOUS
62
5
100
AcDbLine
10
752.875309000000
20
2446.546911000000
30
0.0
11
696.133957000000
21
2454.983441000000
31
0.0
0
LINE
5
471
100
AcDbEntity
8
5-0
6
CONTINUOUS
62
5
100
AcDbLine
10
696.133957000000
20
2454.983441000000
30
0.0
11
637.614521000000
21
2457.824391000000
31
0.0
0
LINE
5
472
100
AcDbEntity
8
5-0
6
CONTINUOUS
62
5
100
AcDbLine
10
637.614521000000
20
2457.824391000000
30
0.0
11
579.095085000000
21
2454.983441000000
31
0.0
0
LINE
5
473
100
AcDbEntity
8
5-0
6
CONTINUOUS
62
5
100
AcDbLine
10
579.095085000000
20
2454.983441000000
30
0.0
11
522.353733000000
21
2446.546911000000
31
0.0
0
LINE
5
474
100
AcDbEntity
8
5-0
6
CONTINUOUS
62
5
100
AcDbLine
10
522.353733000000
20
2446.546911000000
30
0.0
11
469.114521000000
21
2432.771141000000
31
0.0
0
LINE
5
475
100
AcDbEntity
8
5-0
6
CONTINUOUS
62
5
100
AcDbLine
10
469.114521000000
20
2432.771141000000
30
0.0
11
420.995096000000
21
2414.074702000000
31
0.0
0
LINE
5
476
100
AcDbEntity
8
5-0
6
CONTINUOUS
62
5
100
AcDbLine
10
420.995096000000
20
2414.074702000000
30
0.0
11
379.457543000000
21
2391.025674000000
31
0.0
0
LINE
5
477
100
AcDbEntity
8
5-0
6
CONTINUOUS
62
5
100
AcDbLine
10
379.457543000000
20
2391.025674000000
30
0.0
11
345.763960000000
21
2364.324391000000
31
0.0
0
LINE
5
478
100
AcDbEntity
8
5-0
6
CONTINUOUS
62
5
100
AcDbLine
10
345.763960000000
20
2364.324391000000
30
0.0
11
320.938108000000
21
2334.782158000000
31
0.0
0
LINE
5
479
100
AcDbEntity
8
5-0
6
CONTINUOUS
62
5
100
AcDbLine
10
320.938108000000
20
2334.782158000000
30
0.0
11
305.734308000000
21
2303.296600000000
31
0.0
0
LINE
5
47a
100
AcDbEntity
8
5-0
6
CONTINUOUS
62
5
100
AcDbLine
10
305.734308000000
20
2303.296600000000
30
0.0
11
300.614521000000
21
2270.824391000000
31
0.0
0
LINE
5
47b
100
AcDbEntity
8
5-0
6
CONTINUOUS
62
5
100
AcDbLine
10
300.614521000000
20
2270.824391000000
30
0.0
11
305.734308000000
21
2238.352182000000
31
0.0
0
LINE
5
47c
100
AcDbEntity
8
5-0
6
CONTINUOUS
62
5
100
AcDbLine
10
305.734308000000
20
2238.352182000000
30
0.0
11
320.938108000000
21
2206.866624000000
31
0.0
0
LINE
5
47d
100
AcDbEntity
8
5-0
6
CONTINUOUS
62
5
100
AcDbLine
10
320.938108000000
20
2206.866624000000
30
0.0
11
345.763960000000
21
2177.324391000000
31
0.0
0
LINE
5
47e
100
AcDbEntity
8
5-0
6
CONTINUOUS
62
5
100
AcDbLine
10
345.763960000000
20
2177.324391000000
30
0.0
11
379.457543000000
21
2150.623108000000
31
0.0
0
LINE
5
47f
100
AcDbEntity
8
5-0
6
CONTINUOUS
62
5
100
AcDbLine
10
379.457543000000
20
2150.623108000000
30
0.0
11
420.995096000000
21
2127.574080000000
31
0.0
0
LINE
5
480
100
AcDbEntity
8
5-0
6
CONTINUOUS
62
5
100
AcDbLine
10
420.995096000000
20
2127.574080000000
30
0.0
11
469.114521000000
21
2108.877641000000
31
0.0
0
LINE
5
481
100
AcDbEntity
8
5-0
6
CONTINUOUS
62
5
100
AcDbLine
10
469.114521000000
20
2108.877641000000
30
0.0
11
522.353733000000
21
2095.101871000000
31
0.0
0
LINE
5
482
100
AcDbEntity
8
5-0
6
CONTINUOUS
62
5
100
AcDbLine
10
522.353733000000
20
2095.101871000000
30
0.0
11
579.095085000000
21
2086.665341000000
31
0.0
0
LINE
5
483
100
AcDbEntity
8
5-0
6
CONTINUOUS
62
5
100
AcDbLine
10
579.095085000000
20
2086.665341000000
30
0.0
11
637.614521000000
21
2083.824391000000
31
0.0
0
LINE
5
484
100
AcDbEntity
8
5-0
6
CONTINUOUS
62
5
100
AcDbLine
10
637.614521000000
20
2083.824391000000
30
0.0
11
696.133957000000
21
2086.665341000000
31
0.0
0
LINE
5
485
100
AcDbEntity
8
5-0
6
CONTINUOUS
62
5
100
AcDbLine
10
696.133957000000
20
2086.665341000000
30
0.0
11
752.875309000000
21
2095.101871000000
31
0.0
0
LINE
5
486
100
AcDbEntity
8
5-0
6
CONTINUOUS
62
5
100
AcDbLine
10
752.875309000000
20
2095.101871000000
30
0.0
11
806.114521000000
21
2108.877641000000
31
0.0
0
LINE
5
487
100
AcDbEntity
8
5-0
6
CONTINUOUS
62
5
100
AcDbLine
10
806.114521000000
20
2108.877641000000
30
0.0
11
854.233945000000
21
2127.574080000000
31
0.0
0
LINE
5
488
100
AcDbEntity
8
5-0
6
CONTINUOUS
62
5
100
AcDbLine
10
854.233945000000
20
2127.574080000000
30
0.0
11
895.771498000000
21
2150.623108000000
31
0.0
0
LINE
5
489
100
AcDbEntity
8
5-0
6
CONTINUOUS
62
5
100
AcDbLine
10
895.771498000000
20
2150.623108000000
30
0.0
11
929.465082000000
21
2177.324391000000
31
0.0
0
LINE
5
48a
100
AcDbEntity
8
5-0
6
CONTINUOUS
62
5
100
AcDbLine
10
929.465082000000
20
2177.324391000000
30
0.0
11
954.290934000000
21
2206.866624000000
31
0.0
0
LINE
5
48b
100
AcDbEntity
8
5-0
6
CONTINUOUS
62
5
100
AcDbLine
10
954.290934000000
20
2206.866624000000
30
0.0
11
969.494734000000
21
2238.352182000000
31
0.0
0
LINE
5
48c
100
AcDbEntity
8
5-0
6
CONTINUOUS
62
5
100
AcDbLine
10
969.494734000000
20
2238.352182000000
30
0.0
11
974.614521000000
21
2270.824391000000
31
0.0
0
CIRCLE
5
48d
100
AcDbEntity
8
5-0
6
CONTINUOUS
62
5
100
AcDbCircle
10
637.614521000000
20
2270.824391000000
30
0.0
40
23.000000000000
0
CIRCLE
5
48e
100
AcDbEntity
8
5-0
6
CONTINUOUS
62
5
100
AcDbCircle
10
637.614521000000
20
2270.824391000000
30
0.0
40
36.000000000000
0
LINE
5
48f
100
AcDbEntity
8
5-0
6
CONTINUOUS
62
5
100
AcDbLine
10
1374.923653000000
20
1359.175609000000
30
0.0
11
1387.923653000000
21
1379.175609000000
31
0.0
0
LINE
5
490
100
AcDbEntity
8
5-0
6
CONTINUOUS
62
5
100
AcDbLine
10
1374.923653000000
20
1359.175609000000
30
0.0
11
1434.923653000000
21
1285.175609000000
31
0.0
0
LINE
5
491
100
AcDbEntity
8
5-0
6
CONTINUOUS
62
5
100
AcDbLine
10
1374.923653000000
20
1359.175609000000
30
0.0
11
1774.923653000000
21
1359.175609000000
31
0.0
0
LINE
5
492
100
AcDbEntity
8
5-0
6
CONTINUOUS
62
5
100
AcDbLine
10
1434.923653000000
20
1285.175609000000
30
0.0
11
1434.923653000000
21
1279.175609000000
31
0.0
0
LINE
5
493
100
AcDbEntity
8
5-0
6
CONTINUOUS
62
5
100
AcDbLine
10
1774.923653000000
20
1359.175609000000
30
0.0
11
1761.923653000000
21
1379.175609000000
31
0.0
0
LINE
5
494
100
AcDbEntity
8
5-0
6
CONTINUOUS
62
5
100
AcDbLine
10
1774.923653000000
20
1359.175609000000
30
0.0
11
1714.923653000000
21
1285.175609000000
31
0.0
0
LINE
5
495
100
AcDbEntity
8
5-0
6
CONTINUOUS
62
5
100
AcDbLine
10
1714.923653000000
20
1285.175609000000
30
0.0
11
1714.923653000000
21
1279.175609000000
31
0.0
0
LINE
5
496
100
AcDbEntity
8
5-0
6
CONTINUOUS
62
5
100
AcDbLine
10
1434.923653000000
20
1285.175609000000
30
0.0
11
1714.923653000000
21
1285.175609000000
31
0.0
0
LINE
5
497
100
AcDbEntity
8
5-0
6
CONTINUOUS
62
5
100
AcDbLine
10
1434.923653000000
20
1279.175609000000
30
0.0
11
1714.923653000000
21
1279.175609000000
31
0.0
0
LINE
5
498
100
AcDbEntity
8
5-0
6
CONTINUOUS
62
5
100
AcDbLine
10
1387.923653000000
20
1379.175609000000
30
0.0
11
1761.923653000000
21
1379.175609000000
31
0.0
0
LINE
5
499
100
AcDbEntity
8
5-0
6
CONTINUOUS
62
5
100
AcDbLine
10
1537.423653000000
20
1243.175609000000
30
0.0
11
1612.423653000000
21
1243.175609000000
31
0.0
0
LINE
5
49a
100
AcDbEntity
8
5-0
6
CONTINUOUS
62
5
100
AcDbLine
10
1537.423653000000
20
1243.175609000000
30
0.0
11
1537.423653000000
21
1279.175609000000
31
0.0
0
LINE
5
49b
100
AcDbEntity
8
5-0
6
CONTINUOUS
62
5
100
AcDbLine
10
1612.423653000000
20
1243.175609000000
30
0.0
11
1612.423653000000
21
1279.175609000000
31
0.0
0
LINE
5
49c
100
AcDbEntity
8
D-0
6
CENTER2
62
16
100
AcDbLine
10
637.614521000000
20
990.395651000000
30
0.0
11
637.614521000000
21
1679.175609000000
31
0.0
0
LINE
5
49d
100
AcDbEntity
8
D-0
6
CENTER2
62
16
100
AcDbLine
10
637.614521000000
20
2020.824391000000
30
0.0
11
637.614521000000
21
2520.824391000000
31
0.0
0
LINE
5
49e
100
AcDbEntity
8
D-0
6
CENTER2
62
16
100
AcDbLine
10
237.614521000000
20
2270.824391000000
30
0.0
11
1037.614521000000
21
2270.824391000000
31
0.0
0
LINE
5
49f
100
AcDbEntity
8
D-0
6
CENTER2
62
16
100
AcDbLine
10
1574.923653000000
20
990.395651000000
30
0.0
11
1574.923653000000
21
1679.175609000000
31
0.0
0
LINE
5
4a0
100
AcDbEntity
8
C-0
6
CONTINUOUS
62
3
100
AcDbLine
10
653.877977000000
20
2287.087847000000
30
0.0
11
621.351065000000
21
2254.560935000000
31
0.0
0
TEXT
5
4a1
100
AcDbEntity
8
C-0
62
3
100
AcDbText
10
544.517
20
2172.296
30
0.0
40
38.400
1
φ46
41
1.000
50
45.000
100
AcDbText
0
LINE
5
4a2
100
AcDbEntity
8
C-0
6
CONTINUOUS
62
3
100
AcDbLine
10
621.351065000000
20
2254.560935000000
30
0.0
11
541.801552000000
21
2175.011422000000
31
0.0
0
LINE
5
4a3
100
AcDbEntity
8
C-0
6
CONTINUOUS
62
3
100
AcDbLine
10
689.233316000000
20
2322.443186000000
30
0.0
11
653.877977000000
21
2287.087847000000
31
0.0
0
LINE
5
4a4
100
AcDbEntity
8
C-0
6
CONTINUOUS
62
3
100
AcDbLine
10
653.877977000000
20
2287.087847000000
30
0.0
11
668.877977000000
21
2313.068609000000
31
0.0
0
LINE
5
4a5
100
AcDbEntity
8
C-0
6
CONTINUOUS
62
3
100
AcDbLine
10
653.877977000000
20
2287.087847000000
30
0.0
11
679.858739000000
21
2302.087847000000
31
0.0
0
LINE
5
4a6
100
AcDbEntity
8
C-0
6
CONTINUOUS
62
3
100
AcDbLine
10
621.351065000000
20
2254.560935000000
30
0.0
11
606.351065000000
21
2228.580173000000
31
0.0
0
LINE
5
4a7
100
AcDbEntity
8
C-0
6
CONTINUOUS
62
3
100
AcDbLine
10
621.351065000000
20
2254.560935000000
30
0.0
11
595.370303000000
21
2239.560935000000
31
0.0
0
CIRCLE
5
4a8
100
AcDbEntity
8
6-0
6
CONTINUOUS
62
5
100
AcDbCircle
10
1574.923653000000
20
2270.824391000000
30
0.0
40
50.000000000000
0
LINE
5
4a9
100
AcDbEntity
8
E-0
6
CONTINUOUS
62
4
100
AcDbLine
10
537.614521000000
20
1745.824391000000
30
0.0
11
737.614521000000
21
1745.824391000000
31
0.0
0
LINE
5
4aa
100
AcDbEntity
8
E-0
6
CONTINUOUS
62
4
100
AcDbLine
10
737.614521000000
20
1745.824391000000
30
0.0
11
737.614521000000
21
1795.824391000000
31
0.0
0
LINE
5
4ab
100
AcDbEntity
8
E-0
6
CONTINUOUS
62
4
100
AcDbLine
10
737.614521000000
20
1795.824391000000
30
0.0
11
537.614521000000
21
1795.824391000000
31
0.0
0
LINE
5
4ac
100
AcDbEntity
8
E-0
6
CONTINUOUS
62
4
100
AcDbLine
10
537.830104000000
20
1795.824391000000
30
0.0
11
537.830104000000
21
1745.824391000000
31
0.0
0
LINE
5
4ad
100
AcDbEntity
8
E-0
6
CONTINUOUS
62
4
100
AcDbLine
10
537.830104000000
20
746.297979000000
30
0.0
11
737.614521000000
21
746.297979000000
31
0.0
0
LINE
5
4ae
100
AcDbEntity
8
E-0
6
CONTINUOUS
62
4
100
AcDbLine
10
737.614521000000
20
796.297979000000
30
0.0
11
537.830104000000
21
796.297979000000
31
0.0
0
LINE
5
4af
100
AcDbEntity
8
E-0
6
CONTINUOUS
62
4
100
AcDbLine
10
1473.643736000000
20
746.297979000000
30
0.0
11
1673.428153000000
21
746.297979000000
31
0.0
0
LINE
5
4b0
100
AcDbEntity
8
E-0
6
CONTINUOUS
62
4
100
AcDbLine
10
1673.428153000000
20
796.297979000000
30
0.0
11
1473.643736000000
21
796.297979000000
31
0.0
0
TEXT
5
4b1
100
AcDbEntity
8
E-0
62
4
100
AcDbText
10
1419.924
20
1751.984
30
0.0
40
38.400
1
カウンター開口寸法
41
1.000
50
0.000
100
AcDbText
0
LINE
5
4b2
100
AcDbEntity
8
E-0
6
CONTINUOUS
62
4
100
AcDbLine
10
1324.923653000000
20
1745.824391000000
30
0.0
11
1824.923653000000
21
1745.824391000000
31
0.0
0
LINE
5
4b3
100
AcDbEntity
8
E-0
6
CONTINUOUS
62
4
100
AcDbLine
10
1824.923653000000
20
1745.824391000000
30
0.0
11
1824.923653000000
21
1795.824391000000
31
0.0
0
LINE
5
4b4
100
AcDbEntity
8
E-0
6
CONTINUOUS
62
4
100
AcDbLine
10
1824.923653000000
20
1795.824391000000
30
0.0
11
1324.923653000000
21
1795.824391000000
31
0.0
0
LINE
5
4b5
100
AcDbEntity
8
E-0
6
CONTINUOUS
62
4
100
AcDbLine
10
1324.923653000000
20
1795.824391000000
30
0.0
11
1324.923653000000
21
1745.824391000000
31
0.0
0
TEXT
5
4b6
100
AcDbEntity
8
E-0
62
4
100
AcDbText
10
1367.424
20
1711.984
30
0.0
40
38.400
1
※固定排水栓使用時に限る
41
1.000
50
0.000
100
AcDbText
0
LINE
5
4b7
100
AcDbEntity
8
D-0
6
CENTER2
62
16
100
AcDbLine
10
1199.923653000000
20
2270.824391000000
30
0.0
11
1949.923653000000
21
2270.824391000000
31
0.0
0
LINE
5
4b8
100
AcDbEntity
8
D-0
6
CENTER2
62
16
100
AcDbLine
10
1574.923653000000
20
2495.824391000000
30
0.0
11
1574.923653000000
21
2045.824391000000
31
0.0
0
LINE
5
4b9
100
AcDbEntity
8
C-0
6
CONTINUOUS
62
3
100
AcDbLine
10
1610.278992000000
20
2306.179730000000
30
0.0
11
1539.568314000000
21
2235.469052000000
31
0.0
0
TEXT
5
4ba
100
AcDbEntity
8
C-0
62
3
100
AcDbText
10
1450.360
20
2140.830
30
0.0
40
38.400
1
φ100
41
1.000
50
45.000
100
AcDbText
0
LINE
5
4bb
100
AcDbEntity
8
C-0
6
CONTINUOUS
62
3
100
AcDbLine
10
1539.568314000000
20
2235.469052000000
30
0.0
11
1447.644432000000
21
2143.545170000000
31
0.0
0
LINE
5
4bc
100
AcDbEntity
8
C-0
6
CONTINUOUS
62
3
100
AcDbLine
10
1645.634331000000
20
2341.535069000000
30
0.0
11
1610.278992000000
21
2306.179730000000
31
0.0
0
LINE
5
4bd
100
AcDbEntity
8
C-0
6
CONTINUOUS
62
3
100
AcDbLine
10
1610.278992000000
20
2306.179730000000
30
0.0
11
1625.278992000000
21
2332.160492000000
31
0.0
0
LINE
5
4be
100
AcDbEntity
8
C-0
6
CONTINUOUS
62
3
100
AcDbLine
10
1610.278992000000
20
2306.179730000000
30
0.0
11
1636.259754000000
21
2321.179730000000
31
0.0
0
LINE
5
4bf
100
AcDbEntity
8
C-0
6
CONTINUOUS
62
3
100
AcDbLine
10
1539.568314000000
20
2235.469052000000
30
0.0
11
1524.568314000000
21
2209.488290000000
31
0.0
0
LINE
5
4c0
100
AcDbEntity
8
C-0
6
CONTINUOUS
62
3
100
AcDbLine
10
1539.568314000000
20
2235.469052000000
30
0.0
11
1513.587552000000
21
2220.469052000000
31
0.0
0
TEXT
5
4c1
100
AcDbEntity
8
E-0
62
4
100
AcDbText
10
587.615
20
1751.984
30
0.0
40
38.400
1
平面図
41
1.000
50
0.000
100
AcDbText
0
TEXT
5
4c2
100
AcDbEntity
8
E-0
62
4
100
AcDbText
10
587.615
20
752.458
30
0.0
40
38.400
1
立面図
41
1.000
50
0.000
100
AcDbText
0
TEXT
5
4c3
100
AcDbEntity
8
E-0
62
4
100
AcDbText
10
1523.536
20
752.458
30
0.0
40
38.400
1
側面図
41
1.000
50
0.000
100
AcDbText
0
LINE
5
4c4
100
AcDbEntity
8
9-0
6
DASHED2
62
2
100
AcDbLine
10
1924.923653000000
20
2270.824391000000
30
0.0
11
1919.606366000000
21
2305.554027000000
31
0.0
0
LINE
5
4c5
100
AcDbEntity
8
9-0
6
DASHED2
62
2
100
AcDbLine
10
1919.606366000000
20
2305.554027000000
30
0.0
11
1903.816070000000
21
2339.228420000000
31
0.0
0
LINE
5
4c6
100
AcDbEntity
8
9-0
6
DASHED2
62
2
100
AcDbLine
10
1903.816070000000
20
2339.228420000000
30
0.0
11
1878.032544000000
21
2370.824391000000
31
0.0
0
LINE
5
4c7
100
AcDbEntity
8
9-0
6
DASHED2
62
2
100
AcDbLine
10
1878.032544000000
20
2370.824391000000
30
0.0
11
1843.039208000000
21
2399.381913000000
31
0.0
0
LINE
5
4c8
100
AcDbEntity
8
9-0
6
DASHED2
62
2
100
AcDbLine
10
1843.039208000000
20
2399.381913000000
30
0.0
11
1799.899316000000
21
2424.033280000000
31
0.0
0
LINE
5
4c9
100
AcDbEntity
8
9-0
6
DASHED2
62
2
100
AcDbLine
10
1799.899316000000
20
2424.033280000000
30
0.0
11
1749.923653000000
21
2444.029472000000
31
0.0
0
LINE
5
4ca
100
AcDbEntity
8
9-0
6
DASHED2
62
2
100
AcDbLine
10
1749.923653000000
20
2444.029472000000
30
0.0
11
1694.630703000000
21
2458.762915000000
31
0.0
0
LINE
5
4cb
100
AcDbEntity
8
9-0
6
DASHED2
62
2
100
AcDbLine
10
1694.630703000000
20
2458.762915000000
30
0.0
11
1635.700515000000
21
2467.785942000000
31
0.0
0
LINE
5
4cc
100
AcDbEntity
8
9-0
6
DASHED2
62
2
100
AcDbLine
10
1635.700515000000
20
2467.785942000000
30
0.0
11
1574.923653000000
21
2470.824391000000
31
0.0
0
LINE
5
4cd
100
AcDbEntity
8
9-0
6
DASHED2
62
2
100
AcDbLine
10
1574.923653000000
20
2470.824391000000
30
0.0
11
1514.146791000000
21
2467.785942000000
31
0.0
0
LINE
5
4ce
100
AcDbEntity
8
9-0
6
DASHED2
62
2
100
AcDbLine
10
1514.146791000000
20
2467.785942000000
30
0.0
11
1455.216603000000
21
2458.762915000000
31
0.0
0
LINE
5
4cf
100
AcDbEntity
8
9-0
6
DASHED2
62
2
100
AcDbLine
10
1455.216603000000
20
2458.762915000000
30
0.0
11
1399.923653000000
21
2444.029472000000
31
0.0
0
LINE
5
4d0
100
AcDbEntity
8
9-0
6
DASHED2
62
2
100
AcDbLine
10
1399.923653000000
20
2444.029472000000
30
0.0
11
1349.947989000000
21
2424.033280000000
31
0.0
0
LINE
5
4d1
100
AcDbEntity
8
9-0
6
DASHED2
62
2
100
AcDbLine
10
1349.947989000000
20
2424.033280000000
30
0.0
11
1306.808098000000
21
2399.381913000000
31
0.0
0
LINE
5
4d2
100
AcDbEntity
8
9-0
6
DASHED2
62
2
100
AcDbLine
10
1306.808098000000
20
2399.381913000000
30
0.0
11
1271.814761000000
21
2370.824391000000
31
0.0
0
LINE
5
4d3
100
AcDbEntity
8
9-0
6
DASHED2
62
2
100
AcDbLine
10
1271.814761000000
20
2370.824391000000
30
0.0
11
1246.031236000000
21
2339.228420000000
31
0.0
0
LINE
5
4d4
100
AcDbEntity
8
9-0
6
DASHED2
62
2
100
AcDbLine
10
1246.031236000000
20
2339.228420000000
30
0.0
11
1230.240939000000
21
2305.554027000000
31
0.0
0
LINE
5
4d5
100
AcDbEntity
8
9-0
6
DASHED2
62
2
100
AcDbLine
10
1230.240939000000
20
2305.554027000000
30
0.0
11
1224.923653000000
21
2270.824391000000
31
0.0
0
LINE
5
4d6
100
AcDbEntity
8
9-0
6
DASHED2
62
2
100
AcDbLine
10
1224.923653000000
20
2270.824391000000
30
0.0
11
1230.240939000000
21
2236.094756000000
31
0.0
0
LINE
5
4d7
100
AcDbEntity
8
9-0
6
DASHED2
62
2
100
AcDbLine
10
1230.240939000000
20
2236.094756000000
30
0.0
11
1246.031236000000
21
2202.420362000000
31
0.0
0
LINE
5
4d8
100
AcDbEntity
8
9-0
6
DASHED2
62
2
100
AcDbLine
10
1246.031236000000
20
2202.420362000000
30
0.0
11
1271.814761000000
21
2170.824391000000
31
0.0
0
LINE
5
4d9
100
AcDbEntity
8
9-0
6
DASHED2
62
2
100
AcDbLine
10
1271.814761000000
20
2170.824391000000
30
0.0
11
1306.808098000000
21
2142.266869000000
31
0.0
0
LINE
5
4da
100
AcDbEntity
8
9-0
6
DASHED2
62
2
100
AcDbLine
10
1306.808098000000
20
2142.266869000000
30
0.0
11
1349.947989000000
21
2117.615503000000
31
0.0
0
LINE
5
4db
100
AcDbEntity
8
9-0
6
DASHED2
62
2
100
AcDbLine
10
1349.947989000000
20
2117.615503000000
30
0.0
11
1399.923653000000
21
2097.619310000000
31
0.0
0
LINE
5
4dc
100
AcDbEntity
8
9-0
6
DASHED2
62
2
100
AcDbLine
10
1399.923653000000
20
2097.619310000000
30
0.0
11
1455.216603000000
21
2082.885867000000
31
0.0
0
LINE
5
4dd
100
AcDbEntity
8
9-0
6
DASHED2
62
2
100
AcDbLine
10
1455.216603000000
20
2082.885867000000
30
0.0
11
1514.146791000000
21
2073.862841000000
31
0.0
0
LINE
5
4de
100
AcDbEntity
8
9-0
6
DASHED2
62
2
100
AcDbLine
10
1514.146791000000
20
2073.862841000000
30
0.0
11
1574.923653000000
21
2070.824391000000
31
0.0
0
LINE
5
4df
100
AcDbEntity
8
9-0
6
DASHED2
62
2
100
AcDbLine
10
1574.923653000000
20
2070.824391000000
30
0.0
11
1635.700515000000
21
2073.862841000000
31
0.0
0
LINE
5
4e0
100
AcDbEntity
8
9-0
6
DASHED2
62
2
100
AcDbLine
10
1635.700515000000
20
2073.862841000000
30
0.0
11
1694.630703000000
21
2082.885867000000
31
0.0
0
LINE
5
4e1
100
AcDbEntity
8
9-0
6
DASHED2
62
2
100
AcDbLine
10
1694.630703000000
20
2082.885867000000
30
0.0
11
1749.923653000000
21
2097.619310000000
31
0.0
0
LINE
5
4e2
100
AcDbEntity
8
9-0
6
DASHED2
62
2
100
AcDbLine
10
1749.923653000000
20
2097.619310000000
30
0.0
11
1799.899316000000
21
2117.615503000000
31
0.0
0
LINE
5
4e3
100
AcDbEntity
8
9-0
6
DASHED2
62
2
100
AcDbLine
10
1799.899316000000
20
2117.615503000000
30
0.0
11
1843.039208000000
21
2142.266869000000
31
0.0
0
LINE
5
4e4
100
AcDbEntity
8
9-0
6
DASHED2
62
2
100
AcDbLine
10
1843.039208000000
20
2142.266869000000
30
0.0
11
1878.032544000000
21
2170.824391000000
31
0.0
0
LINE
5
4e5
100
AcDbEntity
8
9-0
6
DASHED2
62
2
100
AcDbLine
10
1878.032544000000
20
2170.824391000000
30
0.0
11
1903.816070000000
21
2202.420362000000
31
0.0
0
LINE
5
4e6
100
AcDbEntity
8
9-0
6
DASHED2
62
2
100
AcDbLine
10
1903.816070000000
20
2202.420362000000
30
0.0
11
1919.606366000000
21
2236.094756000000
31
0.0
0
LINE
5
4e7
100
AcDbEntity
8
9-0
6
DASHED2
62
2
100
AcDbLine
10
1919.606366000000
20
2236.094756000000
30
0.0
11
1924.923653000000
21
2270.824391000000
31
0.0
0
LINE
5
4e8
100
AcDbEntity
8
C-0
6
CONTINUOUS
62
0
100
AcDbLine
10
397.614521000000
20
1259.175609000000
30
0.0
11
397.614521000000
21
1151.000155000000
31
0.0
0
LINE
5
4e9
100
AcDbEntity
8
C-0
6
CONTINUOUS
62
0
100
AcDbLine
10
877.614521000000
20
1259.175609000000
30
0.0
11
877.614521000000
21
1151.000155000000
31
0.0
0
TEXT
5
4ea
100
AcDbEntity
8
C-0
62
0
100
AcDbText
10
613.615
20
1154.300
30
0.0
40
32.000
1
480
41
1.000
50
0.000
100
AcDbText
0
LINE
5
4eb
100
AcDbEntity
8
C-0
6
CONTINUOUS
62
0
100
AcDbLine
10
877.614520819412
20
1151.000155298523
30
0.0
11
397.614520819412
21
1151.000155298523
31
0.0
0
POINT
5
4ec
100
AcDbEntity
8
C-0
62
0
100
AcDbPoint
10
877.614520819412
20
1151.000155298523
30
0.0
0
POINT
5
4ed
100
AcDbEntity
8
C-0
62
0
100
AcDbPoint
10
397.614520819412
20
1151.000155298523
30
0.0
0
LINE
5
4ee
100
AcDbEntity
8
C-0
6
CONTINUOUS
62
0
100
AcDbLine
10
1434.923653000000
20
1259.175609000000
30
0.0
11
1434.923653000000
21
1151.842763000000
31
0.0
0
LINE
5
4ef
100
AcDbEntity
8
C-0
6
CONTINUOUS
62
0
100
AcDbLine
10
1714.923653000000
20
1259.175609000000
30
0.0
11
1714.923653000000
21
1151.842763000000
31
0.0
0
TEXT
5
4f0
100
AcDbEntity
8
C-0
62
0
100
AcDbText
10
1550.924
20
1155.143
30
0.0
40
32.000
1
280
41
1.000
50
0.000
100
AcDbText
0
LINE
5
4f1
100
AcDbEntity
8
C-0
6
CONTINUOUS
62
0
100
AcDbLine
10
1714.923652787059
20
1151.842763176626
30
0.0
11
1434.923652787059
21
1151.842763176626
31
0.0
0
POINT
5
4f2
100
AcDbEntity
8
C-0
62
0
100
AcDbPoint
10
1714.923652787059
20
1151.842763176626
30
0.0
0
POINT
5
4f3
100
AcDbEntity
8
C-0
62
0
100
AcDbPoint
10
1434.923652787059
20
1151.842763176626
30
0.0
0
LINE
5
4f4
100
AcDbEntity
8
C-0
6
CONTINUOUS
62
0
100
AcDbLine
10
280.614521000000
20
1379.175609000000
30
0.0
11
253.234466000000
21
1379.175609000000
31
0.0
0
LINE
5
4f5
100
AcDbEntity
8
C-0
6
CONTINUOUS
62
0
100
AcDbLine
10
377.614521000000
20
1279.175609000000
30
0.0
11
253.234466000000
21
1279.175609000000
31
0.0
0
TEXT
5
4f6
100
AcDbEntity
8
C-0
62
0
100
AcDbText
10
249.934
20
1305.176
30
0.0
40
32.000
1
100
41
1.000
50
90.000
100
AcDbText
0
LINE
5
4f7
100
AcDbEntity
8
C-0
6
CONTINUOUS
62
0
100
AcDbLine
10
253.234466429804
20
1279.175608895057
30
0.0
11
253.234466429804
21
1379.175608895057
31
0.0
0
POINT
5
4f8
100
AcDbEntity
8
C-0
62
0
100
AcDbPoint
10
253.234466429804
20
1279.175608895057
30
0.0
0
POINT
5
4f9
100
AcDbEntity
8
C-0
62
0
100
AcDbPoint
10
253.234466429804
20
1379.175608895057
30
0.0
0
LINE
5
4fa
100
AcDbEntity
8
C-0
6
CONTINUOUS
62
0
100
AcDbLine
10
254.334494000000
20
1379.175609000000
30
0.0
11
206.006235000000
21
1379.175609000000
31
0.0
0
LINE
5
4fb
100
AcDbEntity
8
C-0
6
CONTINUOUS
62
0
100
AcDbLine
10
375.430243000000
20
1243.175609000000
30
0.0
11
206.006235000000
21
1243.175609000000
31
0.0
0
TEXT
5
4fc
100
AcDbEntity
8
C-0
62
0
100
AcDbText
10
202.706
20
1287.176
30
0.0
40
32.000
1
136
41
1.000
50
90.000
100
AcDbText
0
LINE
5
4fd
100
AcDbEntity
8
C-0
6
CONTINUOUS
62
0
100
AcDbLine
10
206.006234529085
20
1243.175608895057
30
0.0
11
206.006234529085
21
1379.175608895057
31
0.0
0
POINT
5
4fe
100
AcDbEntity
8
C-0
62
0
100
AcDbPoint
10
206.006234529085
20
1243.175608895057
30
0.0
0
POINT
5
4ff
100
AcDbEntity
8
C-0
62
0
100
AcDbPoint
10
206.006234529085
20
1379.175608895057
30
0.0
0
LINE
5
500
100
AcDbEntity
8
C-0
6
CONTINUOUS
62
0
100
AcDbLine
10
287.614521000000
20
2020.717837000000
30
0.0
11
287.614521000000
21
1977.680051000000
31
0.0
0
LINE
5
501
100
AcDbEntity
8
C-0
6
CONTINUOUS
62
0
100
AcDbLine
10
637.614521000000
20
2000.824391000000
30
0.0
11
637.614521000000
21
1977.680051000000
31
0.0
0
TEXT
5
502
100
AcDbEntity
8
C-0
62
0
100
AcDbText
10
438.615
20
1980.980
30
0.0
40
32.000
1
350
41
1.000
50
0.000
100
AcDbText
0
LINE
5
503
100
AcDbEntity
8
C-0
6
CONTINUOUS
62
0
100
AcDbLine
10
637.614520819412
20
1977.680051366365
30
0.0
11
287.614520819412
21
1977.680051366365
31
0.0
0
POINT
5
504
100
AcDbEntity
8
C-0
62
0
100
AcDbPoint
10
637.614520819412
20
1977.680051366365
30
0.0
0
POINT
5
505
100
AcDbEntity
8
C-0
62
0
100
AcDbPoint
10
287.614520819412
20
1977.680051366365
30
0.0
0
LINE
5
506
100
AcDbEntity
8
C-0
6
CONTINUOUS
62
0
100
AcDbLine
10
637.614521000000
20
2000.824391000000
30
0.0
11
637.614521000000
21
1977.680051000000
31
0.0
0
LINE
5
507
100
AcDbEntity
8
C-0
6
CONTINUOUS
62
0
100
AcDbLine
10
987.614521000000
20
2024.317638000000
30
0.0
11
987.614521000000
21
1977.680051000000
31
0.0
0
TEXT
5
508
100
AcDbEntity
8
C-0
62
0
100
AcDbText
10
788.615
20
1980.980
30
0.0
40
32.000
1
350
41
1.000
50
0.000
100
AcDbText
0
LINE
5
509
100
AcDbEntity
8
C-0
6
CONTINUOUS
62
0
100
AcDbLine
10
987.614520819412
20
1977.680051366365
30
0.0
11
637.614520819412
21
1977.680051366365
31
0.0
0
POINT
5
50a
100
AcDbEntity
8
C-0
62
0
100
AcDbPoint
10
987.614520819412
20
1977.680051366365
30
0.0
0
POINT
5
50b
100
AcDbEntity
8
C-0
62
0
100
AcDbPoint
10
637.614520819412
20
1977.680051366365
30
0.0
0
LINE
5
50c
100
AcDbEntity
8
C-0
6
CONTINUOUS
62
0
100
AcDbLine
10
287.614521000000
20
2020.717837000000
30
0.0
11
287.614521000000
21
1929.577605000000
31
0.0
0
LINE
5
50d
100
AcDbEntity
8
C-0
6
CONTINUOUS
62
0
100
AcDbLine
10
987.614521000000
20
2024.317638000000
30
0.0
11
987.614521000000
21
1929.577605000000
31
0.0
0
TEXT
5
50e
100
AcDbEntity
8
C-0
62
0
100
AcDbText
10
613.615
20
1932.878
30
0.0
40
32.000
1
700
41
1.000
50
0.000
100
AcDbText
0
LINE
5
50f
100
AcDbEntity
8
C-0
6
CONTINUOUS
62
0
100
AcDbLine
10
987.614520819412
20
1929.577604687197
30
0.0
11
287.614520819412
21
1929.577604687197
31
0.0
0
POINT
5
510
100
AcDbEntity
8
C-0
62
0
100
AcDbPoint
10
987.614520819412
20
1929.577604687197
30
0.0
0
POINT
5
511
100
AcDbEntity
8
C-0
62
0
100
AcDbPoint
10
287.614520819412
20
1929.577604687197
30
0.0
0
LINE
5
512
100
AcDbEntity
8
C-0
6
CONTINUOUS
62
0
100
AcDbLine
10
1057.973002000000
20
2470.824391000000
30
0.0
11
1103.050849000000
21
2470.824391000000
31
0.0
0
LINE
5
513
100
AcDbEntity
8
C-0
6
CONTINUOUS
62
0
100
AcDbLine
10
1107.614521000000
20
2270.824391000000
30
0.0
11
1103.050849000000
21
2270.824391000000
31
0.0
0
TEXT
5
514
100
AcDbEntity
8
C-0
62
0
100
AcDbText
10
1099.751
20
2346.824
30
0.0
40
32.000
1
200
41
1.000
50
90.000
100
AcDbText
0
LINE
5
515
100
AcDbEntity
8
C-0
6
CONTINUOUS
62
0
100
AcDbLine
10
1103.050848738582
20
2270.824391086942
30
0.0
11
1103.050848738582
21
2470.824390936942
31
0.0
0
POINT
5
516
100
AcDbEntity
8
C-0
62
0
100
AcDbPoint
10
1103.050848738582
20
2270.824391086942
30
0.0
0
POINT
5
517
100
AcDbEntity
8
C-0
62
0
100
AcDbPoint
10
1103.050848738582
20
2470.824390936942
30
0.0
0
LINE
5
518
100
AcDbEntity
8
C-0
6
CONTINUOUS
62
0
100
AcDbLine
10
1057.614521000000
20
2270.824391000000
30
0.0
11
1103.050849000000
21
2270.824391000000
31
0.0
0
LINE
5
519
100
AcDbEntity
8
C-0
6
CONTINUOUS
62
0
100
AcDbLine
10
1064.352923000000
20
2070.824391000000
30
0.0
11
1103.050849000000
21
2070.824391000000
31
0.0
0
TEXT
5
51a
100
AcDbEntity
8
C-0
62
0
100
AcDbText
10
1099.751
20
2146.824
30
0.0
40
32.000
1
200
41
1.000
50
90.000
100
AcDbText
0
LINE
5
51b
100
AcDbEntity
8
C-0
6
CONTINUOUS
62
0
100
AcDbLine
10
1103.050848738582
20
2070.824391086942
30
0.0
11
1103.050848738582
21
2270.824391086942
31
0.0
0
POINT
5
51c
100
AcDbEntity
8
C-0
62
0
100
AcDbPoint
10
1103.050848738582
20
2070.824391086942
30
0.0
0
POINT
5
51d
100
AcDbEntity
8
C-0
62
0
100
AcDbPoint
10
1103.050848738582
20
2270.824391086942
30
0.0
0
LINE
5
51e
100
AcDbEntity
8
C-0
6
CONTINUOUS
62
0
100
AcDbLine
10
1093.101926000000
20
2470.824391000000
30
0.0
11
1149.948731000000
21
2470.824391000000
31
0.0
0
LINE
5
51f
100
AcDbEntity
8
C-0
6
CONTINUOUS
62
0
100
AcDbLine
10
1093.101926000000
20
2070.824391000000
30
0.0
11
1149.948731000000
21
2070.824391000000
31
0.0
0
TEXT
5
520
100
AcDbEntity
8
C-0
62
0
100
AcDbText
10
1146.649
20
2246.824
30
0.0
40
32.000
1
400
41
1.000
50
90.000
100
AcDbText
0
LINE
5
521
100
AcDbEntity
8
C-0
6
CONTINUOUS
62
0
100
AcDbLine
10
1149.948731449266
20
2070.824391086942
30
0.0
11
1149.948731449266
21
2470.824390936942
31
0.0
0
POINT
5
522
100
AcDbEntity
8
C-0
62
0
100
AcDbPoint
10
1149.948731449266
20
2070.824391086942
30
0.0
0
POINT
5
523
100
AcDbEntity
8
C-0
62
0
100
AcDbPoint
10
1149.948731449266
20
2470.824390936942
30
0.0
0
LINE
5
524
100
AcDbEntity
8
C-0
6
CONTINUOUS
62
0
100
AcDbLine
10
1644.923653000000
20
2470.824391000000
30
0.0
11
1676.729455000000
21
2470.824391000000
31
0.0
0
LINE
5
525
100
AcDbEntity
8
C-0
6
CONTINUOUS
62
0
100
AcDbLine
10
1644.923653000000
20
2270.824391000000
30
0.0
11
1676.729455000000
21
2270.824391000000
31
0.0
0
TEXT
5
526
100
AcDbEntity
8
C-0
62
0
100
AcDbText
10
1673.429
20
2346.824
30
0.0
40
32.000
1
200
41
1.000
50
90.000
100
AcDbText
0
LINE
5
527
100
AcDbEntity
8
C-0
6
CONTINUOUS
62
0
100
AcDbLine
10
1676.729454729954
20
2270.824391086942
30
0.0
11
1676.729454729954
21
2470.824390936942
31
0.0
0
POINT
5
528
100
AcDbEntity
8
C-0
62
0
100
AcDbPoint
10
1676.729454729954
20
2270.824391086942
30
0.0
0
POINT
5
529
100
AcDbEntity
8
C-0
62
0
100
AcDbPoint
10
1676.729454729954
20
2470.824390936942
30
0.0
0
LINE
5
52a
100
AcDbEntity
8
E-0
6
CONTINUOUS
62
4
100
AcDbLine
10
737.614521000000
20
746.297979000000
30
0.0
11
737.614521000000
21
796.297979000000
31
0.0
0
LINE
5
52b
100
AcDbEntity
8
E-0
6
CONTINUOUS
62
4
100
AcDbLine
10
537.830104000000
20
796.297979000000
30
0.0
11
537.830104000000
21
746.297979000000
31
0.0
0
LINE
5
52c
100
AcDbEntity
8
E-0
6
CONTINUOUS
62
4
100
AcDbLine
10
1673.428153000000
20
746.297979000000
30
0.0
11
1673.428153000000
21
796.297979000000
31
0.0
0
LINE
5
52d
100
AcDbEntity
8
E-0
6
CONTINUOUS
62
4
100
AcDbLine
10
1473.643736000000
20
796.297979000000
30
0.0
11
1473.643736000000
21
746.297979000000
31
0.0
0
LINE
5
52e
100
AcDbEntity
8
B-0
6
CONTINUOUS
62
6
100
AcDbLine
10
2012.232787000000
20
2870.824392000000
30
0.0
11
2012.232787000000
21
99.175610000000
31
0.0
0
LINE
5
52f
100
AcDbEntity
8
B-0
6
CONTINUOUS
62
6
100
AcDbLine
10
87.767218000000
20
99.175610000000
30
0.0
11
87.767218000000
21
2870.824392000000
31
0.0
0
LINE
5
530
100
AcDbEntity
8
B-0
6
CONTINUOUS
62
6
100
AcDbLine
10
87.767218000000
20
2870.824392000000
30
0.0
11
2012.232787000000
21
2870.824392000000
31
0.0
0
LINE
5
531
100
AcDbEntity
8
B-0
6
CONTINUOUS
62
6
100
AcDbLine
10
2012.232787000000
20
99.175610000000
30
0.0
11
87.767218000000
21
99.175610000000
31
0.0
0
LINE
5
532
100
AcDbEntity
8
B-0
6
CONTINUOUS
62
6
100
AcDbLine
10
1362.232787000000
20
279.175610000000
30
0.0
11
1362.232787000000
21
99.175610000000
31
0.0
0
LINE
5
533
100
AcDbEntity
8
B-0
6
CONTINUOUS
62
6
100
AcDbLine
10
2012.232787000000
20
279.175610000000
30
0.0
11
87.767218000000
21
279.175610000000
31
0.0
0
LINE
5
534
100
AcDbEntity
8
A-0
6
CONTINUOUS
62
6
100
AcDbLine
10
204.111629000000
20
133.984898000000
30
0.0
11
246.150127000000
21
133.984898000000
31
0.0
0
LINE
5
535
100
AcDbEntity
8
A-0
6
CONTINUOUS
62
6
100
AcDbLine
10
246.150127000000
20
133.984898000000
30
0.0
11
246.150127000000
21
176.082590000000
31
0.0
0
LINE
5
536
100
AcDbEntity
8
A-0
6
CONTINUOUS
62
6
100
AcDbLine
10
204.111629000000
20
176.082590000000
30
0.0
11
204.111629000000
21
133.984898000000
31
0.0
0
LINE
5
537
100
AcDbEntity
8
A-0
6
CONTINUOUS
62
6
100
AcDbLine
10
246.150127000000
20
176.082590000000
30
0.0
11
204.111629000000
21
176.082590000000
31
0.0
0
LINE
5
538
100
AcDbEntity
8
A-0
6
CONTINUOUS
62
6
100
AcDbLine
10
250.913349000000
20
189.810508000000
30
0.0
11
272.413349000000
21
227.049600000000
31
0.0
0
LINE
5
539
100
AcDbEntity
8
A-0
6
CONTINUOUS
62
6
100
AcDbLine
10
250.913349000000
20
189.810508000000
30
0.0
11
293.913349000000
21
189.810508000000
31
0.0
0
LINE
5
53a
100
AcDbEntity
8
A-0
6
CONTINUOUS
62
6
100
AcDbLine
10
272.413349000000
20
227.049600000000
30
0.0
11
293.913349000000
21
189.810508000000
31
0.0
0
CIRCLE
5
53b
100
AcDbEntity
8
A-0
6
CONTINUOUS
62
6
100
AcDbCircle
10
306.241043000000
20
235.007300000000
30
0.0
40
14.758716000000
0
LINE
5
53c
100
AcDbEntity
8
A-0
6
CONTINUOUS
62
6
100
AcDbLine
10
335.909002000000
20
155.949900000000
30
0.0
11
354.031652000000
21
155.949900000000
31
0.0
0
LINE
5
53d
100
AcDbEntity
8
A-0
6
CONTINUOUS
62
6
100
AcDbLine
10
358.694729000000
20
145.949900000000
30
0.0
11
364.756728000000
21
132.949900000000
31
0.0
0
LINE
5
53e
100
AcDbEntity
8
A-0
6
CONTINUOUS
62
6
100
AcDbLine
10
331.245926000000
20
145.949900000000
30
0.0
11
325.183926000000
21
132.949900000000
31
0.0
0
LINE
5
53f
100
AcDbEntity
8
A-0
6
CONTINUOUS
62
6
100
AcDbLine
10
344.970327000000
20
175.381973000000
30
0.0
11
354.031652000000
21
155.949900000000
31
0.0
0
LINE
5
540
100
AcDbEntity
8
A-0
6
CONTINUOUS
62
6
100
AcDbLine
10
344.970327000000
20
175.381973000000
30
0.0
11
335.909002000000
21
155.949900000000
31
0.0
0
LINE
5
541
100
AcDbEntity
8
A-0
6
CONTINUOUS
62
6
100
AcDbLine
10
339.020529000000
20
190.501180000000
30
0.0
11
312.183926000000
21
132.949900000000
31
0.0
0
LINE
5
542
100
AcDbEntity
8
A-0
6
CONTINUOUS
62
6
100
AcDbLine
10
417.449257000000
20
180.501180000000
30
0.0
11
418.197397000000
21
180.090613000000
31
0.0
0
LINE
5
543
100
AcDbEntity
8
A-0
6
CONTINUOUS
62
6
100
AcDbLine
10
418.197397000000
20
180.090613000000
30
0.0
11
419.473361000000
21
179.373317000000
31
0.0
0
LINE
5
544
100
AcDbEntity
8
A-0
6
CONTINUOUS
62
6
100
AcDbLine
10
419.473361000000
20
179.373317000000
30
0.0
11
420.710626000000
21
178.629854000000
31
0.0
0
LINE
5
545
100
AcDbEntity
8
A-0
6
CONTINUOUS
62
6
100
AcDbLine
10
420.710626000000
20
178.629854000000
30
0.0
11
421.884695000000
21
177.843661000000
31
0.0
0
LINE
5
546
100
AcDbEntity
8
A-0
6
CONTINUOUS
62
6
100
AcDbLine
10
421.884695000000
20
177.843661000000
30
0.0
11
422.971076000000
21
176.998177000000
31
0.0
0
LINE
5
547
100
AcDbEntity
8
A-0
6
CONTINUOUS
62
6
100
AcDbLine
10
422.971076000000
20
176.998177000000
30
0.0
11
423.945275000000
21
176.076839000000
31
0.0
0
LINE
5
548
100
AcDbEntity
8
A-0
6
CONTINUOUS
62
6
100
AcDbLine
10
423.945275000000
20
176.076839000000
30
0.0
11
424.449257000000
21
175.501180000000
31
0.0
0
LINE
5
549
100
AcDbEntity
8
A-0
6
CONTINUOUS
62
6
100
AcDbLine
10
424.449257000000
20
175.501180000000
30
0.0
11
425.168743000000
21
174.485835000000
31
0.0
0
LINE
5
54a
100
AcDbEntity
8
A-0
6
CONTINUOUS
62
6
100
AcDbLine
10
425.168743000000
20
174.485835000000
30
0.0
11
426.123299000000
21
172.544055000000
31
0.0
0
LINE
5
54b
100
AcDbEntity
8
A-0
6
CONTINUOUS
62
6
100
AcDbLine
10
426.123299000000
20
172.544055000000
30
0.0
11
426.767667000000
21
170.398529000000
31
0.0
0
LINE
5
54c
100
AcDbEntity
8
A-0
6
CONTINUOUS
62
6
100
AcDbLine
10
426.767667000000
20
170.398529000000
30
0.0
11
427.162031000000
21
168.093741000000
31
0.0
0
LINE
5
54d
100
AcDbEntity
8
A-0
6
CONTINUOUS
62
6
100
AcDbLine
10
427.162031000000
20
168.093741000000
30
0.0
11
427.366577000000
21
165.674179000000
31
0.0
0
LINE
5
54e
100
AcDbEntity
8
A-0
6
CONTINUOUS
62
6
100
AcDbLine
10
427.366577000000
20
165.674179000000
30
0.0
11
427.441490000000
21
163.184329000000
31
0.0
0
LINE
5
54f
100
AcDbEntity
8
A-0
6
CONTINUOUS
62
6
100
AcDbLine
10
427.441490000000
20
163.184329000000
30
0.0
11
427.449257000000
21
161.725540000000
31
0.0
0
LINE
5
550
100
AcDbEntity
8
A-0
6
CONTINUOUS
62
6
100
AcDbLine
10
427.449257000000
20
161.725540000000
30
0.0
11
427.441490000000
21
160.266750000000
31
0.0
0
LINE
5
551
100
AcDbEntity
8
A-0
6
CONTINUOUS
62
6
100
AcDbLine
10
427.441490000000
20
160.266750000000
30
0.0
11
427.366577000000
21
157.776900000000
31
0.0
0
LINE
5
552
100
AcDbEntity
8
A-0
6
CONTINUOUS
62
6
100
AcDbLine
10
427.366577000000
20
157.776900000000
30
0.0
11
427.162031000000
21
155.357338000000
31
0.0
0
LINE
5
553
100
AcDbEntity
8
A-0
6
CONTINUOUS
62
6
100
AcDbLine
10
427.162031000000
20
155.357338000000
30
0.0
11
426.767667000000
21
153.052551000000
31
0.0
0
LINE
5
554
100
AcDbEntity
8
A-0
6
CONTINUOUS
62
6
100
AcDbLine
10
426.767667000000
20
153.052551000000
30
0.0
11
426.123299000000
21
150.907024000000
31
0.0
0
LINE
5
555
100
AcDbEntity
8
A-0
6
CONTINUOUS
62
6
100
AcDbLine
10
426.123299000000
20
150.907024000000
30
0.0
11
425.168743000000
21
148.965245000000
31
0.0
0
LINE
5
556
100
AcDbEntity
8
A-0
6
CONTINUOUS
62
6
100
AcDbLine
10
425.168743000000
20
148.965245000000
30
0.0
11
424.449257000000
21
147.949900000000
31
0.0
0
LINE
5
557
100
AcDbEntity
8
A-0
6
CONTINUOUS
62
6
100
AcDbLine
10
424.449257000000
20
147.949900000000
30
0.0
11
423.945275000000
21
147.374241000000
31
0.0
0
LINE
5
558
100
AcDbEntity
8
A-0
6
CONTINUOUS
62
6
100
AcDbLine
10
423.945275000000
20
147.374241000000
30
0.0
11
422.971076000000
21
146.452903000000
31
0.0
0
LINE
5
559
100
AcDbEntity
8
A-0
6
CONTINUOUS
62
6
100
AcDbLine
10
422.971076000000
20
146.452903000000
30
0.0
11
421.884695000000
21
145.607418000000
31
0.0
0
LINE
5
55a
100
AcDbEntity
8
A-0
6
CONTINUOUS
62
6
100
AcDbLine
10
421.884695000000
20
145.607418000000
30
0.0
11
420.710626000000
21
144.821226000000
31
0.0
0
LINE
5
55b
100
AcDbEntity
8
A-0
6
CONTINUOUS
62
6
100
AcDbLine
10
420.710626000000
20
144.821226000000
30
0.0
11
419.473361000000
21
144.077762000000
31
0.0
0
LINE
5
55c
100
AcDbEntity
8
A-0
6
CONTINUOUS
62
6
100
AcDbLine
10
419.473361000000
20
144.077762000000
30
0.0
11
418.197397000000
21
143.360467000000
31
0.0
0
LINE
5
55d
100
AcDbEntity
8
A-0
6
CONTINUOUS
62
6
100
AcDbLine
10
418.197397000000
20
143.360467000000
30
0.0
11
417.449257000000
21
142.949900000000
31
0.0
0
LINE
5
55e
100
AcDbEntity
8
A-0
6
CONTINUOUS
62
6
100
AcDbLine
10
417.449257000000
20
132.949900000000
30
0.0
11
418.104144000000
21
133.119438000000
31
0.0
0
LINE
5
55f
100
AcDbEntity
8
A-0
6
CONTINUOUS
62
6
100
AcDbLine
10
418.104144000000
20
133.119438000000
30
0.0
11
419.233918000000
21
133.414682000000
31
0.0
0
LINE
5
560
100
AcDbEntity
8
A-0
6
CONTINUOUS
62
6
100
AcDbLine
10
419.233918000000
20
133.414682000000
30
0.0
11
420.365518000000
21
133.718085000000
31
0.0
0
LINE
5
561
100
AcDbEntity
8
A-0
6
CONTINUOUS
62
6
100
AcDbLine
10
420.365518000000
20
133.718085000000
30
0.0
11
421.500102000000
21
134.034811000000
31
0.0
0
LINE
5
562
100
AcDbEntity
8
A-0
6
CONTINUOUS
62
6
100
AcDbLine
10
421.500102000000
20
134.034811000000
30
0.0
11
422.638825000000
21
134.370024000000
31
0.0
0
LINE
5
563
100
AcDbEntity
8
A-0
6
CONTINUOUS
62
6
100
AcDbLine
10
422.638825000000
20
134.370024000000
30
0.0
11
423.782844000000
21
134.728887000000
31
0.0
0
LINE
5
564
100
AcDbEntity
8
A-0
6
CONTINUOUS
62
6
100
AcDbLine
10
423.782844000000
20
134.728887000000
30
0.0
11
424.449257000000
21
134.949900000000
31
0.0
0
LINE
5
565
100
AcDbEntity
8
A-0
6
CONTINUOUS
62
6
100
AcDbLine
10
424.449257000000
20
134.949900000000
30
0.0
11
425.774299000000
21
135.419727000000
31
0.0
0
LINE
5
566
100
AcDbEntity
8
A-0
6
CONTINUOUS
62
6
100
AcDbLine
10
425.774299000000
20
135.419727000000
30
0.0
11
428.043325000000
21
136.341132000000
31
0.0
0
LINE
5
567
100
AcDbEntity
8
A-0
6
CONTINUOUS
62
6
100
AcDbLine
10
428.043325000000
20
136.341132000000
30
0.0
11
430.235824000000
21
137.422755000000
31
0.0
0
LINE
5
568
100
AcDbEntity
8
A-0
6
CONTINUOUS
62
6
100
AcDbLine
10
430.235824000000
20
137.422755000000
30
0.0
11
432.285671000000
21
138.686986000000
31
0.0
0
LINE
5
569
100
AcDbEntity
8
A-0
6
CONTINUOUS
62
6
100
AcDbLine
10
432.285671000000
20
138.686986000000
30
0.0
11
434.126739000000
21
140.156218000000
31
0.0
0
LINE
5
56a
100
AcDbEntity
8
A-0
6
CONTINUOUS
62
6
100
AcDbLine
10
434.126739000000
20
140.156218000000
30
0.0
11
435.692901000000
21
141.852842000000
31
0.0
0
LINE
5
56b
100
AcDbEntity
8
A-0
6
CONTINUOUS
62
6
100
AcDbLine
10
435.692901000000
20
141.852842000000
30
0.0
11
436.449257000000
21
142.949900000000
31
0.0
0
LINE
5
56c
100
AcDbEntity
8
A-0
6
CONTINUOUS
62
6
100
AcDbLine
10
436.449257000000
20
142.949900000000
30
0.0
11
436.699962000000
21
143.381746000000
31
0.0
0
LINE
5
56d
100
AcDbEntity
8
A-0
6
CONTINUOUS
62
6
100
AcDbLine
10
436.699962000000
20
143.381746000000
30
0.0
11
437.094055000000
21
144.152067000000
31
0.0
0
LINE
5
56e
100
AcDbEntity
8
A-0
6
CONTINUOUS
62
6
100
AcDbLine
10
437.094055000000
20
144.152067000000
30
0.0
11
437.445336000000
21
144.950179000000
31
0.0
0
LINE
5
56f
100
AcDbEntity
8
A-0
6
CONTINUOUS
62
6
100
AcDbLine
10
437.445336000000
20
144.950179000000
30
0.0
11
437.760187000000
21
145.770485000000
31
0.0
0
LINE
5
570
100
AcDbEntity
8
A-0
6
CONTINUOUS
62
6
100
AcDbLine
10
437.760187000000
20
145.770485000000
30
0.0
11
438.044990000000
21
146.607387000000
31
0.0
0
LINE
5
571
100
AcDbEntity
8
A-0
6
CONTINUOUS
62
6
100
AcDbLine
10
438.044990000000
20
146.607387000000
30
0.0
11
438.306127000000
21
147.455285000000
31
0.0
0
LINE
5
572
100
AcDbEntity
8
A-0
6
CONTINUOUS
62
6
100
AcDbLine
10
438.306127000000
20
147.455285000000
30
0.0
11
438.449257000000
21
147.949900000000
31
0.0
0
LINE
5
573
100
AcDbEntity
8
A-0
6
CONTINUOUS
62
6
100
AcDbLine
10
438.449257000000
20
147.949900000000
30
0.0
11
438.797408000000
21
149.232173000000
31
0.0
0
LINE
5
574
100
AcDbEntity
8
A-0
6
CONTINUOUS
62
6
100
AcDbLine
10
438.797408000000
20
149.232173000000
30
0.0
11
439.323941000000
21
151.453022000000
31
0.0
0
LINE
5
575
100
AcDbEntity
8
A-0
6
CONTINUOUS
62
6
100
AcDbLine
10
439.323941000000
20
151.453022000000
30
0.0
11
439.754075000000
21
153.684563000000
31
0.0
0
LINE
5
576
100
AcDbEntity
8
A-0
6
CONTINUOUS
62
6
100
AcDbLine
10
439.754075000000
20
153.684563000000
30
0.0
11
440.084244000000
21
155.924462000000
31
0.0
0
LINE
5
577
100
AcDbEntity
8
A-0
6
CONTINUOUS
62
6
100
AcDbLine
10
440.084244000000
20
155.924462000000
30
0.0
11
440.310879000000
21
158.170385000000
31
0.0
0
LINE
5
578
100
AcDbEntity
8
A-0
6
CONTINUOUS
62
6
100
AcDbLine
10
440.310879000000
20
158.170385000000
30
0.0
11
440.430410000000
21
160.419995000000
31
0.0
0
LINE
5
579
100
AcDbEntity
8
A-0
6
CONTINUOUS
62
6
100
AcDbLine
10
440.430410000000
20
160.419995000000
30
0.0
11
440.449257000000
21
161.725540000000
31
0.0
0
LINE
5
57a
100
AcDbEntity
8
A-0
6
CONTINUOUS
62
6
100
AcDbLine
10
440.449257000000
20
161.725540000000
30
0.0
11
440.430410000000
21
163.031084000000
31
0.0
0
LINE
5
57b
100
AcDbEntity
8
A-0
6
CONTINUOUS
62
6
100
AcDbLine
10
440.430410000000
20
163.031084000000
30
0.0
11
440.310879000000
21
165.280695000000
31
0.0
0
LINE
5
57c
100
AcDbEntity
8
A-0
6
CONTINUOUS
62
6
100
AcDbLine
10
440.310879000000
20
165.280695000000
30
0.0
11
440.084244000000
21
167.526617000000
31
0.0
0
LINE
5
57d
100
AcDbEntity
8
A-0
6
CONTINUOUS
62
6
100
AcDbLine
10
440.084244000000
20
167.526617000000
30
0.0
11
439.754075000000
21
169.766516000000
31
0.0
0
LINE
5
57e
100
AcDbEntity
8
A-0
6
CONTINUOUS
62
6
100
AcDbLine
10
439.754075000000
20
169.766516000000
30
0.0
11
439.323941000000
21
171.998058000000
31
0.0
0
LINE
5
57f
100
AcDbEntity
8
A-0
6
CONTINUOUS
62
6
100
AcDbLine
10
439.323941000000
20
171.998058000000
30
0.0
11
438.797408000000
21
174.218907000000
31
0.0
0
LINE
5
580
100
AcDbEntity
8
A-0
6
CONTINUOUS
62
6
100
AcDbLine
10
438.797408000000
20
174.218907000000
30
0.0
11
438.449257000000
21
175.501180000000
31
0.0
0
LINE
5
581
100
AcDbEntity
8
A-0
6
CONTINUOUS
62
6
100
AcDbLine
10
438.449257000000
20
175.501180000000
30
0.0
11
438.306127000000
21
175.995794000000
31
0.0
0
LINE
5
582
100
AcDbEntity
8
A-0
6
CONTINUOUS
62
6
100
AcDbLine
10
438.306127000000
20
175.995794000000
30
0.0
11
438.044990000000
21
176.843693000000
31
0.0
0
LINE
5
583
100
AcDbEntity
8
A-0
6
CONTINUOUS
62
6
100
AcDbLine
10
438.044990000000
20
176.843693000000
30
0.0
11
437.760187000000
21
177.680594000000
31
0.0
0
LINE
5
584
100
AcDbEntity
8
A-0
6
CONTINUOUS
62
6
100
AcDbLine
10
437.760187000000
20
177.680594000000
30
0.0
11
437.445336000000
21
178.500900000000
31
0.0
0
LINE
5
585
100
AcDbEntity
8
A-0
6
CONTINUOUS
62
6
100
AcDbLine
10
437.445336000000
20
178.500900000000
30
0.0
11
437.094055000000
21
179.299013000000
31
0.0
0
LINE
5
586
100
AcDbEntity
8
A-0
6
CONTINUOUS
62
6
100
AcDbLine
10
437.094055000000
20
179.299013000000
30
0.0
11
436.699962000000
21
180.069334000000
31
0.0
0
LINE
5
587
100
AcDbEntity
8
A-0
6
CONTINUOUS
62
6
100
AcDbLine
10
436.699962000000
20
180.069334000000
30
0.0
11
436.449257000000
21
180.501180000000
31
0.0
0
LINE
5
588
100
AcDbEntity
8
A-0
6
CONTINUOUS
62
6
100
AcDbLine
10
436.449257000000
20
180.501180000000
30
0.0
11
435.692901000000
21
181.598237000000
31
0.0
0
LINE
5
589
100
AcDbEntity
8
A-0
6
CONTINUOUS
62
6
100
AcDbLine
10
435.692901000000
20
181.598237000000
30
0.0
11
434.126739000000
21
183.294862000000
31
0.0
0
LINE
5
58a
100
AcDbEntity
8
A-0
6
CONTINUOUS
62
6
100
AcDbLine
10
434.126739000000
20
183.294862000000
30
0.0
11
432.285671000000
21
184.764094000000
31
0.0
0
LINE
5
58b
100
AcDbEntity
8
A-0
6
CONTINUOUS
62
6
100
AcDbLine
10
432.285671000000
20
184.764094000000
30
0.0
11
430.235824000000
21
186.028325000000
31
0.0
0
LINE
5
58c
100
AcDbEntity
8
A-0
6
CONTINUOUS
62
6
100
AcDbLine
10
430.235824000000
20
186.028325000000
30
0.0
11
428.043325000000
21
187.109947000000
31
0.0
0
LINE
5
58d
100
AcDbEntity
8
A-0
6
CONTINUOUS
62
6
100
AcDbLine
10
428.043325000000
20
187.109947000000
30
0.0
11
425.774299000000
21
188.031353000000
31
0.0
0
LINE
5
58e
100
AcDbEntity
8
A-0
6
CONTINUOUS
62
6
100
AcDbLine
10
425.774299000000
20
188.031353000000
30
0.0
11
424.449257000000
21
188.501180000000
31
0.0
0
LINE
5
58f
100
AcDbEntity
8
A-0
6
CONTINUOUS
62
6
100
AcDbLine
10
424.449257000000
20
188.501180000000
30
0.0
11
423.782844000000
21
188.722192000000
31
0.0
0
LINE
5
590
100
AcDbEntity
8
A-0
6
CONTINUOUS
62
6
100
AcDbLine
10
423.782844000000
20
188.722192000000
30
0.0
11
422.638825000000
21
189.081056000000
31
0.0
0
LINE
5
591
100
AcDbEntity
8
A-0
6
CONTINUOUS
62
6
100
AcDbLine
10
422.638825000000
20
189.081056000000
30
0.0
11
421.500102000000
21
189.416269000000
31
0.0
0
LINE
5
592
100
AcDbEntity
8
A-0
6
CONTINUOUS
62
6
100
AcDbLine
10
421.500102000000
20
189.416269000000
30
0.0
11
420.365518000000
21
189.732995000000
31
0.0
0
LINE
5
593
100
AcDbEntity
8
A-0
6
CONTINUOUS
62
6
100
AcDbLine
10
420.365518000000
20
189.732995000000
30
0.0
11
419.233918000000
21
190.036398000000
31
0.0
0
LINE
5
594
100
AcDbEntity
8
A-0
6
CONTINUOUS
62
6
100
AcDbLine
10
419.233918000000
20
190.036398000000
30
0.0
11
418.104144000000
21
190.331642000000
31
0.0
0
LINE
5
595
100
AcDbEntity
8
A-0
6
CONTINUOUS
62
6
100
AcDbLine
10
418.104144000000
20
190.331642000000
30
0.0
11
417.449257000000
21
190.501180000000
31
0.0
0
LINE
5
596
100
AcDbEntity
8
A-0
6
CONTINUOUS
62
6
100
AcDbLine
10
453.449257000000
20
190.501180000000
30
0.0
11
473.785860000000
21
146.889195000000
31
0.0
0
LINE
5
597
100
AcDbEntity
8
A-0
6
CONTINUOUS
62
6
100
AcDbLine
10
494.122462000000
20
190.501180000000
30
0.0
11
473.785860000000
21
146.889195000000
31
0.0
0
LINE
5
598
100
AcDbEntity
8
A-0
6
CONTINUOUS
62
6
100
AcDbLine
10
440.449257000000
20
190.501180000000
30
0.0
11
467.285860000000
21
132.949900000000
31
0.0
0
LINE
5
599
100
AcDbEntity
8
A-0
6
CONTINUOUS
62
6
100
AcDbLine
10
480.285860000000
20
132.949900000000
30
0.0
11
507.122462000000
21
190.501180000000
31
0.0
0
LINE
5
59a
100
AcDbEntity
8
A-0
6
CONTINUOUS
62
6
100
AcDbLine
10
517.122462000000
20
190.501180000000
30
0.0
11
490.285860000000
21
132.949900000000
31
0.0
0
LINE
5
59b
100
AcDbEntity
8
A-0
6
CONTINUOUS
62
6
100
AcDbLine
10
530.476802000000
20
190.501180000000
30
0.0
11
557.313405000000
21
132.949900000000
31
0.0
0
LINE
5
59c
100
AcDbEntity
8
A-0
6
CONTINUOUS
62
6
100
AcDbLine
10
331.245926000000
20
145.949900000000
30
0.0
11
358.694729000000
21
145.949900000000
31
0.0
0
LINE
5
59d
100
AcDbEntity
8
A-0
6
CONTINUOUS
62
6
100
AcDbLine
10
509.347859000000
20
145.949900000000
30
0.0
11
538.251405000000
21
145.949900000000
31
0.0
0
LINE
5
59e
100
AcDbEntity
8
A-0
6
CONTINUOUS
62
6
100
AcDbLine
10
514.010936000000
20
155.949900000000
30
0.0
11
533.588329000000
21
155.949900000000
31
0.0
0
LINE
5
59f
100
AcDbEntity
8
A-0
6
CONTINUOUS
62
6
100
AcDbLine
10
576.078890000000
20
180.501180000000
30
0.0
11
605.792227000000
21
132.949900000000
31
0.0
0
LINE
5
5a0
100
AcDbEntity
8
A-0
6
CONTINUOUS
62
6
100
AcDbLine
10
611.866483000000
20
143.986937000000
30
0.0
11
611.866483000000
21
190.501180000000
31
0.0
0
LINE
5
5a1
100
AcDbEntity
8
A-0
6
CONTINUOUS
62
6
100
AcDbLine
10
622.866483000000
20
132.949900000000
30
0.0
11
622.866483000000
21
190.501180000000
31
0.0
0
LINE
5
5a2
100
AcDbEntity
8
A-0
6
CONTINUOUS
62
6
100
AcDbLine
10
582.801158000000
20
190.501180000000
30
0.0
11
611.866483000000
21
143.986937000000
31
0.0
0
LINE
5
5a3
100
AcDbEntity
8
A-0
6
CONTINUOUS
62
6
100
AcDbLine
10
563.078890000000
20
190.501180000000
30
0.0
11
563.078890000000
21
132.949900000000
31
0.0
0
LINE
5
5a4
100
AcDbEntity
8
A-0
6
CONTINUOUS
62
6
100
AcDbLine
10
417.449257000000
20
180.501180000000
30
0.0
11
397.449257000000
21
180.501180000000
31
0.0
0
LINE
5
5a5
100
AcDbEntity
8
A-0
6
CONTINUOUS
62
6
100
AcDbLine
10
397.449257000000
20
142.949900000000
30
0.0
11
417.449257000000
21
142.949900000000
31
0.0
0
LINE
5
5a6
100
AcDbEntity
8
A-0
6
CONTINUOUS
62
6
100
AcDbLine
10
533.588329000000
20
155.949900000000
30
0.0
11
523.799632000000
21
176.941827000000
31
0.0
0
LINE
5
5a7
100
AcDbEntity
8
A-0
6
CONTINUOUS
62
6
100
AcDbLine
10
514.010936000000
20
155.949900000000
30
0.0
11
523.799632000000
21
176.941827000000
31
0.0
0
LINE
5
5a8
100
AcDbEntity
8
A-0
6
CONTINUOUS
62
6
100
AcDbLine
10
503.285860000000
20
132.949900000000
30
0.0
11
509.347859000000
21
145.949900000000
31
0.0
0
LINE
5
5a9
100
AcDbEntity
8
A-0
6
CONTINUOUS
62
6
100
AcDbLine
10
544.313405000000
20
132.949900000000
30
0.0
11
538.251405000000
21
145.949900000000
31
0.0
0
LINE
5
5aa
100
AcDbEntity
8
A-0
6
CONTINUOUS
62
6
100
AcDbLine
10
576.078890000000
20
180.501180000000
30
0.0
11
576.078890000000
21
132.949900000000
31
0.0
0
LINE
5
5ab
100
AcDbEntity
8
A-0
6
CONTINUOUS
62
6
100
AcDbLine
10
312.183926000000
20
132.949900000000
30
0.0
11
325.183926000000
21
132.949900000000
31
0.0
0
LINE
5
5ac
100
AcDbEntity
8
A-0
6
CONTINUOUS
62
6
100
AcDbLine
10
364.756728000000
20
132.949900000000
30
0.0
11
377.756728000000
21
132.949900000000
31
0.0
0
LINE
5
5ad
100
AcDbEntity
8
A-0
6
CONTINUOUS
62
6
100
AcDbLine
10
350.920125000000
20
190.501180000000
30
0.0
11
377.756728000000
21
132.949900000000
31
0.0
0
LINE
5
5ae
100
AcDbEntity
8
A-0
6
CONTINUOUS
62
6
100
AcDbLine
10
350.920125000000
20
190.501180000000
30
0.0
11
339.020529000000
21
190.501180000000
31
0.0
0
LINE
5
5af
100
AcDbEntity
8
A-0
6
CONTINUOUS
62
6
100
AcDbLine
10
384.449257000000
20
190.501180000000
30
0.0
11
384.449257000000
21
132.949900000000
31
0.0
0
LINE
5
5b0
100
AcDbEntity
8
A-0
6
CONTINUOUS
62
6
100
AcDbLine
10
397.449257000000
20
180.501180000000
30
0.0
11
397.449257000000
21
142.949900000000
31
0.0
0
LINE
5
5b1
100
AcDbEntity
8
A-0
6
CONTINUOUS
62
6
100
AcDbLine
10
384.449257000000
20
132.949900000000
30
0.0
11
417.449257000000
21
132.949900000000
31
0.0
0
LINE
5
5b2
100
AcDbEntity
8
A-0
6
CONTINUOUS
62
6
100
AcDbLine
10
417.449257000000
20
190.501180000000
30
0.0
11
384.449257000000
21
190.501180000000
31
0.0
0
LINE
5
5b3
100
AcDbEntity
8
A-0
6
CONTINUOUS
62
6
100
AcDbLine
10
453.449257000000
20
190.501180000000
30
0.0
11
440.449257000000
21
190.501180000000
31
0.0
0
LINE
5
5b4
100
AcDbEntity
8
A-0
6
CONTINUOUS
62
6
100
AcDbLine
10
467.285860000000
20
132.949900000000
30
0.0
11
480.285860000000
21
132.949900000000
31
0.0
0
LINE
5
5b5
100
AcDbEntity
8
A-0
6
CONTINUOUS
62
6
100
AcDbLine
10
507.122462000000
20
190.501180000000
30
0.0
11
494.122462000000
21
190.501180000000
31
0.0
0
LINE
5
5b6
100
AcDbEntity
8
A-0
6
CONTINUOUS
62
6
100
AcDbLine
10
490.285860000000
20
132.949900000000
30
0.0
11
503.285860000000
21
132.949900000000
31
0.0
0
LINE
5
5b7
100
AcDbEntity
8
A-0
6
CONTINUOUS
62
6
100
AcDbLine
10
544.313405000000
20
132.949900000000
30
0.0
11
557.313405000000
21
132.949900000000
31
0.0
0
LINE
5
5b8
100
AcDbEntity
8
A-0
6
CONTINUOUS
62
6
100
AcDbLine
10
563.078890000000
20
132.949900000000
30
0.0
11
576.078890000000
21
132.949900000000
31
0.0
0
LINE
5
5b9
100
AcDbEntity
8
A-0
6
CONTINUOUS
62
6
100
AcDbLine
10
605.792227000000
20
132.949900000000
30
0.0
11
622.866483000000
21
132.949900000000
31
0.0
0
LINE
5
5ba
100
AcDbEntity
8
A-0
6
CONTINUOUS
62
6
100
AcDbLine
10
622.866483000000
20
190.501180000000
30
0.0
11
611.866483000000
21
190.501180000000
31
0.0
0
LINE
5
5bb
100
AcDbEntity
8
A-0
6
CONTINUOUS
62
6
100
AcDbLine
10
582.801158000000
20
190.501180000000
30
0.0
11
563.078890000000
21
190.501180000000
31
0.0
0
LINE
5
5bc
100
AcDbEntity
8
A-0
6
CONTINUOUS
62
6
100
AcDbLine
10
530.476802000000
20
190.501180000000
30
0.0
11
517.122462000000
21
190.501180000000
31
0.0
0
LINE
5
5bd
100
AcDbEntity
8
A-0
6
CONTINUOUS
62
6
100
AcDbLine
10
312.907300000000
20
134.501180000000
30
0.0
11
325.907300000000
21
134.501180000000
31
0.0
0
LINE
5
5be
100
AcDbEntity
8
A-0
6
CONTINUOUS
62
6
100
AcDbLine
10
364.033354000000
20
134.501180000000
30
0.0
11
377.033354000000
21
134.501180000000
31
0.0
0
LINE
5
5bf
100
AcDbEntity
8
A-0
6
CONTINUOUS
62
6
100
AcDbLine
10
384.449257000000
20
134.501180000000
30
0.0
11
423.056937000000
21
134.501180000000
31
0.0
0
LINE
5
5c0
100
AcDbEntity
8
A-0
6
CONTINUOUS
62
6
100
AcDbLine
10
466.562486000000
20
134.501180000000
30
0.0
11
481.009234000000
21
134.501180000000
31
0.0
0
LINE
5
5c1
100
AcDbEntity
8
A-0
6
CONTINUOUS
62
6
100
AcDbLine
10
491.009234000000
20
134.501180000000
30
0.0
11
504.009234000000
21
134.501180000000
31
0.0
0
LINE
5
5c2
100
AcDbEntity
8
A-0
6
CONTINUOUS
62
6
100
AcDbLine
10
543.590031000000
20
134.501180000000
30
0.0
11
556.590031000000
21
134.501180000000
31
0.0
0
LINE
5
5c3
100
AcDbEntity
8
A-0
6
CONTINUOUS
62
6
100
AcDbLine
10
563.078890000000
20
134.501180000000
30
0.0
11
576.078890000000
21
134.501180000000
31
0.0
0
LINE
5
5c4
100
AcDbEntity
8
A-0
6
CONTINUOUS
62
6
100
AcDbLine
10
604.822880000000
20
134.501180000000
30
0.0
11
622.866483000000
21
134.501180000000
31
0.0
0
LINE
5
5c5
100
AcDbEntity
8
A-0
6
CONTINUOUS
62
6
100
AcDbLine
10
313.839915000000
20
136.501180000000
30
0.0
11
326.839915000000
21
136.501180000000
31
0.0
0
LINE
5
5c6
100
AcDbEntity
8
A-0
6
CONTINUOUS
62
6
100
AcDbLine
10
363.100739000000
20
136.501180000000
30
0.0
11
376.100739000000
21
136.501180000000
31
0.0
0
LINE
5
5c7
100
AcDbEntity
8
A-0
6
CONTINUOUS
62
6
100
AcDbLine
10
384.449257000000
20
136.501180000000
30
0.0
11
428.367749000000
21
136.501180000000
31
0.0
0
LINE
5
5c8
100
AcDbEntity
8
A-0
6
CONTINUOUS
62
6
100
AcDbLine
10
465.629870000000
20
136.501180000000
30
0.0
11
481.941849000000
21
136.501180000000
31
0.0
0
LINE
5
5c9
100
AcDbEntity
8
A-0
6
CONTINUOUS
62
6
100
AcDbLine
10
491.941849000000
20
136.501180000000
30
0.0
11
504.941849000000
21
136.501180000000
31
0.0
0
LINE
5
5ca
100
AcDbEntity
8
A-0
6
CONTINUOUS
62
6
100
AcDbLine
10
542.657416000000
20
136.501180000000
30
0.0
11
555.657416000000
21
136.501180000000
31
0.0
0
LINE
5
5cb
100
AcDbEntity
8
A-0
6
CONTINUOUS
62
6
100
AcDbLine
10
563.078890000000
20
136.501180000000
30
0.0
11
576.078890000000
21
136.501180000000
31
0.0
0
LINE
5
5cc
100
AcDbEntity
8
A-0
6
CONTINUOUS
62
6
100
AcDbLine
10
603.573141000000
20
136.501180000000
30
0.0
11
622.866483000000
21
136.501180000000
31
0.0
0
LINE
5
5cd
100
AcDbEntity
8
A-0
6
CONTINUOUS
62
6
100
AcDbLine
10
314.772531000000
20
138.501180000000
30
0.0
11
327.772531000000
21
138.501180000000
31
0.0
0
LINE
5
5ce
100
AcDbEntity
8
A-0
6
CONTINUOUS
62
6
100
AcDbLine
10
362.168123000000
20
138.501180000000
30
0.0
11
375.168123000000
21
138.501180000000
31
0.0
0
LINE
5
5cf
100
AcDbEntity
8
A-0
6
CONTINUOUS
62
6
100
AcDbLine
10
384.449257000000
20
138.501180000000
30
0.0
11
431.984402000000
21
138.501180000000
31
0.0
0
LINE
5
5d0
100
AcDbEntity
8
A-0
6
CONTINUOUS
62
6
100
AcDbLine
10
464.697255000000
20
138.501180000000
30
0.0
11
482.874464000000
21
138.501180000000
31
0.0
0
LINE
5
5d1
100
AcDbEntity
8
A-0
6
CONTINUOUS
62
6
100
AcDbLine
10
492.874464000000
20
138.501180000000
30
0.0
11
505.874464000000
21
138.501180000000
31
0.0
0
LINE
5
5d2
100
AcDbEntity
8
A-0
6
CONTINUOUS
62
6
100
AcDbLine
10
541.724800000000
20
138.501180000000
30
0.0
11
554.724800000000
21
138.501180000000
31
0.0
0
LINE
5
5d3
100
AcDbEntity
8
A-0
6
CONTINUOUS
62
6
100
AcDbLine
10
563.078890000000
20
138.501180000000
30
0.0
11
576.078890000000
21
138.501180000000
31
0.0
0
LINE
5
5d4
100
AcDbEntity
8
A-0
6
CONTINUOUS
62
6
100
AcDbLine
10
602.323402000000
20
138.501180000000
30
0.0
11
622.866483000000
21
138.501180000000
31
0.0
0
LINE
5
5d5
100
AcDbEntity
8
A-0
6
CONTINUOUS
62
6
100
AcDbLine
10
315.705146000000
20
140.501180000000
30
0.0
11
328.705146000000
21
140.501180000000
31
0.0
0
LINE
5
5d6
100
AcDbEntity
8
A-0
6
CONTINUOUS
62
6
100
AcDbLine
10
361.235508000000
20
140.501180000000
30
0.0
11
374.235508000000
21
140.501180000000
31
0.0
0
LINE
5
5d7
100
AcDbEntity
8
A-0
6
CONTINUOUS
62
6
100
AcDbLine
10
384.449257000000
20
140.501180000000
30
0.0
11
434.445175000000
21
140.501180000000
31
0.0
0
LINE
5
5d8
100
AcDbEntity
8
A-0
6
CONTINUOUS
62
6
100
AcDbLine
10
463.764640000000
20
140.501180000000
30
0.0
11
483.807080000000
21
140.501180000000
31
0.0
0
LINE
5
5d9
100
AcDbEntity
8
A-0
6
CONTINUOUS
62
6
100
AcDbLine
10
493.807080000000
20
140.501180000000
30
0.0
11
506.807080000000
21
140.501180000000
31
0.0
0
LINE
5
5da
100
AcDbEntity
8
A-0
6
CONTINUOUS
62
6
100
AcDbLine
10
540.792185000000
20
140.501180000000
30
0.0
11
553.792185000000
21
140.501180000000
31
0.0
0
LINE
5
5db
100
AcDbEntity
8
A-0
6
CONTINUOUS
62
6
100
AcDbLine
10
563.078890000000
20
140.501180000000
30
0.0
11
576.078890000000
21
140.501180000000
31
0.0
0
LINE
5
5dc
100
AcDbEntity
8
A-0
6
CONTINUOUS
62
6
100
AcDbLine
10
601.073664000000
20
140.501180000000
30
0.0
11
622.866483000000
21
140.501180000000
31
0.0
0
LINE
5
5dd
100
AcDbEntity
8
A-0
6
CONTINUOUS
62
6
100
AcDbLine
10
316.637761000000
20
142.501180000000
30
0.0
11
329.637761000000
21
142.501180000000
31
0.0
0
LINE
5
5de
100
AcDbEntity
8
A-0
6
CONTINUOUS
62
6
100
AcDbLine
10
360.302893000000
20
142.501180000000
30
0.0
11
373.302893000000
21
142.501180000000
31
0.0
0
LINE
5
5df
100
AcDbEntity
8
A-0
6
CONTINUOUS
62
6
100
AcDbLine
10
384.449257000000
20
142.501180000000
30
0.0
11
436.139891000000
21
142.501180000000
31
0.0
0
LINE
5
5e0
100
AcDbEntity
8
A-0
6
CONTINUOUS
62
6
100
AcDbLine
10
462.832024000000
20
142.501180000000
30
0.0
11
484.739695000000
21
142.501180000000
31
0.0
0
LINE
5
5e1
100
AcDbEntity
8
A-0
6
CONTINUOUS
62
6
100
AcDbLine
10
494.739695000000
20
142.501180000000
30
0.0
11
507.739695000000
21
142.501180000000
31
0.0
0
LINE
5
5e2
100
AcDbEntity
8
A-0
6
CONTINUOUS
62
6
100
AcDbLine
10
539.859570000000
20
142.501180000000
30
0.0
11
552.859570000000
21
142.501180000000
31
0.0
0
LINE
5
5e3
100
AcDbEntity
8
A-0
6
CONTINUOUS
62
6
100
AcDbLine
10
563.078890000000
20
142.501180000000
30
0.0
11
576.078890000000
21
142.501180000000
31
0.0
0
LINE
5
5e4
100
AcDbEntity
8
A-0
6
CONTINUOUS
62
6
100
AcDbLine
10
599.823925000000
20
142.501180000000
30
0.0
11
622.866483000000
21
142.501180000000
31
0.0
0
LINE
5
5e5
100
AcDbEntity
8
A-0
6
CONTINUOUS
62
6
100
AcDbLine
10
317.570377000000
20
144.501180000000
30
0.0
11
330.570377000000
21
144.501180000000
31
0.0
0
LINE
5
5e6
100
AcDbEntity
8
A-0
6
CONTINUOUS
62
6
100
AcDbLine
10
359.370278000000
20
144.501180000000
30
0.0
11
372.370278000000
21
144.501180000000
31
0.0
0
LINE
5
5e7
100
AcDbEntity
8
A-0
6
CONTINUOUS
62
6
100
AcDbLine
10
384.449257000000
20
144.501180000000
30
0.0
11
397.449257000000
21
144.501180000000
31
0.0
0
LINE
5
5e8
100
AcDbEntity
8
A-0
6
CONTINUOUS
62
6
100
AcDbLine
10
420.178009000000
20
144.501180000000
30
0.0
11
437.247713000000
21
144.501180000000
31
0.0
0
LINE
5
5e9
100
AcDbEntity
8
A-0
6
CONTINUOUS
62
6
100
AcDbLine
10
461.899409000000
20
144.501180000000
30
0.0
11
485.672310000000
21
144.501180000000
31
0.0
0
LINE
5
5ea
100
AcDbEntity
8
A-0
6
CONTINUOUS
62
6
100
AcDbLine
10
495.672310000000
20
144.501180000000
30
0.0
11
508.672310000000
21
144.501180000000
31
0.0
0
LINE
5
5eb
100
AcDbEntity
8
A-0
6
CONTINUOUS
62
6
100
AcDbLine
10
538.926954000000
20
144.501180000000
30
0.0
11
551.926954000000
21
144.501180000000
31
0.0
0
LINE
5
5ec
100
AcDbEntity
8
A-0
6
CONTINUOUS
62
6
100
AcDbLine
10
563.078890000000
20
144.501180000000
30
0.0
11
576.078890000000
21
144.501180000000
31
0.0
0
LINE
5
5ed
100
AcDbEntity
8
A-0
6
CONTINUOUS
62
6
100
AcDbLine
10
598.574186000000
20
144.501180000000
30
0.0
11
611.545149000000
21
144.501180000000
31
0.0
0
LINE
5
5ee
100
AcDbEntity
8
A-0
6
CONTINUOUS
62
6
100
AcDbLine
10
611.866483000000
20
144.501180000000
30
0.0
11
622.866483000000
21
144.501180000000
31
0.0
0
LINE
5
5ef
100
AcDbEntity
8
A-0
6
CONTINUOUS
62
6
100
AcDbLine
10
318.502992000000
20
146.501180000000
30
0.0
11
371.437662000000
21
146.501180000000
31
0.0
0
LINE
5
5f0
100
AcDbEntity
8
A-0
6
CONTINUOUS
62
6
100
AcDbLine
10
384.449257000000
20
146.501180000000
30
0.0
11
397.449257000000
21
146.501180000000
31
0.0
0
LINE
5
5f1
100
AcDbEntity
8
A-0
6
CONTINUOUS
62
6
100
AcDbLine
10
423.022123000000
20
146.501180000000
30
0.0
11
438.008847000000
21
146.501180000000
31
0.0
0
LINE
5
5f2
100
AcDbEntity
8
A-0
6
CONTINUOUS
62
6
100
AcDbLine
10
460.966794000000
20
146.501180000000
30
0.0
11
486.604926000000
21
146.501180000000
31
0.0
0
LINE
5
5f3
100
AcDbEntity
8
A-0
6
CONTINUOUS
62
6
100
AcDbLine
10
496.604926000000
20
146.501180000000
30
0.0
11
550.994339000000
21
146.501180000000
31
0.0
0
LINE
5
5f4
100
AcDbEntity
8
A-0
6
CONTINUOUS
62
6
100
AcDbLine
10
563.078890000000
20
146.501180000000
30
0.0
11
576.078890000000
21
146.501180000000
31
0.0
0
LINE
5
5f5
100
AcDbEntity
8
A-0
6
CONTINUOUS
62
6
100
AcDbLine
10
597.324447000000
20
146.501180000000
30
0.0
11
610.295410000000
21
146.501180000000
31
0.0
0
LINE
5
5f6
100
AcDbEntity
8
A-0
6
CONTINUOUS
62
6
100
AcDbLine
10
611.866483000000
20
146.501180000000
30
0.0
11
622.866483000000
21
146.501180000000
31
0.0
0
LINE
5
5f7
100
AcDbEntity
8
A-0
6
CONTINUOUS
62
6
100
AcDbLine
10
319.435607000000
20
148.501180000000
30
0.0
11
370.505047000000
21
148.501180000000
31
0.0
0
LINE
5
5f8
100
AcDbEntity
8
A-0
6
CONTINUOUS
62
6
100
AcDbLine
10
384.449257000000
20
148.501180000000
30
0.0
11
397.449257000000
21
148.501180000000
31
0.0
0
LINE
5
5f9
100
AcDbEntity
8
A-0
6
CONTINUOUS
62
6
100
AcDbLine
10
424.839901000000
20
148.501180000000
30
0.0
11
438.598936000000
21
148.501180000000
31
0.0
0
LINE
5
5fa
100
AcDbEntity
8
A-0
6
CONTINUOUS
62
6
100
AcDbLine
10
460.034178000000
20
148.501180000000
30
0.0
11
473.034178000000
21
148.501180000000
31
0.0
0
LINE
5
5fb
100
AcDbEntity
8
A-0
6
CONTINUOUS
62
6
100
AcDbLine
10
474.537541000000
20
148.501180000000
30
0.0
11
487.537541000000
21
148.501180000000
31
0.0
0
LINE
5
5fc
100
AcDbEntity
8
A-0
6
CONTINUOUS
62
6
100
AcDbLine
10
497.537541000000
20
148.501180000000
30
0.0
11
550.061724000000
21
148.501180000000
31
0.0
0
LINE
5
5fd
100
AcDbEntity
8
A-0
6
CONTINUOUS
62
6
100
AcDbLine
10
563.078890000000
20
148.501180000000
30
0.0
11
576.078890000000
21
148.501180000000
31
0.0
0
LINE
5
5fe
100
AcDbEntity
8
A-0
6
CONTINUOUS
62
6
100
AcDbLine
10
596.074709000000
20
148.501180000000
30
0.0
11
609.045671000000
21
148.501180000000
31
0.0
0
LINE
5
5ff
100
AcDbEntity
8
A-0
6
CONTINUOUS
62
6
100
AcDbLine
10
611.866483000000
20
148.501180000000
30
0.0
11
622.866483000000
21
148.501180000000
31
0.0
0
LINE
5
600
100
AcDbEntity
8
A-0
6
CONTINUOUS
62
6
100
AcDbLine
10
320.368223000000
20
150.501180000000
30
0.0
11
369.572432000000
21
150.501180000000
31
0.0
0
LINE
5
601
100
AcDbEntity
8
A-0
6
CONTINUOUS
62
6
100
AcDbLine
10
384.449257000000
20
150.501180000000
30
0.0
11
397.449257000000
21
150.501180000000
31
0.0
0
LINE
5
602
100
AcDbEntity
8
A-0
6
CONTINUOUS
62
6
100
AcDbLine
10
425.923791000000
20
150.501180000000
30
0.0
11
439.098272000000
21
150.501180000000
31
0.0
0
LINE
5
603
100
AcDbEntity
8
A-0
6
CONTINUOUS
62
6
100
AcDbLine
10
459.101563000000
20
150.501180000000
30
0.0
11
472.101563000000
21
150.501180000000
31
0.0
0
LINE
5
604
100
AcDbEntity
8
A-0
6
CONTINUOUS
62
6
100
AcDbLine
10
475.470156000000
20
150.501180000000
30
0.0
11
488.470156000000
21
150.501180000000
31
0.0
0
LINE
5
605
100
AcDbEntity
8
A-0
6
CONTINUOUS
62
6
100
AcDbLine
10
498.470156000000
20
150.501180000000
30
0.0
11
549.129108000000
21
150.501180000000
31
0.0
0
LINE
5
606
100
AcDbEntity
8
A-0
6
CONTINUOUS
62
6
100
AcDbLine
10
563.078890000000
20
150.501180000000
30
0.0
11
576.078890000000
21
150.501180000000
31
0.0
0
LINE
5
607
100
AcDbEntity
8
A-0
6
CONTINUOUS
62
6
100
AcDbLine
10
594.824970000000
20
150.501180000000
30
0.0
11
607.795933000000
21
150.501180000000
31
0.0
0
LINE
5
608
100
AcDbEntity
8
A-0
6
CONTINUOUS
62
6
100
AcDbLine
10
611.866483000000
20
150.501180000000
30
0.0
11
622.866483000000
21
150.501180000000
31
0.0
0
LINE
5
609
100
AcDbEntity
8
A-0
6
CONTINUOUS
62
6
100
AcDbLine
10
321.300838000000
20
152.501180000000
30
0.0
11
368.639816000000
21
152.501180000000
31
0.0
0
LINE
5
60a
100
AcDbEntity
8
A-0
6
CONTINUOUS
62
6
100
AcDbLine
10
384.449257000000
20
152.501180000000
30
0.0
11
397.449257000000
21
152.501180000000
31
0.0
0
LINE
5
60b
100
AcDbEntity
8
A-0
6
CONTINUOUS
62
6
100
AcDbLine
10
426.602073000000
20
152.501180000000
30
0.0
11
439.525976000000
21
152.501180000000
31
0.0
0
LINE
5
60c
100
AcDbEntity
8
A-0
6
CONTINUOUS
62
6
100
AcDbLine
10
458.168948000000
20
152.501180000000
30
0.0
11
471.168948000000
21
152.501180000000
31
0.0
0
LINE
5
60d
100
AcDbEntity
8
A-0
6
CONTINUOUS
62
6
100
AcDbLine
10
476.402771000000
20
152.501180000000
30
0.0
11
489.402771000000
21
152.501180000000
31
0.0
0
LINE
5
60e
100
AcDbEntity
8
A-0
6
CONTINUOUS
62
6
100
AcDbLine
10
499.402771000000
20
152.501180000000
30
0.0
11
548.196493000000
21
152.501180000000
31
0.0
0
LINE
5
60f
100
AcDbEntity
8
A-0
6
CONTINUOUS
62
6
100
AcDbLine
10
563.078890000000
20
152.501180000000
30
0.0
11
576.078890000000
21
152.501180000000
31
0.0
0
LINE
5
610
100
AcDbEntity
8
A-0
6
CONTINUOUS
62
6
100
AcDbLine
10
593.575231000000
20
152.501180000000
30
0.0
11
606.546194000000
21
152.501180000000
31
0.0
0
LINE
5
611
100
AcDbEntity
8
A-0
6
CONTINUOUS
62
6
100
AcDbLine
10
611.866483000000
20
152.501180000000
30
0.0
11
622.866483000000
21
152.501180000000
31
0.0
0
LINE
5
612
100
AcDbEntity
8
A-0
6
CONTINUOUS
62
6
100
AcDbLine
10
322.233453000000
20
154.501180000000
30
0.0
11
367.707201000000
21
154.501180000000
31
0.0
0
LINE
5
613
100
AcDbEntity
8
A-0
6
CONTINUOUS
62
6
100
AcDbLine
10
384.449257000000
20
154.501180000000
30
0.0
11
397.449257000000
21
154.501180000000
31
0.0
0
LINE
5
614
100
AcDbEntity
8
A-0
6
CONTINUOUS
62
6
100
AcDbLine
10
427.015537000000
20
154.501180000000
30
0.0
11
439.874448000000
21
154.501180000000
31
0.0
0
LINE
5
615
100
AcDbEntity
8
A-0
6
CONTINUOUS
62
6
100
AcDbLine
10
457.236333000000
20
154.501180000000
30
0.0
11
470.236333000000
21
154.501180000000
31
0.0
0
LINE
5
616
100
AcDbEntity
8
A-0
6
CONTINUOUS
62
6
100
AcDbLine
10
477.335387000000
20
154.501180000000
30
0.0
11
490.335387000000
21
154.501180000000
31
0.0
0
LINE
5
617
100
AcDbEntity
8
A-0
6
CONTINUOUS
62
6
100
AcDbLine
10
500.335387000000
20
154.501180000000
30
0.0
11
547.263878000000
21
154.501180000000
31
0.0
0
LINE
5
618
100
AcDbEntity
8
A-0
6
CONTINUOUS
62
6
100
AcDbLine
10
563.078890000000
20
154.501180000000
30
0.0
11
576.078890000000
21
154.501180000000
31
0.0
0
LINE
5
619
100
AcDbEntity
8
A-0
6
CONTINUOUS
62
6
100
AcDbLine
10
592.325493000000
20
154.501180000000
30
0.0
11
605.296455000000
21
154.501180000000
31
0.0
0
LINE
5
61a
100
AcDbEntity
8
A-0
6
CONTINUOUS
62
6
100
AcDbLine
10
611.866483000000
20
154.501180000000
30
0.0
11
622.866483000000
21
154.501180000000
31
0.0
0
LINE
5
61b
100
AcDbEntity
8
A-0
6
CONTINUOUS
62
6
100
AcDbLine
10
323.166069000000
20
156.501180000000
30
0.0
11
336.166069000000
21
156.501180000000
31
0.0
0
LINE
5
61c
100
AcDbEntity
8
A-0
6
CONTINUOUS
62
6
100
AcDbLine
10
353.774586000000
20
156.501180000000
30
0.0
11
366.774586000000
21
156.501180000000
31
0.0
0
LINE
5
61d
100
AcDbEntity
8
A-0
6
CONTINUOUS
62
6
100
AcDbLine
10
384.449257000000
20
156.501180000000
30
0.0
11
397.449257000000
21
156.501180000000
31
0.0
0
LINE
5
61e
100
AcDbEntity
8
A-0
6
CONTINUOUS
62
6
100
AcDbLine
10
427.258730000000
20
156.501180000000
30
0.0
11
440.142440000000
21
156.501180000000
31
0.0
0
LINE
5
61f
100
AcDbEntity
8
A-0
6
CONTINUOUS
62
6
100
AcDbLine
10
456.303717000000
20
156.501180000000
30
0.0
11
469.303717000000
21
156.501180000000
31
0.0
0
LINE
5
620
100
AcDbEntity
8
A-0
6
CONTINUOUS
62
6
100
AcDbLine
10
478.268002000000
20
156.501180000000
30
0.0
11
491.268002000000
21
156.501180000000
31
0.0
0
LINE
5
621
100
AcDbEntity
8
A-0
6
CONTINUOUS
62
6
100
AcDbLine
10
501.268002000000
20
156.501180000000
30
0.0
11
514.268002000000
21
156.501180000000
31
0.0
0
LINE
5
622
100
AcDbEntity
8
A-0
6
CONTINUOUS
62
6
100
AcDbLine
10
533.331262000000
20
156.501180000000
30
0.0
11
546.331262000000
21
156.501180000000
31
0.0
0
LINE
5
623
100
AcDbEntity
8
A-0
6
CONTINUOUS
62
6
100
AcDbLine
10
563.078890000000
20
156.501180000000
30
0.0
11
576.078890000000
21
156.501180000000
31
0.0
0
LINE
5
624
100
AcDbEntity
8
A-0
6
CONTINUOUS
62
6
100
AcDbLine
10
591.075754000000
20
156.501180000000
30
0.0
11
604.046716000000
21
156.501180000000
31
0.0
0
LINE
5
625
100
AcDbEntity
8
A-0
6
CONTINUOUS
62
6
100
AcDbLine
10
611.866483000000
20
156.501180000000
30
0.0
11
622.866483000000
21
156.501180000000
31
0.0
0
LINE
5
626
100
AcDbEntity
8
A-0
6
CONTINUOUS
62
6
100
AcDbLine
10
324.098684000000
20
158.501180000000
30
0.0
11
337.098684000000
21
158.501180000000
31
0.0
0
LINE
5
627
100
AcDbEntity
8
A-0
6
CONTINUOUS
62
6
100
AcDbLine
10
352.841970000000
20
158.501180000000
30
0.0
11
365.841970000000
21
158.501180000000
31
0.0
0
LINE
5
628
100
AcDbEntity
8
A-0
6
CONTINUOUS
62
6
100
AcDbLine
10
384.449257000000
20
158.501180000000
30
0.0
11
397.449257000000
21
158.501180000000
31
0.0
0
LINE
5
629
100
AcDbEntity
8
A-0
6
CONTINUOUS
62
6
100
AcDbLine
10
427.388369000000
20
158.501180000000
30
0.0
11
440.328455000000
21
158.501180000000
31
0.0
0
LINE
5
62a
100
AcDbEntity
8
A-0
6
CONTINUOUS
62
6
100
AcDbLine
10
455.371102000000
20
158.501180000000
30
0.0
11
468.371102000000
21
158.501180000000
31
0.0
0
LINE
5
62b
100
AcDbEntity
8
A-0
6
CONTINUOUS
62
6
100
AcDbLine
10
479.200617000000
20
158.501180000000
30
0.0
11
492.200617000000
21
158.501180000000
31
0.0
0
LINE
5
62c
100
AcDbEntity
8
A-0
6
CONTINUOUS
62
6
100
AcDbLine
10
502.200617000000
20
158.501180000000
30
0.0
11
515.200617000000
21
158.501180000000
31
0.0
0
LINE
5
62d
100
AcDbEntity
8
A-0
6
CONTINUOUS
62
6
100
AcDbLine
10
532.398647000000
20
158.501180000000
30
0.0
11
545.398647000000
21
158.501180000000
31
0.0
0
LINE
5
62e
100
AcDbEntity
8
A-0
6
CONTINUOUS
62
6
100
AcDbLine
10
563.078890000000
20
158.501180000000
30
0.0
11
576.078890000000
21
158.501180000000
31
0.0
0
LINE
5
62f
100
AcDbEntity
8
A-0
6
CONTINUOUS
62
6
100
AcDbLine
10
589.826015000000
20
158.501180000000
30
0.0
11
602.796978000000
21
158.501180000000
31
0.0
0
LINE
5
630
100
AcDbEntity
8
A-0
6
CONTINUOUS
62
6
100
AcDbLine
10
611.866483000000
20
158.501180000000
30
0.0
11
622.866483000000
21
158.501180000000
31
0.0
0
LINE
5
631
100
AcDbEntity
8
A-0
6
CONTINUOUS
62
6
100
AcDbLine
10
325.031299000000
20
160.501180000000
30
0.0
11
338.031299000000
21
160.501180000000
31
0.0
0
LINE
5
632
100
AcDbEntity
8
A-0
6
CONTINUOUS
62
6
100
AcDbLine
10
351.909355000000
20
160.501180000000
30
0.0
11
364.909355000000
21
160.501180000000
31
0.0
0
LINE
5
633
100
AcDbEntity
8
A-0
6
CONTINUOUS
62
6
100
AcDbLine
10
384.449257000000
20
160.501180000000
30
0.0
11
397.449257000000
21
160.501180000000
31
0.0
0
LINE
5
634
100
AcDbEntity
8
A-0
6
CONTINUOUS
62
6
100
AcDbLine
10
427.442738000000
20
160.501180000000
30
0.0
11
440.431582000000
21
160.501180000000
31
0.0
0
LINE
5
635
100
AcDbEntity
8
A-0
6
CONTINUOUS
62
6
100
AcDbLine
10
454.438487000000
20
160.501180000000
30
0.0
11
467.438487000000
21
160.501180000000
31
0.0
0
LINE
5
636
100
AcDbEntity
8
A-0
6
CONTINUOUS
62
6
100
AcDbLine
10
480.133233000000
20
160.501180000000
30
0.0
11
493.133233000000
21
160.501180000000
31
0.0
0
LINE
5
637
100
AcDbEntity
8
A-0
6
CONTINUOUS
62
6
100
AcDbLine
10
503.133233000000
20
160.501180000000
30
0.0
11
516.133233000000
21
160.501180000000
31
0.0
0
LINE
5
638
100
AcDbEntity
8
A-0
6
CONTINUOUS
62
6
100
AcDbLine
10
531.466032000000
20
160.501180000000
30
0.0
11
544.466032000000
21
160.501180000000
31
0.0
0
LINE
5
639
100
AcDbEntity
8
A-0
6
CONTINUOUS
62
6
100
AcDbLine
10
563.078890000000
20
160.501180000000
30
0.0
11
576.078890000000
21
160.501180000000
31
0.0
0
LINE
5
63a
100
AcDbEntity
8
A-0
6
CONTINUOUS
62
6
100
AcDbLine
10
588.576277000000
20
160.501180000000
30
0.0
11
601.547239000000
21
160.501180000000
31
0.0
0
LINE
5
63b
100
AcDbEntity
8
A-0
6
CONTINUOUS
62
6
100
AcDbLine
10
611.866483000000
20
160.501180000000
30
0.0
11
622.866483000000
21
160.501180000000
31
0.0
0
LINE
5
63c
100
AcDbEntity
8
A-0
6
CONTINUOUS
62
6
100
AcDbLine
10
325.963915000000
20
162.501180000000
30
0.0
11
338.963915000000
21
162.501180000000
31
0.0
0
LINE
5
63d
100
AcDbEntity
8
A-0
6
CONTINUOUS
62
6
100
AcDbLine
10
350.976740000000
20
162.501180000000
30
0.0
11
363.976740000000
21
162.501180000000
31
0.0
0
LINE
5
63e
100
AcDbEntity
8
A-0
6
CONTINUOUS
62
6
100
AcDbLine
10
384.449257000000
20
162.501180000000
30
0.0
11
397.449257000000
21
162.501180000000
31
0.0
0
LINE
5
63f
100
AcDbEntity
8
A-0
6
CONTINUOUS
62
6
100
AcDbLine
10
427.445127000000
20
162.501180000000
30
0.0
11
440.438060000000
21
162.501180000000
31
0.0
0
LINE
5
640
100
AcDbEntity
8
A-0
6
CONTINUOUS
62
6
100
AcDbLine
10
453.505871000000
20
162.501180000000
30
0.0
11
466.505871000000
21
162.501180000000
31
0.0
0
LINE
5
641
100
AcDbEntity
8
A-0
6
CONTINUOUS
62
6
100
AcDbLine
10
481.065848000000
20
162.501180000000
30
0.0
11
494.065848000000
21
162.501180000000
31
0.0
0
LINE
5
642
100
AcDbEntity
8
A-0
6
CONTINUOUS
62
6
100
AcDbLine
10
504.065848000000
20
162.501180000000
30
0.0
11
517.065848000000
21
162.501180000000
31
0.0
0
LINE
5
643
100
AcDbEntity
8
A-0
6
CONTINUOUS
62
6
100
AcDbLine
10
530.533417000000
20
162.501180000000
30
0.0
11
543.533417000000
21
162.501180000000
31
0.0
0
LINE
5
644
100
AcDbEntity
8
A-0
6
CONTINUOUS
62
6
100
AcDbLine
10
563.078890000000
20
162.501180000000
30
0.0
11
576.078890000000
21
162.501180000000
31
0.0
0
LINE
5
645
100
AcDbEntity
8
A-0
6
CONTINUOUS
62
6
100
AcDbLine
10
587.326538000000
20
162.501180000000
30
0.0
11
600.297500000000
21
162.501180000000
31
0.0
0
LINE
5
646
100
AcDbEntity
8
A-0
6
CONTINUOUS
62
6
100
AcDbLine
10
611.866483000000
20
162.501180000000
30
0.0
11
622.866483000000
21
162.501180000000
31
0.0
0
LINE
5
647
100
AcDbEntity
8
A-0
6
CONTINUOUS
62
6
100
AcDbLine
10
326.896530000000
20
164.501180000000
30
0.0
11
339.896530000000
21
164.501180000000
31
0.0
0
LINE
5
648
100
AcDbEntity
8
A-0
6
CONTINUOUS
62
6
100
AcDbLine
10
350.044124000000
20
164.501180000000
30
0.0
11
363.044124000000
21
164.501180000000
31
0.0
0
LINE
5
649
100
AcDbEntity
8
A-0
6
CONTINUOUS
62
6
100
AcDbLine
10
384.449257000000
20
164.501180000000
30
0.0
11
397.449257000000
21
164.501180000000
31
0.0
0
LINE
5
64a
100
AcDbEntity
8
A-0
6
CONTINUOUS
62
6
100
AcDbLine
10
427.401870000000
20
164.501180000000
30
0.0
11
440.352297000000
21
164.501180000000
31
0.0
0
LINE
5
64b
100
AcDbEntity
8
A-0
6
CONTINUOUS
62
6
100
AcDbLine
10
452.573256000000
20
164.501180000000
30
0.0
11
465.573256000000
21
164.501180000000
31
0.0
0
LINE
5
64c
100
AcDbEntity
8
A-0
6
CONTINUOUS
62
6
100
AcDbLine
10
481.998463000000
20
164.501180000000
30
0.0
11
494.998463000000
21
164.501180000000
31
0.0
0
LINE
5
64d
100
AcDbEntity
8
A-0
6
CONTINUOUS
62
6
100
AcDbLine
10
504.998463000000
20
164.501180000000
30
0.0
11
517.998463000000
21
164.501180000000
31
0.0
0
LINE
5
64e
100
AcDbEntity
8
A-0
6
CONTINUOUS
62
6
100
AcDbLine
10
529.600801000000
20
164.501180000000
30
0.0
11
542.600801000000
21
164.501180000000
31
0.0
0
LINE
5
64f
100
AcDbEntity
8
A-0
6
CONTINUOUS
62
6
100
AcDbLine
10
563.078890000000
20
164.501180000000
30
0.0
11
576.078890000000
21
164.501180000000
31
0.0
0
LINE
5
650
100
AcDbEntity
8
A-0
6
CONTINUOUS
62
6
100
AcDbLine
10
586.076799000000
20
164.501180000000
30
0.0
11
599.047762000000
21
164.501180000000
31
0.0
0
LINE
5
651
100
AcDbEntity
8
A-0
6
CONTINUOUS
62
6
100
AcDbLine
10
611.866483000000
20
164.501180000000
30
0.0
11
622.866483000000
21
164.501180000000
31
0.0
0
LINE
5
652
100
AcDbEntity
8
A-0
6
CONTINUOUS
62
6
100
AcDbLine
10
327.829145000000
20
166.501180000000
30
0.0
11
340.829145000000
21
166.501180000000
31
0.0
0
LINE
5
653
100
AcDbEntity
8
A-0
6
CONTINUOUS
62
6
100
AcDbLine
10
349.111509000000
20
166.501180000000
30
0.0
11
362.111509000000
21
166.501180000000
31
0.0
0
LINE
5
654
100
AcDbEntity
8
A-0
6
CONTINUOUS
62
6
100
AcDbLine
10
384.449257000000
20
166.501180000000
30
0.0
11
397.449257000000
21
166.501180000000
31
0.0
0
LINE
5
655
100
AcDbEntity
8
A-0
6
CONTINUOUS
62
6
100
AcDbLine
10
427.296664000000
20
166.501180000000
30
0.0
11
440.187720000000
21
166.501180000000
31
0.0
0
LINE
5
656
100
AcDbEntity
8
A-0
6
CONTINUOUS
62
6
100
AcDbLine
10
451.640641000000
20
166.501180000000
30
0.0
11
464.640641000000
21
166.501180000000
31
0.0
0
LINE
5
657
100
AcDbEntity
8
A-0
6
CONTINUOUS
62
6
100
AcDbLine
10
482.931079000000
20
166.501180000000
30
0.0
11
495.931079000000
21
166.501180000000
31
0.0
0
LINE
5
658
100
AcDbEntity
8
A-0
6
CONTINUOUS
62
6
100
AcDbLine
10
505.931079000000
20
166.501180000000
30
0.0
11
518.931079000000
21
166.501180000000
31
0.0
0
LINE
5
659
100
AcDbEntity
8
A-0
6
CONTINUOUS
62
6
100
AcDbLine
10
528.668186000000
20
166.501180000000
30
0.0
11
541.668186000000
21
166.501180000000
31
0.0
0
LINE
5
65a
100
AcDbEntity
8
A-0
6
CONTINUOUS
62
6
100
AcDbLine
10
563.078890000000
20
166.501180000000
30
0.0
11
576.078890000000
21
166.501180000000
31
0.0
0
LINE
5
65b
100
AcDbEntity
8
A-0
6
CONTINUOUS
62
6
100
AcDbLine
10
584.827060000000
20
166.501180000000
30
0.0
11
597.798023000000
21
166.501180000000
31
0.0
0
LINE
5
65c
100
AcDbEntity
8
A-0
6
CONTINUOUS
62
6
100
AcDbLine
10
611.866483000000
20
166.501180000000
30
0.0
11
622.866483000000
21
166.501180000000
31
0.0
0
LINE
5
65d
100
AcDbEntity
8
A-0
6
CONTINUOUS
62
6
100
AcDbLine
10
328.761760000000
20
168.501180000000
30
0.0
11
341.761760000000
21
168.501180000000
31
0.0
0
LINE
5
65e
100
AcDbEntity
8
A-0
6
CONTINUOUS
62
6
100
AcDbLine
10
348.178894000000
20
168.501180000000
30
0.0
11
361.178894000000
21
168.501180000000
31
0.0
0
LINE
5
65f
100
AcDbEntity
8
A-0
6
CONTINUOUS
62
6
100
AcDbLine
10
384.449257000000
20
168.501180000000
30
0.0
11
397.449257000000
21
168.501180000000
31
0.0
0
LINE
5
660
100
AcDbEntity
8
A-0
6
CONTINUOUS
62
6
100
AcDbLine
10
427.092316000000
20
168.501180000000
30
0.0
11
439.940590000000
21
168.501180000000
31
0.0
0
LINE
5
661
100
AcDbEntity
8
A-0
6
CONTINUOUS
62
6
100
AcDbLine
10
450.708025000000
20
168.501180000000
30
0.0
11
463.708025000000
21
168.501180000000
31
0.0
0
LINE
5
662
100
AcDbEntity
8
A-0
6
CONTINUOUS
62
6
100
AcDbLine
10
483.863694000000
20
168.501180000000
30
0.0
11
496.863694000000
21
168.501180000000
31
0.0
0
LINE
5
663
100
AcDbEntity
8
A-0
6
CONTINUOUS
62
6
100
AcDbLine
10
506.863694000000
20
168.501180000000
30
0.0
11
519.863694000000
21
168.501180000000
31
0.0
0
LINE
5
664
100
AcDbEntity
8
A-0
6
CONTINUOUS
62
6
100
AcDbLine
10
527.735571000000
20
168.501180000000
30
0.0
11
540.735571000000
21
168.501180000000
31
0.0
0
LINE
5
665
100
AcDbEntity
8
A-0
6
CONTINUOUS
62
6
100
AcDbLine
10
563.078890000000
20
168.501180000000
30
0.0
11
576.078890000000
21
168.501180000000
31
0.0
0
LINE
5
666
100
AcDbEntity
8
A-0
6
CONTINUOUS
62
6
100
AcDbLine
10
583.577322000000
20
168.501180000000
30
0.0
11
596.548284000000
21
168.501180000000
31
0.0
0
LINE
5
667
100
AcDbEntity
8
A-0
6
CONTINUOUS
62
6
100
AcDbLine
10
611.866483000000
20
168.501180000000
30
0.0
11
622.866483000000
21
168.501180000000
31
0.0
0
LINE
5
668
100
AcDbEntity
8
A-0
6
CONTINUOUS
62
6
100
AcDbLine
10
329.694376000000
20
170.501180000000
30
0.0
11
342.694376000000
21
170.501180000000
31
0.0
0
LINE
5
669
100
AcDbEntity
8
A-0
6
CONTINUOUS
62
6
100
AcDbLine
10
347.246278000000
20
170.501180000000
30
0.0
11
360.246278000000
21
170.501180000000
31
0.0
0
LINE
5
66a
100
AcDbEntity
8
A-0
6
CONTINUOUS
62
6
100
AcDbLine
10
384.449257000000
20
170.501180000000
30
0.0
11
397.449257000000
21
170.501180000000
31
0.0
0
LINE
5
66b
100
AcDbEntity
8
A-0
6
CONTINUOUS
62
6
100
AcDbLine
10
426.736837000000
20
170.501180000000
30
0.0
11
439.612467000000
21
170.501180000000
31
0.0
0
LINE
5
66c
100
AcDbEntity
8
A-0
6
CONTINUOUS
62
6
100
AcDbLine
10
449.775410000000
20
170.501180000000
30
0.0
11
462.775410000000
21
170.501180000000
31
0.0
0
LINE
5
66d
100
AcDbEntity
8
A-0
6
CONTINUOUS
62
6
100
AcDbLine
10
484.796309000000
20
170.501180000000
30
0.0
11
497.796309000000
21
170.501180000000
31
0.0
0
LINE
5
66e
100
AcDbEntity
8
A-0
6
CONTINUOUS
62
6
100
AcDbLine
10
507.796309000000
20
170.501180000000
30
0.0
11
520.796309000000
21
170.501180000000
31
0.0
0
LINE
5
66f
100
AcDbEntity
8
A-0
6
CONTINUOUS
62
6
100
AcDbLine
10
526.802955000000
20
170.501180000000
30
0.0
11
539.802955000000
21
170.501180000000
31
0.0
0
LINE
5
670
100
AcDbEntity
8
A-0
6
CONTINUOUS
62
6
100
AcDbLine
10
563.078890000000
20
170.501180000000
30
0.0
11
576.078890000000
21
170.501180000000
31
0.0
0
LINE
5
671
100
AcDbEntity
8
A-0
6
CONTINUOUS
62
6
100
AcDbLine
10
582.327583000000
20
170.501180000000
30
0.0
11
595.298545000000
21
170.501180000000
31
0.0
0
LINE
5
672
100
AcDbEntity
8
A-0
6
CONTINUOUS
62
6
100
AcDbLine
10
611.866483000000
20
170.501180000000
30
0.0
11
622.866483000000
21
170.501180000000
31
0.0
0
LINE
5
673
100
AcDbEntity
8
A-0
6
CONTINUOUS
62
6
100
AcDbLine
10
330.626991000000
20
172.501180000000
30
0.0
11
343.626991000000
21
172.501180000000
31
0.0
0
LINE
5
674
100
AcDbEntity
8
A-0
6
CONTINUOUS
62
6
100
AcDbLine
10
346.313663000000
20
172.501180000000
30
0.0
11
359.313663000000
21
172.501180000000
31
0.0
0
LINE
5
675
100
AcDbEntity
8
A-0
6
CONTINUOUS
62
6
100
AcDbLine
10
384.449257000000
20
172.501180000000
30
0.0
11
397.449257000000
21
172.501180000000
31
0.0
0
LINE
5
676
100
AcDbEntity
8
A-0
6
CONTINUOUS
62
6
100
AcDbLine
10
426.136176000000
20
172.501180000000
30
0.0
11
439.204657000000
21
172.501180000000
31
0.0
0
LINE
5
677
100
AcDbEntity
8
A-0
6
CONTINUOUS
62
6
100
AcDbLine
10
448.842795000000
20
172.501180000000
30
0.0
11
461.842795000000
21
172.501180000000
31
0.0
0
LINE
5
678
100
AcDbEntity
8
A-0
6
CONTINUOUS
62
6
100
AcDbLine
10
485.728925000000
20
172.501180000000
30
0.0
11
498.728925000000
21
172.501180000000
31
0.0
0
LINE
5
679
100
AcDbEntity
8
A-0
6
CONTINUOUS
62
6
100
AcDbLine
10
508.728925000000
20
172.501180000000
30
0.0
11
521.728925000000
21
172.501180000000
31
0.0
0
LINE
5
67a
100
AcDbEntity
8
A-0
6
CONTINUOUS
62
6
100
AcDbLine
10
525.870340000000
20
172.501180000000
30
0.0
11
538.870340000000
21
172.501180000000
31
0.0
0
LINE
5
67b
100
AcDbEntity
8
A-0
6
CONTINUOUS
62
6
100
AcDbLine
10
563.078890000000
20
172.501180000000
30
0.0
11
576.078890000000
21
172.501180000000
31
0.0
0
LINE
5
67c
100
AcDbEntity
8
A-0
6
CONTINUOUS
62
6
100
AcDbLine
10
581.077844000000
20
172.501180000000
30
0.0
11
594.048807000000
21
172.501180000000
31
0.0
0
LINE
5
67d
100
AcDbEntity
8
A-0
6
CONTINUOUS
62
6
100
AcDbLine
10
611.866483000000
20
172.501180000000
30
0.0
11
622.866483000000
21
172.501180000000
31
0.0
0
LINE
5
67e
100
AcDbEntity
8
A-0
6
CONTINUOUS
62
6
100
AcDbLine
10
331.559606000000
20
174.501180000000
30
0.0
11
344.559606000000
21
174.501180000000
31
0.0
0
LINE
5
67f
100
AcDbEntity
8
A-0
6
CONTINUOUS
62
6
100
AcDbLine
10
345.381048000000
20
174.501180000000
30
0.0
11
358.381048000000
21
174.501180000000
31
0.0
0
LINE
5
680
100
AcDbEntity
8
A-0
6
CONTINUOUS
62
6
100
AcDbLine
10
384.449257000000
20
174.501180000000
30
0.0
11
397.449257000000
21
174.501180000000
31
0.0
0
LINE
5
681
100
AcDbEntity
8
A-0
6
CONTINUOUS
62
6
100
AcDbLine
10
425.157869000000
20
174.501180000000
30
0.0
11
438.720768000000
21
174.501180000000
31
0.0
0
LINE
5
682
100
AcDbEntity
8
A-0
6
CONTINUOUS
62
6
100
AcDbLine
10
447.910179000000
20
174.501180000000
30
0.0
11
460.910179000000
21
174.501180000000
31
0.0
0
LINE
5
683
100
AcDbEntity
8
A-0
6
CONTINUOUS
62
6
100
AcDbLine
10
486.661540000000
20
174.501180000000
30
0.0
11
499.661540000000
21
174.501180000000
31
0.0
0
LINE
5
684
100
AcDbEntity
8
A-0
6
CONTINUOUS
62
6
100
AcDbLine
10
509.661540000000
20
174.501180000000
30
0.0
11
522.661540000000
21
174.501180000000
31
0.0
0
LINE
5
685
100
AcDbEntity
8
A-0
6
CONTINUOUS
62
6
100
AcDbLine
10
524.937725000000
20
174.501180000000
30
0.0
11
537.937725000000
21
174.501180000000
31
0.0
0
LINE
5
686
100
AcDbEntity
8
A-0
6
CONTINUOUS
62
6
100
AcDbLine
10
563.078890000000
20
174.501180000000
30
0.0
11
576.078890000000
21
174.501180000000
31
0.0
0
LINE
5
687
100
AcDbEntity
8
A-0
6
CONTINUOUS
62
6
100
AcDbLine
10
579.828106000000
20
174.501180000000
30
0.0
11
592.799068000000
21
174.501180000000
31
0.0
0
LINE
5
688
100
AcDbEntity
8
A-0
6
CONTINUOUS
62
6
100
AcDbLine
10
611.866483000000
20
174.501180000000
30
0.0
11
622.866483000000
21
174.501180000000
31
0.0
0
LINE
5
689
100
AcDbEntity
8
A-0
6
CONTINUOUS
62
6
100
AcDbLine
10
332.492222000000
20
176.501180000000
30
0.0
11
357.448432000000
21
176.501180000000
31
0.0
0
LINE
5
68a
100
AcDbEntity
8
A-0
6
CONTINUOUS
62
6
100
AcDbLine
10
384.449257000000
20
176.501180000000
30
0.0
11
397.449257000000
21
176.501180000000
31
0.0
0
LINE
5
68b
100
AcDbEntity
8
A-0
6
CONTINUOUS
62
6
100
AcDbLine
10
423.496588000000
20
176.501180000000
30
0.0
11
438.150478000000
21
176.501180000000
31
0.0
0
LINE
5
68c
100
AcDbEntity
8
A-0
6
CONTINUOUS
62
6
100
AcDbLine
10
446.977564000000
20
176.501180000000
30
0.0
11
459.977564000000
21
176.501180000000
31
0.0
0
LINE
5
68d
100
AcDbEntity
8
A-0
6
CONTINUOUS
62
6
100
AcDbLine
10
487.594155000000
20
176.501180000000
30
0.0
11
500.594155000000
21
176.501180000000
31
0.0
0
LINE
5
68e
100
AcDbEntity
8
A-0
6
CONTINUOUS
62
6
100
AcDbLine
10
510.594155000000
20
176.501180000000
30
0.0
11
523.594155000000
21
176.501180000000
31
0.0
0
LINE
5
68f
100
AcDbEntity
8
A-0
6
CONTINUOUS
62
6
100
AcDbLine
10
524.005109000000
20
176.501180000000
30
0.0
11
537.005109000000
21
176.501180000000
31
0.0
0
LINE
5
690
100
AcDbEntity
8
A-0
6
CONTINUOUS
62
6
100
AcDbLine
10
563.078890000000
20
176.501180000000
30
0.0
11
576.078890000000
21
176.501180000000
31
0.0
0
LINE
5
691
100
AcDbEntity
8
A-0
6
CONTINUOUS
62
6
100
AcDbLine
10
578.578367000000
20
176.501180000000
30
0.0
11
591.549329000000
21
176.501180000000
31
0.0
0
LINE
5
692
100
AcDbEntity
8
A-0
6
CONTINUOUS
62
6
100
AcDbLine
10
611.866483000000
20
176.501180000000
30
0.0
11
622.866483000000
21
176.501180000000
31
0.0
0
LINE
5
693
100
AcDbEntity
8
A-0
6
CONTINUOUS
62
6
100
AcDbLine
10
333.424837000000
20
178.501180000000
30
0.0
11
356.515817000000
21
178.501180000000
31
0.0
0
LINE
5
694
100
AcDbEntity
8
A-0
6
CONTINUOUS
62
6
100
AcDbLine
10
384.449257000000
20
178.501180000000
30
0.0
11
397.449257000000
21
178.501180000000
31
0.0
0
LINE
5
695
100
AcDbEntity
8
A-0
6
CONTINUOUS
62
6
100
AcDbLine
10
420.902782000000
20
178.501180000000
30
0.0
11
437.445213000000
21
178.501180000000
31
0.0
0
LINE
5
696
100
AcDbEntity
8
A-0
6
CONTINUOUS
62
6
100
AcDbLine
10
446.044949000000
20
178.501180000000
30
0.0
11
459.044949000000
21
178.501180000000
31
0.0
0
LINE
5
697
100
AcDbEntity
8
A-0
6
CONTINUOUS
62
6
100
AcDbLine
10
488.526771000000
20
178.501180000000
30
0.0
11
501.526771000000
21
178.501180000000
31
0.0
0
LINE
5
698
100
AcDbEntity
8
A-0
6
CONTINUOUS
62
6
100
AcDbLine
10
511.526771000000
20
178.501180000000
30
0.0
11
536.072494000000
21
178.501180000000
31
0.0
0
LINE
5
699
100
AcDbEntity
8
A-0
6
CONTINUOUS
62
6
100
AcDbLine
10
563.078890000000
20
178.501180000000
30
0.0
11
576.078890000000
21
178.501180000000
31
0.0
0
LINE
5
69a
100
AcDbEntity
8
A-0
6
CONTINUOUS
62
6
100
AcDbLine
10
577.328628000000
20
178.501180000000
30
0.0
11
590.299591000000
21
178.501180000000
31
0.0
0
LINE
5
69b
100
AcDbEntity
8
A-0
6
CONTINUOUS
62
6
100
AcDbLine
10
611.866483000000
20
178.501180000000
30
0.0
11
622.866483000000
21
178.501180000000
31
0.0
0
LINE
5
69c
100
AcDbEntity
8
A-0
6
CONTINUOUS
62
6
100
AcDbLine
10
334.357452000000
20
180.501180000000
30
0.0
11
355.583202000000
21
180.501180000000
31
0.0
0
LINE
5
69d
100
AcDbEntity
8
A-0
6
CONTINUOUS
62
6
100
AcDbLine
10
384.449257000000
20
180.501180000000
30
0.0
11
397.449257000000
21
180.501180000000
31
0.0
0
LINE
5
69e
100
AcDbEntity
8
A-0
6
CONTINUOUS
62
6
100
AcDbLine
10
417.449257000000
20
180.501180000000
30
0.0
11
436.449257000000
21
180.501180000000
31
0.0
0
LINE
5
69f
100
AcDbEntity
8
A-0
6
CONTINUOUS
62
6
100
AcDbLine
10
445.112333000000
20
180.501180000000
30
0.0
11
458.112333000000
21
180.501180000000
31
0.0
0
LINE
5
6a0
100
AcDbEntity
8
A-0
6
CONTINUOUS
62
6
100
AcDbLine
10
489.459386000000
20
180.501180000000
30
0.0
11
502.459386000000
21
180.501180000000
31
0.0
0
LINE
5
6a1
100
AcDbEntity
8
A-0
6
CONTINUOUS
62
6
100
AcDbLine
10
512.459386000000
20
180.501180000000
30
0.0
11
535.139879000000
21
180.501180000000
31
0.0
0
LINE
5
6a2
100
AcDbEntity
8
A-0
6
CONTINUOUS
62
6
100
AcDbLine
10
563.078890000000
20
180.501180000000
30
0.0
11
576.078890000000
21
180.501180000000
31
0.0
0
LINE
5
6a3
100
AcDbEntity
8
A-0
6
CONTINUOUS
62
6
100
AcDbLine
10
576.078890000000
20
180.501180000000
30
0.0
11
589.049852000000
21
180.501180000000
31
0.0
0
LINE
5
6a4
100
AcDbEntity
8
A-0
6
CONTINUOUS
62
6
100
AcDbLine
10
611.866483000000
20
180.501180000000
30
0.0
11
622.866483000000
21
180.501180000000
31
0.0
0
LINE
5
6a5
100
AcDbEntity
8
A-0
6
CONTINUOUS
62
6
100
AcDbLine
10
335.290068000000
20
182.501180000000
30
0.0
11
354.650587000000
21
182.501180000000
31
0.0
0
LINE
5
6a6
100
AcDbEntity
8
A-0
6
CONTINUOUS
62
6
100
AcDbLine
10
384.449257000000
20
182.501180000000
30
0.0
11
434.859390000000
21
182.501180000000
31
0.0
0
LINE
5
6a7
100
AcDbEntity
8
A-0
6
CONTINUOUS
62
6
100
AcDbLine
10
444.179718000000
20
182.501180000000
30
0.0
11
457.179718000000
21
182.501180000000
31
0.0
0
LINE
5
6a8
100
AcDbEntity
8
A-0
6
CONTINUOUS
62
6
100
AcDbLine
10
490.392001000000
20
182.501180000000
30
0.0
11
503.392001000000
21
182.501180000000
31
0.0
0
LINE
5
6a9
100
AcDbEntity
8
A-0
6
CONTINUOUS
62
6
100
AcDbLine
10
513.392001000000
20
182.501180000000
30
0.0
11
534.207263000000
21
182.501180000000
31
0.0
0
LINE
5
6aa
100
AcDbEntity
8
A-0
6
CONTINUOUS
62
6
100
AcDbLine
10
563.078890000000
20
182.501180000000
30
0.0
11
587.800113000000
21
182.501180000000
31
0.0
0
LINE
5
6ab
100
AcDbEntity
8
A-0
6
CONTINUOUS
62
6
100
AcDbLine
10
611.866483000000
20
182.501180000000
30
0.0
11
622.866483000000
21
182.501180000000
31
0.0
0
LINE
5
6ac
100
AcDbEntity
8
A-0
6
CONTINUOUS
62
6
100
AcDbLine
10
336.222683000000
20
184.501180000000
30
0.0
11
353.717971000000
21
184.501180000000
31
0.0
0
LINE
5
6ad
100
AcDbEntity
8
A-0
6
CONTINUOUS
62
6
100
AcDbLine
10
384.449257000000
20
184.501180000000
30
0.0
11
432.615123000000
21
184.501180000000
31
0.0
0
LINE
5
6ae
100
AcDbEntity
8
A-0
6
CONTINUOUS
62
6
100
AcDbLine
10
443.247103000000
20
184.501180000000
30
0.0
11
456.247103000000
21
184.501180000000
31
0.0
0
LINE
5
6af
100
AcDbEntity
8
A-0
6
CONTINUOUS
62
6
100
AcDbLine
10
491.324617000000
20
184.501180000000
30
0.0
11
504.324617000000
21
184.501180000000
31
0.0
0
LINE
5
6b0
100
AcDbEntity
8
A-0
6
CONTINUOUS
62
6
100
AcDbLine
10
514.324617000000
20
184.501180000000
30
0.0
11
533.274648000000
21
184.501180000000
31
0.0
0
LINE
5
6b1
100
AcDbEntity
8
A-0
6
CONTINUOUS
62
6
100
AcDbLine
10
563.078890000000
20
184.501180000000
30
0.0
11
586.550375000000
21
184.501180000000
31
0.0
0
LINE
5
6b2
100
AcDbEntity
8
A-0
6
CONTINUOUS
62
6
100
AcDbLine
10
611.866483000000
20
184.501180000000
30
0.0
11
622.866483000000
21
184.501180000000
31
0.0
0
LINE
5
6b3
100
AcDbEntity
8
A-0
6
CONTINUOUS
62
6
100
AcDbLine
10
337.155298000000
20
186.501180000000
30
0.0
11
352.785356000000
21
186.501180000000
31
0.0
0
LINE
5
6b4
100
AcDbEntity
8
A-0
6
CONTINUOUS
62
6
100
AcDbLine
10
384.449257000000
20
186.501180000000
30
0.0
11
429.277325000000
21
186.501180000000
31
0.0
0
LINE
5
6b5
100
AcDbEntity
8
A-0
6
CONTINUOUS
62
6
100
AcDbLine
10
442.314487000000
20
186.501180000000
30
0.0
11
455.314487000000
21
186.501180000000
31
0.0
0
LINE
5
6b6
100
AcDbEntity
8
A-0
6
CONTINUOUS
62
6
100
AcDbLine
10
492.257232000000
20
186.501180000000
30
0.0
11
505.257232000000
21
186.501180000000
31
0.0
0
LINE
5
6b7
100
AcDbEntity
8
A-0
6
CONTINUOUS
62
6
100
AcDbLine
10
515.257232000000
20
186.501180000000
30
0.0
11
532.342033000000
21
186.501180000000
31
0.0
0
LINE
5
6b8
100
AcDbEntity
8
A-0
6
CONTINUOUS
62
6
100
AcDbLine
10
563.078890000000
20
186.501180000000
30
0.0
11
585.300636000000
21
186.501180000000
31
0.0
0
LINE
5
6b9
100
AcDbEntity
8
A-0
6
CONTINUOUS
62
6
100
AcDbLine
10
611.866483000000
20
186.501180000000
30
0.0
11
622.866483000000
21
186.501180000000
31
0.0
0
LINE
5
6ba
100
AcDbEntity
8
A-0
6
CONTINUOUS
62
6
100
AcDbLine
10
338.087914000000
20
188.501180000000
30
0.0
11
351.852741000000
21
188.501180000000
31
0.0
0
LINE
5
6bb
100
AcDbEntity
8
A-0
6
CONTINUOUS
62
6
100
AcDbLine
10
384.449257000000
20
188.501180000000
30
0.0
11
424.449257000000
21
188.501180000000
31
0.0
0
LINE
5
6bc
100
AcDbEntity
8
A-0
6
CONTINUOUS
62
6
100
AcDbLine
10
441.381872000000
20
188.501180000000
30
0.0
11
454.381872000000
21
188.501180000000
31
0.0
0
LINE
5
6bd
100
AcDbEntity
8
A-0
6
CONTINUOUS
62
6
100
AcDbLine
10
493.189847000000
20
188.501180000000
30
0.0
11
506.189847000000
21
188.501180000000
31
0.0
0
LINE
5
6be
100
AcDbEntity
8
A-0
6
CONTINUOUS
62
6
100
AcDbLine
10
516.189847000000
20
188.501180000000
30
0.0
11
531.409417000000
21
188.501180000000
31
0.0
0
LINE
5
6bf
100
AcDbEntity
8
A-0
6
CONTINUOUS
62
6
100
AcDbLine
10
563.078890000000
20
188.501180000000
30
0.0
11
584.050897000000
21
188.501180000000
31
0.0
0
LINE
5
6c0
100
AcDbEntity
8
A-0
6
CONTINUOUS
62
6
100
AcDbLine
10
611.866483000000
20
188.501180000000
30
0.0
11
622.866483000000
21
188.501180000000
31
0.0
0
LINE
5
6c1
100
AcDbEntity
8
A-0
6
CONTINUOUS
62
6
100
AcDbLine
10
339.020529000000
20
190.501180000000
30
0.0
11
350.920125000000
21
190.501180000000
31
0.0
0
LINE
5
6c2
100
AcDbEntity
8
A-0
6
CONTINUOUS
62
6
100
AcDbLine
10
384.449257000000
20
190.501180000000
30
0.0
11
417.449257000000
21
190.501180000000
31
0.0
0
LINE
5
6c3
100
AcDbEntity
8
A-0
6
CONTINUOUS
62
6
100
AcDbLine
10
440.449257000000
20
190.501180000000
30
0.0
11
453.449257000000
21
190.501180000000
31
0.0
0
LINE
5
6c4
100
AcDbEntity
8
A-0
6
CONTINUOUS
62
6
100
AcDbLine
10
494.122462000000
20
190.501180000000
30
0.0
11
507.122462000000
21
190.501180000000
31
0.0
0
LINE
5
6c5
100
AcDbEntity
8
A-0
6
CONTINUOUS
62
6
100
AcDbLine
10
517.122462000000
20
190.501180000000
30
0.0
11
530.476802000000
21
190.501180000000
31
0.0
0
LINE
5
6c6
100
AcDbEntity
8
A-0
6
CONTINUOUS
62
6
100
AcDbLine
10
563.078890000000
20
190.501180000000
30
0.0
11
582.801158000000
21
190.501180000000
31
0.0
0
LINE
5
6c7
100
AcDbEntity
8
A-0
6
CONTINUOUS
62
6
100
AcDbLine
10
611.866483000000
20
190.501180000000
30
0.0
11
622.866483000000
21
190.501180000000
31
0.0
0
LINE
5
6c8
100
AcDbEntity
8
A-0
6
CONTINUOUS
62
6
100
AcDbLine
10
312.440992000000
20
133.501180000000
30
0.0
11
325.440992000000
21
133.501180000000
31
0.0
0
LINE
5
6c9
100
AcDbEntity
8
A-0
6
CONTINUOUS
62
6
100
AcDbLine
10
364.499662000000
20
133.501180000000
30
0.0
11
377.499662000000
21
133.501180000000
31
0.0
0
LINE
5
6ca
100
AcDbEntity
8
A-0
6
CONTINUOUS
62
6
100
AcDbLine
10
384.449257000000
20
133.501180000000
30
0.0
11
419.556530000000
21
133.501180000000
31
0.0
0
LINE
5
6cb
100
AcDbEntity
8
A-0
6
CONTINUOUS
62
6
100
AcDbLine
10
467.028793000000
20
133.501180000000
30
0.0
11
480.542926000000
21
133.501180000000
31
0.0
0
LINE
5
6cc
100
AcDbEntity
8
A-0
6
CONTINUOUS
62
6
100
AcDbLine
10
490.542926000000
20
133.501180000000
30
0.0
11
503.542926000000
21
133.501180000000
31
0.0
0
LINE
5
6cd
100
AcDbEntity
8
A-0
6
CONTINUOUS
62
6
100
AcDbLine
10
544.056339000000
20
133.501180000000
30
0.0
11
557.056339000000
21
133.501180000000
31
0.0
0
LINE
5
6ce
100
AcDbEntity
8
A-0
6
CONTINUOUS
62
6
100
AcDbLine
10
563.078890000000
20
133.501180000000
30
0.0
11
576.078890000000
21
133.501180000000
31
0.0
0
LINE
5
6cf
100
AcDbEntity
8
A-0
6
CONTINUOUS
62
6
100
AcDbLine
10
605.447749000000
20
133.501180000000
30
0.0
11
622.866483000000
21
133.501180000000
31
0.0
0
LINE
5
6d0
100
AcDbEntity
8
A-0
6
CONTINUOUS
62
6
100
AcDbLine
10
313.373608000000
20
135.501180000000
30
0.0
11
326.373608000000
21
135.501180000000
31
0.0
0
LINE
5
6d1
100
AcDbEntity
8
A-0
6
CONTINUOUS
62
6
100
AcDbLine
10
363.567046000000
20
135.501180000000
30
0.0
11
376.567046000000
21
135.501180000000
31
0.0
0
LINE
5
6d2
100
AcDbEntity
8
A-0
6
CONTINUOUS
62
6
100
AcDbLine
10
384.449257000000
20
135.501180000000
30
0.0
11
425.974883000000
21
135.501180000000
31
0.0
0
LINE
5
6d3
100
AcDbEntity
8
A-0
6
CONTINUOUS
62
6
100
AcDbLine
10
466.096178000000
20
135.501180000000
30
0.0
11
481.475541000000
21
135.501180000000
31
0.0
0
LINE
5
6d4
100
AcDbEntity
8
A-0
6
CONTINUOUS
62
6
100
AcDbLine
10
491.475541000000
20
135.501180000000
30
0.0
11
504.475541000000
21
135.501180000000
31
0.0
0
LINE
5
6d5
100
AcDbEntity
8
A-0
6
CONTINUOUS
62
6
100
AcDbLine
10
543.123723000000
20
135.501180000000
30
0.0
11
556.123723000000
21
135.501180000000
31
0.0
0
LINE
5
6d6
100
AcDbEntity
8
A-0
6
CONTINUOUS
62
6
100
AcDbLine
10
563.078890000000
20
135.501180000000
30
0.0
11
576.078890000000
21
135.501180000000
31
0.0
0
LINE
5
6d7
100
AcDbEntity
8
A-0
6
CONTINUOUS
62
6
100
AcDbLine
10
604.198010000000
20
135.501180000000
30
0.0
11
622.866483000000
21
135.501180000000
31
0.0
0
LINE
5
6d8
100
AcDbEntity
8
A-0
6
CONTINUOUS
62
6
100
AcDbLine
10
314.306223000000
20
137.501180000000
30
0.0
11
327.306223000000
21
137.501180000000
31
0.0
0
LINE
5
6d9
100
AcDbEntity
8
A-0
6
CONTINUOUS
62
6
100
AcDbLine
10
362.634431000000
20
137.501180000000
30
0.0
11
375.634431000000
21
137.501180000000
31
0.0
0
LINE
5
6da
100
AcDbEntity
8
A-0
6
CONTINUOUS
62
6
100
AcDbLine
10
384.449257000000
20
137.501180000000
30
0.0
11
430.362985000000
21
137.501180000000
31
0.0
0
LINE
5
6db
100
AcDbEntity
8
A-0
6
CONTINUOUS
62
6
100
AcDbLine
10
465.163563000000
20
137.501180000000
30
0.0
11
482.408157000000
21
137.501180000000
31
0.0
0
LINE
5
6dc
100
AcDbEntity
8
A-0
6
CONTINUOUS
62
6
100
AcDbLine
10
492.408157000000
20
137.501180000000
30
0.0
11
505.408157000000
21
137.501180000000
31
0.0
0
LINE
5
6dd
100
AcDbEntity
8
A-0
6
CONTINUOUS
62
6
100
AcDbLine
10
542.191108000000
20
137.501180000000
30
0.0
11
555.191108000000
21
137.501180000000
31
0.0
0
LINE
5
6de
100
AcDbEntity
8
A-0
6
CONTINUOUS
62
6
100
AcDbLine
10
563.078890000000
20
137.501180000000
30
0.0
11
576.078890000000
21
137.501180000000
31
0.0
0
LINE
5
6df
100
AcDbEntity
8
A-0
6
CONTINUOUS
62
6
100
AcDbLine
10
602.948272000000
20
137.501180000000
30
0.0
11
622.866483000000
21
137.501180000000
31
0.0
0
LINE
5
6e0
100
AcDbEntity
8
A-0
6
CONTINUOUS
62
6
100
AcDbLine
10
315.238838000000
20
139.501180000000
30
0.0
11
328.238838000000
21
139.501180000000
31
0.0
0
LINE
5
6e1
100
AcDbEntity
8
A-0
6
CONTINUOUS
62
6
100
AcDbLine
10
361.701816000000
20
139.501180000000
30
0.0
11
374.701816000000
21
139.501180000000
31
0.0
0
LINE
5
6e2
100
AcDbEntity
8
A-0
6
CONTINUOUS
62
6
100
AcDbLine
10
384.449257000000
20
139.501180000000
30
0.0
11
433.305923000000
21
139.501180000000
31
0.0
0
LINE
5
6e3
100
AcDbEntity
8
A-0
6
CONTINUOUS
62
6
100
AcDbLine
10
464.230947000000
20
139.501180000000
30
0.0
11
483.340772000000
21
139.501180000000
31
0.0
0
LINE
5
6e4
100
AcDbEntity
8
A-0
6
CONTINUOUS
62
6
100
AcDbLine
10
493.340772000000
20
139.501180000000
30
0.0
11
506.340772000000
21
139.501180000000
31
0.0
0
LINE
5
6e5
100
AcDbEntity
8
A-0
6
CONTINUOUS
62
6
100
AcDbLine
10
541.258493000000
20
139.501180000000
30
0.0
11
554.258493000000
21
139.501180000000
31
0.0
0
LINE
5
6e6
100
AcDbEntity
8
A-0
6
CONTINUOUS
62
6
100
AcDbLine
10
563.078890000000
20
139.501180000000
30
0.0
11
576.078890000000
21
139.501180000000
31
0.0
0
LINE
5
6e7
100
AcDbEntity
8
A-0
6
CONTINUOUS
62
6
100
AcDbLine
10
601.698533000000
20
139.501180000000
30
0.0
11
622.866483000000
21
139.501180000000
31
0.0
0
LINE
5
6e8
100
AcDbEntity
8
A-0
6
CONTINUOUS
62
6
100
AcDbLine
10
316.171454000000
20
141.501180000000
30
0.0
11
329.171454000000
21
141.501180000000
31
0.0
0
LINE
5
6e9
100
AcDbEntity
8
A-0
6
CONTINUOUS
62
6
100
AcDbLine
10
360.769201000000
20
141.501180000000
30
0.0
11
373.769201000000
21
141.501180000000
31
0.0
0
LINE
5
6ea
100
AcDbEntity
8
A-0
6
CONTINUOUS
62
6
100
AcDbLine
10
384.449257000000
20
141.501180000000
30
0.0
11
435.368280000000
21
141.501180000000
31
0.0
0
LINE
5
6eb
100
AcDbEntity
8
A-0
6
CONTINUOUS
62
6
100
AcDbLine
10
463.298332000000
20
141.501180000000
30
0.0
11
484.273387000000
21
141.501180000000
31
0.0
0
LINE
5
6ec
100
AcDbEntity
8
A-0
6
CONTINUOUS
62
6
100
AcDbLine
10
494.273387000000
20
141.501180000000
30
0.0
11
507.273387000000
21
141.501180000000
31
0.0
0
LINE
5
6ed
100
AcDbEntity
8
A-0
6
CONTINUOUS
62
6
100
AcDbLine
10
540.325877000000
20
141.501180000000
30
0.0
11
553.325877000000
21
141.501180000000
31
0.0
0
LINE
5
6ee
100
AcDbEntity
8
A-0
6
CONTINUOUS
62
6
100
AcDbLine
10
563.078890000000
20
141.501180000000
30
0.0
11
576.078890000000
21
141.501180000000
31
0.0
0
LINE
5
6ef
100
AcDbEntity
8
A-0
6
CONTINUOUS
62
6
100
AcDbLine
10
600.448794000000
20
141.501180000000
30
0.0
11
622.866483000000
21
141.501180000000
31
0.0
0
LINE
5
6f0
100
AcDbEntity
8
A-0
6
CONTINUOUS
62
6
100
AcDbLine
10
317.104069000000
20
143.501180000000
30
0.0
11
330.104069000000
21
143.501180000000
31
0.0
0
LINE
5
6f1
100
AcDbEntity
8
A-0
6
CONTINUOUS
62
6
100
AcDbLine
10
359.836585000000
20
143.501180000000
30
0.0
11
372.836585000000
21
143.501180000000
31
0.0
0
LINE
5
6f2
100
AcDbEntity
8
A-0
6
CONTINUOUS
62
6
100
AcDbLine
10
384.449257000000
20
143.501180000000
30
0.0
11
397.449257000000
21
143.501180000000
31
0.0
0
LINE
5
6f3
100
AcDbEntity
8
A-0
6
CONTINUOUS
62
6
100
AcDbLine
10
418.447705000000
20
143.501180000000
30
0.0
11
436.761064000000
21
143.501180000000
31
0.0
0
LINE
5
6f4
100
AcDbEntity
8
A-0
6
CONTINUOUS
62
6
100
AcDbLine
10
462.365717000000
20
143.501180000000
30
0.0
11
485.206003000000
21
143.501180000000
31
0.0
0
LINE
5
6f5
100
AcDbEntity
8
A-0
6
CONTINUOUS
62
6
100
AcDbLine
10
495.206003000000
20
143.501180000000
30
0.0
11
508.206003000000
21
143.501180000000
31
0.0
0
LINE
5
6f6
100
AcDbEntity
8
A-0
6
CONTINUOUS
62
6
100
AcDbLine
10
539.393262000000
20
143.501180000000
30
0.0
11
552.393262000000
21
143.501180000000
31
0.0
0
LINE
5
6f7
100
AcDbEntity
8
A-0
6
CONTINUOUS
62
6
100
AcDbLine
10
563.078890000000
20
143.501180000000
30
0.0
11
576.078890000000
21
143.501180000000
31
0.0
0
LINE
5
6f8
100
AcDbEntity
8
A-0
6
CONTINUOUS
62
6
100
AcDbLine
10
599.199056000000
20
143.501180000000
30
0.0
11
622.866483000000
21
143.501180000000
31
0.0
0
LINE
5
6f9
100
AcDbEntity
8
A-0
6
CONTINUOUS
62
6
100
AcDbLine
10
318.036684000000
20
145.501180000000
30
0.0
11
331.036684000000
21
145.501180000000
31
0.0
0
LINE
5
6fa
100
AcDbEntity
8
A-0
6
CONTINUOUS
62
6
100
AcDbLine
10
358.903970000000
20
145.501180000000
30
0.0
11
371.903970000000
21
145.501180000000
31
0.0
0
LINE
5
6fb
100
AcDbEntity
8
A-0
6
CONTINUOUS
62
6
100
AcDbLine
10
384.449257000000
20
145.501180000000
30
0.0
11
397.449257000000
21
145.501180000000
31
0.0
0
LINE
5
6fc
100
AcDbEntity
8
A-0
6
CONTINUOUS
62
6
100
AcDbLine
10
421.726043000000
20
145.501180000000
30
0.0
11
437.656822000000
21
145.501180000000
31
0.0
0
LINE
5
6fd
100
AcDbEntity
8
A-0
6
CONTINUOUS
62
6
100
AcDbLine
10
461.433101000000
20
145.501180000000
30
0.0
11
486.138618000000
21
145.501180000000
31
0.0
0
LINE
5
6fe
100
AcDbEntity
8
A-0
6
CONTINUOUS
62
6
100
AcDbLine
10
496.138618000000
20
145.501180000000
30
0.0
11
509.138618000000
21
145.501180000000
31
0.0
0
LINE
5
6ff
100
AcDbEntity
8
A-0
6
CONTINUOUS
62
6
100
AcDbLine
10
538.460647000000
20
145.501180000000
30
0.0
11
551.460647000000
21
145.501180000000
31
0.0
0
LINE
5
700
100
AcDbEntity
8
A-0
6
CONTINUOUS
62
6
100
AcDbLine
10
563.078890000000
20
145.501180000000
30
0.0
11
576.078890000000
21
145.501180000000
31
0.0
0
LINE
5
701
100
AcDbEntity
8
A-0
6
CONTINUOUS
62
6
100
AcDbLine
10
597.949317000000
20
145.501180000000
30
0.0
11
610.920279000000
21
145.501180000000
31
0.0
0
LINE
5
702
100
AcDbEntity
8
A-0
6
CONTINUOUS
62
6
100
AcDbLine
10
611.866483000000
20
145.501180000000
30
0.0
11
622.866483000000
21
145.501180000000
31
0.0
0
LINE
5
703
100
AcDbEntity
8
A-0
6
CONTINUOUS
62
6
100
AcDbLine
10
318.969300000000
20
147.501180000000
30
0.0
11
370.971355000000
21
147.501180000000
31
0.0
0
LINE
5
704
100
AcDbEntity
8
A-0
6
CONTINUOUS
62
6
100
AcDbLine
10
384.449257000000
20
147.501180000000
30
0.0
11
397.449257000000
21
147.501180000000
31
0.0
0
LINE
5
705
100
AcDbEntity
8
A-0
6
CONTINUOUS
62
6
100
AcDbLine
10
424.056409000000
20
147.501180000000
30
0.0
11
438.319408000000
21
147.501180000000
31
0.0
0
LINE
5
706
100
AcDbEntity
8
A-0
6
CONTINUOUS
62
6
100
AcDbLine
10
460.500486000000
20
147.501180000000
30
0.0
11
473.500486000000
21
147.501180000000
31
0.0
0
LINE
5
707
100
AcDbEntity
8
A-0
6
CONTINUOUS
62
6
100
AcDbLine
10
474.071233000000
20
147.501180000000
30
0.0
11
487.071233000000
21
147.501180000000
31
0.0
0
LINE
5
708
100
AcDbEntity
8
A-0
6
CONTINUOUS
62
6
100
AcDbLine
10
497.071233000000
20
147.501180000000
30
0.0
11
550.528031000000
21
147.501180000000
31
0.0
0
LINE
5
709
100
AcDbEntity
8
A-0
6
CONTINUOUS
62
6
100
AcDbLine
10
563.078890000000
20
147.501180000000
30
0.0
11
576.078890000000
21
147.501180000000
31
0.0
0
LINE
5
70a
100
AcDbEntity
8
A-0
6
CONTINUOUS
62
6
100
AcDbLine
10
596.699578000000
20
147.501180000000
30
0.0
11
609.670541000000
21
147.501180000000
31
0.0
0
LINE
5
70b
100
AcDbEntity
8
A-0
6
CONTINUOUS
62
6
100
AcDbLine
10
611.866483000000
20
147.501180000000
30
0.0
11
622.866483000000
21
147.501180000000
31
0.0
0
LINE
5
70c
100
AcDbEntity
8
A-0
6
CONTINUOUS
62
6
100
AcDbLine
10
319.901915000000
20
149.501180000000
30
0.0
11
370.038739000000
21
149.501180000000
31
0.0
0
LINE
5
70d
100
AcDbEntity
8
A-0
6
CONTINUOUS
62
6
100
AcDbLine
10
384.449257000000
20
149.501180000000
30
0.0
11
397.449257000000
21
149.501180000000
31
0.0
0
LINE
5
70e
100
AcDbEntity
8
A-0
6
CONTINUOUS
62
6
100
AcDbLine
10
425.432203000000
20
149.501180000000
30
0.0
11
438.861186000000
21
149.501180000000
31
0.0
0
LINE
5
70f
100
AcDbEntity
8
A-0
6
CONTINUOUS
62
6
100
AcDbLine
10
459.567871000000
20
149.501180000000
30
0.0
11
472.567871000000
21
149.501180000000
31
0.0
0
LINE
5
710
100
AcDbEntity
8
A-0
6
CONTINUOUS
62
6
100
AcDbLine
10
475.003848000000
20
149.501180000000
30
0.0
11
488.003848000000
21
149.501180000000
31
0.0
0
LINE
5
711
100
AcDbEntity
8
A-0
6
CONTINUOUS
62
6
100
AcDbLine
10
498.003848000000
20
149.501180000000
30
0.0
11
549.595416000000
21
149.501180000000
31
0.0
0
LINE
5
712
100
AcDbEntity
8
A-0
6
CONTINUOUS
62
6
100
AcDbLine
10
563.078890000000
20
149.501180000000
30
0.0
11
576.078890000000
21
149.501180000000
31
0.0
0
LINE
5
713
100
AcDbEntity
8
A-0
6
CONTINUOUS
62
6
100
AcDbLine
10
595.449839000000
20
149.501180000000
30
0.0
11
608.420802000000
21
149.501180000000
31
0.0
0
LINE
5
714
100
AcDbEntity
8
A-0
6
CONTINUOUS
62
6
100
AcDbLine
10
611.866483000000
20
149.501180000000
30
0.0
11
622.866483000000
21
149.501180000000
31
0.0
0
LINE
5
715
100
AcDbEntity
8
A-0
6
CONTINUOUS
62
6
100
AcDbLine
10
320.834530000000
20
151.501180000000
30
0.0
11
369.106124000000
21
151.501180000000
31
0.0
0
LINE
5
716
100
AcDbEntity
8
A-0
6
CONTINUOUS
62
6
100
AcDbLine
10
384.449257000000
20
151.501180000000
30
0.0
11
397.449257000000
21
151.501180000000
31
0.0
0
LINE
5
717
100
AcDbEntity
8
A-0
6
CONTINUOUS
62
6
100
AcDbLine
10
426.301742000000
20
151.501180000000
30
0.0
11
439.333223000000
21
151.501180000000
31
0.0
0
LINE
5
718
100
AcDbEntity
8
A-0
6
CONTINUOUS
62
6
100
AcDbLine
10
458.635256000000
20
151.501180000000
30
0.0
11
471.635256000000
21
151.501180000000
31
0.0
0
LINE
5
719
100
AcDbEntity
8
A-0
6
CONTINUOUS
62
6
100
AcDbLine
10
475.936464000000
20
151.501180000000
30
0.0
11
488.936464000000
21
151.501180000000
31
0.0
0
LINE
5
71a
100
AcDbEntity
8
A-0
6
CONTINUOUS
62
6
100
AcDbLine
10
498.936464000000
20
151.501180000000
30
0.0
11
548.662801000000
21
151.501180000000
31
0.0
0
LINE
5
71b
100
AcDbEntity
8
A-0
6
CONTINUOUS
62
6
100
AcDbLine
10
563.078890000000
20
151.501180000000
30
0.0
11
576.078890000000
21
151.501180000000
31
0.0
0
LINE
5
71c
100
AcDbEntity
8
A-0
6
CONTINUOUS
62
6
100
AcDbLine
10
594.200101000000
20
151.501180000000
30
0.0
11
607.171063000000
21
151.501180000000
31
0.0
0
LINE
5
71d
100
AcDbEntity
8
A-0
6
CONTINUOUS
62
6
100
AcDbLine
10
611.866483000000
20
151.501180000000
30
0.0
11
622.866483000000
21
151.501180000000
31
0.0
0
LINE
5
71e
100
AcDbEntity
8
A-0
6
CONTINUOUS
62
6
100
AcDbLine
10
321.767146000000
20
153.501180000000
30
0.0
11
368.173509000000
21
153.501180000000
31
0.0
0
LINE
5
71f
100
AcDbEntity
8
A-0
6
CONTINUOUS
62
6
100
AcDbLine
10
384.449257000000
20
153.501180000000
30
0.0
11
397.449257000000
21
153.501180000000
31
0.0
0
LINE
5
720
100
AcDbEntity
8
A-0
6
CONTINUOUS
62
6
100
AcDbLine
10
426.844430000000
20
153.501180000000
30
0.0
11
439.718728000000
21
153.501180000000
31
0.0
0
LINE
5
721
100
AcDbEntity
8
A-0
6
CONTINUOUS
62
6
100
AcDbLine
10
457.702640000000
20
153.501180000000
30
0.0
11
470.702640000000
21
153.501180000000
31
0.0
0
LINE
5
722
100
AcDbEntity
8
A-0
6
CONTINUOUS
62
6
100
AcDbLine
10
476.869079000000
20
153.501180000000
30
0.0
11
489.869079000000
21
153.501180000000
31
0.0
0
LINE
5
723
100
AcDbEntity
8
A-0
6
CONTINUOUS
62
6
100
AcDbLine
10
499.869079000000
20
153.501180000000
30
0.0
11
547.730185000000
21
153.501180000000
31
0.0
0
LINE
5
724
100
AcDbEntity
8
A-0
6
CONTINUOUS
62
6
100
AcDbLine
10
563.078890000000
20
153.501180000000
30
0.0
11
576.078890000000
21
153.501180000000
31
0.0
0
LINE
5
725
100
AcDbEntity
8
A-0
6
CONTINUOUS
62
6
100
AcDbLine
10
592.950362000000
20
153.501180000000
30
0.0
11
605.921324000000
21
153.501180000000
31
0.0
0
LINE
5
726
100
AcDbEntity
8
A-0
6
CONTINUOUS
62
6
100
AcDbLine
10
611.866483000000
20
153.501180000000
30
0.0
11
622.866483000000
21
153.501180000000
31
0.0
0
LINE
5
727
100
AcDbEntity
8
A-0
6
CONTINUOUS
62
6
100
AcDbLine
10
322.699761000000
20
155.501180000000
30
0.0
11
367.240893000000
21
155.501180000000
31
0.0
0
LINE
5
728
100
AcDbEntity
8
A-0
6
CONTINUOUS
62
6
100
AcDbLine
10
384.449257000000
20
155.501180000000
30
0.0
11
397.449257000000
21
155.501180000000
31
0.0
0
LINE
5
729
100
AcDbEntity
8
A-0
6
CONTINUOUS
62
6
100
AcDbLine
10
427.174191000000
20
155.501180000000
30
0.0
11
440.021851000000
21
155.501180000000
31
0.0
0
LINE
5
72a
100
AcDbEntity
8
A-0
6
CONTINUOUS
62
6
100
AcDbLine
10
456.770025000000
20
155.501180000000
30
0.0
11
469.770025000000
21
155.501180000000
31
0.0
0
LINE
5
72b
100
AcDbEntity
8
A-0
6
CONTINUOUS
62
6
100
AcDbLine
10
477.801694000000
20
155.501180000000
30
0.0
11
490.801694000000
21
155.501180000000
31
0.0
0
LINE
5
72c
100
AcDbEntity
8
A-0
6
CONTINUOUS
62
6
100
AcDbLine
10
500.801694000000
20
155.501180000000
30
0.0
11
546.797570000000
21
155.501180000000
31
0.0
0
LINE
5
72d
100
AcDbEntity
8
A-0
6
CONTINUOUS
62
6
100
AcDbLine
10
563.078890000000
20
155.501180000000
30
0.0
11
576.078890000000
21
155.501180000000
31
0.0
0
LINE
5
72e
100
AcDbEntity
8
A-0
6
CONTINUOUS
62
6
100
AcDbLine
10
591.700623000000
20
155.501180000000
30
0.0
11
604.671586000000
21
155.501180000000
31
0.0
0
LINE
5
72f
100
AcDbEntity
8
A-0
6
CONTINUOUS
62
6
100
AcDbLine
10
611.866483000000
20
155.501180000000
30
0.0
11
622.866483000000
21
155.501180000000
31
0.0
0
LINE
5
730
100
AcDbEntity
8
A-0
6
CONTINUOUS
62
6
100
AcDbLine
10
323.632376000000
20
157.501180000000
30
0.0
11
336.632376000000
21
157.501180000000
31
0.0
0
LINE
5
731
100
AcDbEntity
8
A-0
6
CONTINUOUS
62
6
100
AcDbLine
10
353.308278000000
20
157.501180000000
30
0.0
11
366.308278000000
21
157.501180000000
31
0.0
0
LINE
5
732
100
AcDbEntity
8
A-0
6
CONTINUOUS
62
6
100
AcDbLine
10
384.449257000000
20
157.501180000000
30
0.0
11
397.449257000000
21
157.501180000000
31
0.0
0
LINE
5
733
100
AcDbEntity
8
A-0
6
CONTINUOUS
62
6
100
AcDbLine
10
427.343268000000
20
157.501180000000
30
0.0
11
440.243350000000
21
157.501180000000
31
0.0
0
LINE
5
734
100
AcDbEntity
8
A-0
6
CONTINUOUS
62
6
100
AcDbLine
10
455.837410000000
20
157.501180000000
30
0.0
11
468.837410000000
21
157.501180000000
31
0.0
0
LINE
5
735
100
AcDbEntity
8
A-0
6
CONTINUOUS
62
6
100
AcDbLine
10
478.734310000000
20
157.501180000000
30
0.0
11
491.734310000000
21
157.501180000000
31
0.0
0
LINE
5
736
100
AcDbEntity
8
A-0
6
CONTINUOUS
62
6
100
AcDbLine
10
501.734310000000
20
157.501180000000
30
0.0
11
514.734310000000
21
157.501180000000
31
0.0
0
LINE
5
737
100
AcDbEntity
8
A-0
6
CONTINUOUS
62
6
100
AcDbLine
10
532.864955000000
20
157.501180000000
30
0.0
11
545.864955000000
21
157.501180000000
31
0.0
0
LINE
5
738
100
AcDbEntity
8
A-0
6
CONTINUOUS
62
6
100
AcDbLine
10
563.078890000000
20
157.501180000000
30
0.0
11
576.078890000000
21
157.501180000000
31
0.0
0
LINE
5
739
100
AcDbEntity
8
A-0
6
CONTINUOUS
62
6
100
AcDbLine
10
590.450885000000
20
157.501180000000
30
0.0
11
603.421847000000
21
157.501180000000
31
0.0
0
LINE
5
73a
100
AcDbEntity
8
A-0
6
CONTINUOUS
62
6
100
AcDbLine
10
611.866483000000
20
157.501180000000
30
0.0
11
622.866483000000
21
157.501180000000
31
0.0
0
LINE
5
73b
100
AcDbEntity
8
A-0
6
CONTINUOUS
62
6
100
AcDbLine
10
324.564992000000
20
159.501180000000
30
0.0
11
337.564992000000
21
159.501180000000
31
0.0
0
LINE
5
73c
100
AcDbEntity
8
A-0
6
CONTINUOUS
62
6
100
AcDbLine
10
352.375663000000
20
159.501180000000
30
0.0
11
365.375663000000
21
159.501180000000
31
0.0
0
LINE
5
73d
100
AcDbEntity
8
A-0
6
CONTINUOUS
62
6
100
AcDbLine
10
384.449257000000
20
159.501180000000
30
0.0
11
397.449257000000
21
159.501180000000
31
0.0
0
LINE
5
73e
100
AcDbEntity
8
A-0
6
CONTINUOUS
62
6
100
AcDbLine
10
427.418456000000
20
159.501180000000
30
0.0
11
440.381589000000
21
159.501180000000
31
0.0
0
LINE
5
73f
100
AcDbEntity
8
A-0
6
CONTINUOUS
62
6
100
AcDbLine
10
454.904794000000
20
159.501180000000
30
0.0
11
467.904794000000
21
159.501180000000
31
0.0
0
LINE
5
740
100
AcDbEntity
8
A-0
6
CONTINUOUS
62
6
100
AcDbLine
10
479.666925000000
20
159.501180000000
30
0.0
11
492.666925000000
21
159.501180000000
31
0.0
0
LINE
5
741
100
AcDbEntity
8
A-0
6
CONTINUOUS
62
6
100
AcDbLine
10
502.666925000000
20
159.501180000000
30
0.0
11
515.666925000000
21
159.501180000000
31
0.0
0
LINE
5
742
100
AcDbEntity
8
A-0
6
CONTINUOUS
62
6
100
AcDbLine
10
531.932339000000
20
159.501180000000
30
0.0
11
544.932339000000
21
159.501180000000
31
0.0
0
LINE
5
743
100
AcDbEntity
8
A-0
6
CONTINUOUS
62
6
100
AcDbLine
10
563.078890000000
20
159.501180000000
30
0.0
11
576.078890000000
21
159.501180000000
31
0.0
0
LINE
5
744
100
AcDbEntity
8
A-0
6
CONTINUOUS
62
6
100
AcDbLine
10
589.201146000000
20
159.501180000000
30
0.0
11
602.172108000000
21
159.501180000000
31
0.0
0
LINE
5
745
100
AcDbEntity
8
A-0
6
CONTINUOUS
62
6
100
AcDbLine
10
611.866483000000
20
159.501180000000
30
0.0
11
622.866483000000
21
159.501180000000
31
0.0
0
LINE
5
746
100
AcDbEntity
8
A-0
6
CONTINUOUS
62
6
100
AcDbLine
10
325.497607000000
20
161.501180000000
30
0.0
11
338.497607000000
21
161.501180000000
31
0.0
0
LINE
5
747
100
AcDbEntity
8
A-0
6
CONTINUOUS
62
6
100
AcDbLine
10
351.443047000000
20
161.501180000000
30
0.0
11
364.443047000000
21
161.501180000000
31
0.0
0
LINE
5
748
100
AcDbEntity
8
A-0
6
CONTINUOUS
62
6
100
AcDbLine
10
384.449257000000
20
161.501180000000
30
0.0
11
397.449257000000
21
161.501180000000
31
0.0
0
LINE
5
749
100
AcDbEntity
8
A-0
6
CONTINUOUS
62
6
100
AcDbLine
10
427.448062000000
20
161.501180000000
30
0.0
11
440.446018000000
21
161.501180000000
31
0.0
0
LINE
5
74a
100
AcDbEntity
8
A-0
6
CONTINUOUS
62
6
100
AcDbLine
10
453.972179000000
20
161.501180000000
30
0.0
11
466.972179000000
21
161.501180000000
31
0.0
0
LINE
5
74b
100
AcDbEntity
8
A-0
6
CONTINUOUS
62
6
100
AcDbLine
10
480.599540000000
20
161.501180000000
30
0.0
11
493.599540000000
21
161.501180000000
31
0.0
0
LINE
5
74c
100
AcDbEntity
8
A-0
6
CONTINUOUS
62
6
100
AcDbLine
10
503.599540000000
20
161.501180000000
30
0.0
11
516.599540000000
21
161.501180000000
31
0.0
0
LINE
5
74d
100
AcDbEntity
8
A-0
6
CONTINUOUS
62
6
100
AcDbLine
10
530.999724000000
20
161.501180000000
30
0.0
11
543.999724000000
21
161.501180000000
31
0.0
0
LINE
5
74e
100
AcDbEntity
8
A-0
6
CONTINUOUS
62
6
100
AcDbLine
10
563.078890000000
20
161.501180000000
30
0.0
11
576.078890000000
21
161.501180000000
31
0.0
0
LINE
5
74f
100
AcDbEntity
8
A-0
6
CONTINUOUS
62
6
100
AcDbLine
10
587.951407000000
20
161.501180000000
30
0.0
11
600.922370000000
21
161.501180000000
31
0.0
0
LINE
5
750
100
AcDbEntity
8
A-0
6
CONTINUOUS
62
6
100
AcDbLine
10
611.866483000000
20
161.501180000000
30
0.0
11
622.866483000000
21
161.501180000000
31
0.0
0
LINE
5
751
100
AcDbEntity
8
A-0
6
CONTINUOUS
62
6
100
AcDbLine
10
326.430222000000
20
163.501180000000
30
0.0
11
339.430222000000
21
163.501180000000
31
0.0
0
LINE
5
752
100
AcDbEntity
8
A-0
6
CONTINUOUS
62
6
100
AcDbLine
10
350.510432000000
20
163.501180000000
30
0.0
11
363.510432000000
21
163.501180000000
31
0.0
0
LINE
5
753
100
AcDbEntity
8
A-0
6
CONTINUOUS
62
6
100
AcDbLine
10
384.449257000000
20
163.501180000000
30
0.0
11
397.449257000000
21
163.501180000000
31
0.0
0
LINE
5
754
100
AcDbEntity
8
A-0
6
CONTINUOUS
62
6
100
AcDbLine
10
427.431957000000
20
163.501180000000
30
0.0
11
440.405432000000
21
163.501180000000
31
0.0
0
LINE
5
755
100
AcDbEntity
8
A-0
6
CONTINUOUS
62
6
100
AcDbLine
10
453.039564000000
20
163.501180000000
30
0.0
11
466.039564000000
21
163.501180000000
31
0.0
0
LINE
5
756
100
AcDbEntity
8
A-0
6
CONTINUOUS
62
6
100
AcDbLine
10
481.532156000000
20
163.501180000000
30
0.0
11
494.532156000000
21
163.501180000000
31
0.0
0
LINE
5
757
100
AcDbEntity
8
A-0
6
CONTINUOUS
62
6
100
AcDbLine
10
504.532156000000
20
163.501180000000
30
0.0
11
517.532156000000
21
163.501180000000
31
0.0
0
LINE
5
758
100
AcDbEntity
8
A-0
6
CONTINUOUS
62
6
100
AcDbLine
10
530.067109000000
20
163.501180000000
30
0.0
11
543.067109000000
21
163.501180000000
31
0.0
0
LINE
5
759
100
AcDbEntity
8
A-0
6
CONTINUOUS
62
6
100
AcDbLine
10
563.078890000000
20
163.501180000000
30
0.0
11
576.078890000000
21
163.501180000000
31
0.0
0
LINE
5
75a
100
AcDbEntity
8
A-0
6
CONTINUOUS
62
6
100
AcDbLine
10
586.701668000000
20
163.501180000000
30
0.0
11
599.672631000000
21
163.501180000000
31
0.0
0
LINE
5
75b
100
AcDbEntity
8
A-0
6
CONTINUOUS
62
6
100
AcDbLine
10
611.866483000000
20
163.501180000000
30
0.0
11
622.866483000000
21
163.501180000000
31
0.0
0
LINE
5
75c
100
AcDbEntity
8
A-0
6
CONTINUOUS
62
6
100
AcDbLine
10
327.362837000000
20
165.501180000000
30
0.0
11
340.362837000000
21
165.501180000000
31
0.0
0
LINE
5
75d
100
AcDbEntity
8
A-0
6
CONTINUOUS
62
6
100
AcDbLine
10
349.577817000000
20
165.501180000000
30
0.0
11
362.577817000000
21
165.501180000000
31
0.0
0
LINE
5
75e
100
AcDbEntity
8
A-0
6
CONTINUOUS
62
6
100
AcDbLine
10
384.449257000000
20
165.501180000000
30
0.0
11
397.449257000000
21
165.501180000000
31
0.0
0
LINE
5
75f
100
AcDbEntity
8
A-0
6
CONTINUOUS
62
6
100
AcDbLine
10
427.371782000000
20
165.501180000000
30
0.0
11
440.288630000000
21
165.501180000000
31
0.0
0
LINE
5
760
100
AcDbEntity
8
A-0
6
CONTINUOUS
62
6
100
AcDbLine
10
452.106948000000
20
165.501180000000
30
0.0
11
465.106948000000
21
165.501180000000
31
0.0
0
LINE
5
761
100
AcDbEntity
8
A-0
6
CONTINUOUS
62
6
100
AcDbLine
10
482.464771000000
20
165.501180000000
30
0.0
11
495.464771000000
21
165.501180000000
31
0.0
0
LINE
5
762
100
AcDbEntity
8
A-0
6
CONTINUOUS
62
6
100
AcDbLine
10
505.464771000000
20
165.501180000000
30
0.0
11
518.464771000000
21
165.501180000000
31
0.0
0
LINE
5
763
100
AcDbEntity
8
A-0
6
CONTINUOUS
62
6
100
AcDbLine
10
529.134494000000
20
165.501180000000
30
0.0
11
542.134494000000
21
165.501180000000
31
0.0
0
LINE
5
764
100
AcDbEntity
8
A-0
6
CONTINUOUS
62
6
100
AcDbLine
10
563.078890000000
20
165.501180000000
30
0.0
11
576.078890000000
21
165.501180000000
31
0.0
0
LINE
5
765
100
AcDbEntity
8
A-0
6
CONTINUOUS
62
6
100
AcDbLine
10
585.451930000000
20
165.501180000000
30
0.0
11
598.422892000000
21
165.501180000000
31
0.0
0
LINE
5
766
100
AcDbEntity
8
A-0
6
CONTINUOUS
62
6
100
AcDbLine
10
611.866483000000
20
165.501180000000
30
0.0
11
622.866483000000
21
165.501180000000
31
0.0
0
LINE
5
767
100
AcDbEntity
8
A-0
6
CONTINUOUS
62
6
100
AcDbLine
10
328.295453000000
20
167.501180000000
30
0.0
11
341.295453000000
21
167.501180000000
31
0.0
0
LINE
5
768
100
AcDbEntity
8
A-0
6
CONTINUOUS
62
6
100
AcDbLine
10
348.645201000000
20
167.501180000000
30
0.0
11
361.645201000000
21
167.501180000000
31
0.0
0
LINE
5
769
100
AcDbEntity
8
A-0
6
CONTINUOUS
62
6
100
AcDbLine
10
384.449257000000
20
167.501180000000
30
0.0
11
397.449257000000
21
167.501180000000
31
0.0
0
LINE
5
76a
100
AcDbEntity
8
A-0
6
CONTINUOUS
62
6
100
AcDbLine
10
427.212125000000
20
167.501180000000
30
0.0
11
440.086811000000
21
167.501180000000
31
0.0
0
LINE
5
76b
100
AcDbEntity
8
A-0
6
CONTINUOUS
62
6
100
AcDbLine
10
451.174333000000
20
167.501180000000
30
0.0
11
464.174333000000
21
167.501180000000
31
0.0
0
LINE
5
76c
100
AcDbEntity
8
A-0
6
CONTINUOUS
62
6
100
AcDbLine
10
483.397386000000
20
167.501180000000
30
0.0
11
496.397386000000
21
167.501180000000
31
0.0
0
LINE
5
76d
100
AcDbEntity
8
A-0
6
CONTINUOUS
62
6
100
AcDbLine
10
506.397386000000
20
167.501180000000
30
0.0
11
519.397386000000
21
167.501180000000
31
0.0
0
LINE
5
76e
100
AcDbEntity
8
A-0
6
CONTINUOUS
62
6
100
AcDbLine
10
528.201878000000
20
167.501180000000
30
0.0
11
541.201878000000
21
167.501180000000
31
0.0
0
LINE
5
76f
100
AcDbEntity
8
A-0
6
CONTINUOUS
62
6
100
AcDbLine
10
563.078890000000
20
167.501180000000
30
0.0
11
576.078890000000
21
167.501180000000
31
0.0
0
LINE
5
770
100
AcDbEntity
8
A-0
6
CONTINUOUS
62
6
100
AcDbLine
10
584.202191000000
20
167.501180000000
30
0.0
11
597.173154000000
21
167.501180000000
31
0.0
0
LINE
5
771
100
AcDbEntity
8
A-0
6
CONTINUOUS
62
6
100
AcDbLine
10
611.866483000000
20
167.501180000000
30
0.0
11
622.866483000000
21
167.501180000000
31
0.0
0
LINE
5
772
100
AcDbEntity
8
A-0
6
CONTINUOUS
62
6
100
AcDbLine
10
329.228068000000
20
169.501180000000
30
0.0
11
342.228068000000
21
169.501180000000
31
0.0
0
LINE
5
773
100
AcDbEntity
8
A-0
6
CONTINUOUS
62
6
100
AcDbLine
10
347.712586000000
20
169.501180000000
30
0.0
11
360.712586000000
21
169.501180000000
31
0.0
0
LINE
5
774
100
AcDbEntity
8
A-0
6
CONTINUOUS
62
6
100
AcDbLine
10
384.449257000000
20
169.501180000000
30
0.0
11
397.449257000000
21
169.501180000000
31
0.0
0
LINE
5
775
100
AcDbEntity
8
A-0
6
CONTINUOUS
62
6
100
AcDbLine
10
426.921209000000
20
169.501180000000
30
0.0
11
439.793187000000
21
169.501180000000
31
0.0
0
LINE
5
776
100
AcDbEntity
8
A-0
6
CONTINUOUS
62
6
100
AcDbLine
10
450.241718000000
20
169.501180000000
30
0.0
11
463.241718000000
21
169.501180000000
31
0.0
0
LINE
5
777
100
AcDbEntity
8
A-0
6
CONTINUOUS
62
6
100
AcDbLine
10
484.330002000000
20
169.501180000000
30
0.0
11
497.330002000000
21
169.501180000000
31
0.0
0
LINE
5
778
100
AcDbEntity
8
A-0
6
CONTINUOUS
62
6
100
AcDbLine
10
507.330002000000
20
169.501180000000
30
0.0
11
520.330002000000
21
169.501180000000
31
0.0
0
LINE
5
779
100
AcDbEntity
8
A-0
6
CONTINUOUS
62
6
100
AcDbLine
10
527.269263000000
20
169.501180000000
30
0.0
11
540.269263000000
21
169.501180000000
31
0.0
0
LINE
5
77a
100
AcDbEntity
8
A-0
6
CONTINUOUS
62
6
100
AcDbLine
10
563.078890000000
20
169.501180000000
30
0.0
11
576.078890000000
21
169.501180000000
31
0.0
0
LINE
5
77b
100
AcDbEntity
8
A-0
6
CONTINUOUS
62
6
100
AcDbLine
10
582.952452000000
20
169.501180000000
30
0.0
11
595.923415000000
21
169.501180000000
31
0.0
0
LINE
5
77c
100
AcDbEntity
8
A-0
6
CONTINUOUS
62
6
100
AcDbLine
10
611.866483000000
20
169.501180000000
30
0.0
11
622.866483000000
21
169.501180000000
31
0.0
0
LINE
5
77d
100
AcDbEntity
8
A-0
6
CONTINUOUS
62
6
100
AcDbLine
10
330.160683000000
20
171.501180000000
30
0.0
11
343.160683000000
21
171.501180000000
31
0.0
0
LINE
5
77e
100
AcDbEntity
8
A-0
6
CONTINUOUS
62
6
100
AcDbLine
10
346.779971000000
20
171.501180000000
30
0.0
11
359.779971000000
21
171.501180000000
31
0.0
0
LINE
5
77f
100
AcDbEntity
8
A-0
6
CONTINUOUS
62
6
100
AcDbLine
10
384.449257000000
20
171.501180000000
30
0.0
11
397.449257000000
21
171.501180000000
31
0.0
0
LINE
5
780
100
AcDbEntity
8
A-0
6
CONTINUOUS
62
6
100
AcDbLine
10
426.436506000000
20
171.501180000000
30
0.0
11
439.419715000000
21
171.501180000000
31
0.0
0
LINE
5
781
100
AcDbEntity
8
A-0
6
CONTINUOUS
62
6
100
AcDbLine
10
449.309102000000
20
171.501180000000
30
0.0
11
462.309102000000
21
171.501180000000
31
0.0
0
LINE
5
782
100
AcDbEntity
8
A-0
6
CONTINUOUS
62
6
100
AcDbLine
10
485.262617000000
20
171.501180000000
30
0.0
11
498.262617000000
21
171.501180000000
31
0.0
0
LINE
5
783
100
AcDbEntity
8
A-0
6
CONTINUOUS
62
6
100
AcDbLine
10
508.262617000000
20
171.501180000000
30
0.0
11
521.262617000000
21
171.501180000000
31
0.0
0
LINE
5
784
100
AcDbEntity
8
A-0
6
CONTINUOUS
62
6
100
AcDbLine
10
526.336648000000
20
171.501180000000
30
0.0
11
539.336648000000
21
171.501180000000
31
0.0
0
LINE
5
785
100
AcDbEntity
8
A-0
6
CONTINUOUS
62
6
100
AcDbLine
10
563.078890000000
20
171.501180000000
30
0.0
11
576.078890000000
21
171.501180000000
31
0.0
0
LINE
5
786
100
AcDbEntity
8
A-0
6
CONTINUOUS
62
6
100
AcDbLine
10
581.702714000000
20
171.501180000000
30
0.0
11
594.673676000000
21
171.501180000000
31
0.0
0
LINE
5
787
100
AcDbEntity
8
A-0
6
CONTINUOUS
62
6
100
AcDbLine
10
611.866483000000
20
171.501180000000
30
0.0
11
622.866483000000
21
171.501180000000
31
0.0
0
LINE
5
788
100
AcDbEntity
8
A-0
6
CONTINUOUS
62
6
100
AcDbLine
10
331.093299000000
20
173.501180000000
30
0.0
11
344.093299000000
21
173.501180000000
31
0.0
0
LINE
5
789
100
AcDbEntity
8
A-0
6
CONTINUOUS
62
6
100
AcDbLine
10
345.847355000000
20
173.501180000000
30
0.0
11
358.847355000000
21
173.501180000000
31
0.0
0
LINE
5
78a
100
AcDbEntity
8
A-0
6
CONTINUOUS
62
6
100
AcDbLine
10
384.449257000000
20
173.501180000000
30
0.0
11
397.449257000000
21
173.501180000000
31
0.0
0
LINE
5
78b
100
AcDbEntity
8
A-0
6
CONTINUOUS
62
6
100
AcDbLine
10
425.652788000000
20
173.501180000000
30
0.0
11
438.967571000000
21
173.501180000000
31
0.0
0
LINE
5
78c
100
AcDbEntity
8
A-0
6
CONTINUOUS
62
6
100
AcDbLine
10
448.376487000000
20
173.501180000000
30
0.0
11
461.376487000000
21
173.501180000000
31
0.0
0
LINE
5
78d
100
AcDbEntity
8
A-0
6
CONTINUOUS
62
6
100
AcDbLine
10
486.195232000000
20
173.501180000000
30
0.0
11
499.195232000000
21
173.501180000000
31
0.0
0
LINE
5
78e
100
AcDbEntity
8
A-0
6
CONTINUOUS
62
6
100
AcDbLine
10
509.195232000000
20
173.501180000000
30
0.0
11
522.195232000000
21
173.501180000000
31
0.0
0
LINE
5
78f
100
AcDbEntity
8
A-0
6
CONTINUOUS
62
6
100
AcDbLine
10
525.404032000000
20
173.501180000000
30
0.0
11
538.404032000000
21
173.501180000000
31
0.0
0
LINE
5
790
100
AcDbEntity
8
A-0
6
CONTINUOUS
62
6
100
AcDbLine
10
563.078890000000
20
173.501180000000
30
0.0
11
576.078890000000
21
173.501180000000
31
0.0
0
LINE
5
791
100
AcDbEntity
8
A-0
6
CONTINUOUS
62
6
100
AcDbLine
10
580.452975000000
20
173.501180000000
30
0.0
11
593.423937000000
21
173.501180000000
31
0.0
0
LINE
5
792
100
AcDbEntity
8
A-0
6
CONTINUOUS
62
6
100
AcDbLine
10
611.866483000000
20
173.501180000000
30
0.0
11
622.866483000000
21
173.501180000000
31
0.0
0
LINE
5
793
100
AcDbEntity
8
A-0
6
CONTINUOUS
62
6
100
AcDbLine
10
332.025914000000
20
175.501180000000
30
0.0
11
357.914740000000
21
175.501180000000
31
0.0
0
LINE
5
794
100
AcDbEntity
8
A-0
6
CONTINUOUS
62
6
100
AcDbLine
10
384.449257000000
20
175.501180000000
30
0.0
11
397.449257000000
21
175.501180000000
31
0.0
0
LINE
5
795
100
AcDbEntity
8
A-0
6
CONTINUOUS
62
6
100
AcDbLine
10
424.449257000000
20
175.501180000000
30
0.0
11
438.449257000000
21
175.501180000000
31
0.0
0
LINE
5
796
100
AcDbEntity
8
A-0
6
CONTINUOUS
62
6
100
AcDbLine
10
447.443872000000
20
175.501180000000
30
0.0
11
460.443872000000
21
175.501180000000
31
0.0
0
LINE
5
797
100
AcDbEntity
8
A-0
6
CONTINUOUS
62
6
100
AcDbLine
10
487.127848000000
20
175.501180000000
30
0.0
11
500.127848000000
21
175.501180000000
31
0.0
0
LINE
5
798
100
AcDbEntity
8
A-0
6
CONTINUOUS
62
6
100
AcDbLine
10
510.127848000000
20
175.501180000000
30
0.0
11
523.127848000000
21
175.501180000000
31
0.0
0
LINE
5
799
100
AcDbEntity
8
A-0
6
CONTINUOUS
62
6
100
AcDbLine
10
524.471417000000
20
175.501180000000
30
0.0
11
537.471417000000
21
175.501180000000
31
0.0
0
LINE
5
79a
100
AcDbEntity
8
A-0
6
CONTINUOUS
62
6
100
AcDbLine
10
563.078890000000
20
175.501180000000
30
0.0
11
576.078890000000
21
175.501180000000
31
0.0
0
LINE
5
79b
100
AcDbEntity
8
A-0
6
CONTINUOUS
62
6
100
AcDbLine
10
579.203236000000
20
175.501180000000
30
0.0
11
592.174199000000
21
175.501180000000
31
0.0
0
LINE
5
79c
100
AcDbEntity
8
A-0
6
CONTINUOUS
62
6
100
AcDbLine
10
611.866483000000
20
175.501180000000
30
0.0
11
622.866483000000
21
175.501180000000
31
0.0
0
LINE
5
79d
100
AcDbEntity
8
A-0
6
CONTINUOUS
62
6
100
AcDbLine
10
332.958529000000
20
177.501180000000
30
0.0
11
356.982125000000
21
177.501180000000
31
0.0
0
LINE
5
79e
100
AcDbEntity
8
A-0
6
CONTINUOUS
62
6
100
AcDbLine
10
384.449257000000
20
177.501180000000
30
0.0
11
397.449257000000
21
177.501180000000
31
0.0
0
LINE
5
79f
100
AcDbEntity
8
A-0
6
CONTINUOUS
62
6
100
AcDbLine
10
422.324757000000
20
177.501180000000
30
0.0
11
437.821243000000
21
177.501180000000
31
0.0
0
LINE
5
7a0
100
AcDbEntity
8
A-0
6
CONTINUOUS
62
6
100
AcDbLine
10
446.511256000000
20
177.501180000000
30
0.0
11
459.511256000000
21
177.501180000000
31
0.0
0
LINE
5
7a1
100
AcDbEntity
8
A-0
6
CONTINUOUS
62
6
100
AcDbLine
10
488.060463000000
20
177.501180000000
30
0.0
11
501.060463000000
21
177.501180000000
31
0.0
0
LINE
5
7a2
100
AcDbEntity
8
A-0
6
CONTINUOUS
62
6
100
AcDbLine
10
511.060463000000
20
177.501180000000
30
0.0
11
536.538802000000
21
177.501180000000
31
0.0
0
LINE
5
7a3
100
AcDbEntity
8
A-0
6
CONTINUOUS
62
6
100
AcDbLine
10
563.078890000000
20
177.501180000000
30
0.0
11
576.078890000000
21
177.501180000000
31
0.0
0
LINE
5
7a4
100
AcDbEntity
8
A-0
6
CONTINUOUS
62
6
100
AcDbLine
10
577.953498000000
20
177.501180000000
30
0.0
11
590.924460000000
21
177.501180000000
31
0.0
0
LINE
5
7a5
100
AcDbEntity
8
A-0
6
CONTINUOUS
62
6
100
AcDbLine
10
611.866483000000
20
177.501180000000
30
0.0
11
622.866483000000
21
177.501180000000
31
0.0
0
LINE
5
7a6
100
AcDbEntity
8
A-0
6
CONTINUOUS
62
6
100
AcDbLine
10
333.891145000000
20
179.501180000000
30
0.0
11
356.049510000000
21
179.501180000000
31
0.0
0
LINE
5
7a7
100
AcDbEntity
8
A-0
6
CONTINUOUS
62
6
100
AcDbLine
10
384.449257000000
20
179.501180000000
30
0.0
11
397.449257000000
21
179.501180000000
31
0.0
0
LINE
5
7a8
100
AcDbEntity
8
A-0
6
CONTINUOUS
62
6
100
AcDbLine
10
419.245912000000
20
179.501180000000
30
0.0
11
436.990627000000
21
179.501180000000
31
0.0
0
LINE
5
7a9
100
AcDbEntity
8
A-0
6
CONTINUOUS
62
6
100
AcDbLine
10
445.578641000000
20
179.501180000000
30
0.0
11
458.578641000000
21
179.501180000000
31
0.0
0
LINE
5
7aa
100
AcDbEntity
8
A-0
6
CONTINUOUS
62
6
100
AcDbLine
10
488.993078000000
20
179.501180000000
30
0.0
11
501.993078000000
21
179.501180000000
31
0.0
0
LINE
5
7ab
100
AcDbEntity
8
A-0
6
CONTINUOUS
62
6
100
AcDbLine
10
511.993078000000
20
179.501180000000
30
0.0
11
535.606186000000
21
179.501180000000
31
0.0
0
LINE
5
7ac
100
AcDbEntity
8
A-0
6
CONTINUOUS
62
6
100
AcDbLine
10
563.078890000000
20
179.501180000000
30
0.0
11
576.078890000000
21
179.501180000000
31
0.0
0
LINE
5
7ad
100
AcDbEntity
8
A-0
6
CONTINUOUS
62
6
100
AcDbLine
10
576.703759000000
20
179.501180000000
30
0.0
11
589.674721000000
21
179.501180000000
31
0.0
0
LINE
5
7ae
100
AcDbEntity
8
A-0
6
CONTINUOUS
62
6
100
AcDbLine
10
611.866483000000
20
179.501180000000
30
0.0
11
622.866483000000
21
179.501180000000
31
0.0
0
LINE
5
7af
100
AcDbEntity
8
A-0
6
CONTINUOUS
62
6
100
AcDbLine
10
334.823760000000
20
181.501180000000
30
0.0
11
355.116894000000
21
181.501180000000
31
0.0
0
LINE
5
7b0
100
AcDbEntity
8
A-0
6
CONTINUOUS
62
6
100
AcDbLine
10
384.449257000000
20
181.501180000000
30
0.0
11
435.759816000000
21
181.501180000000
31
0.0
0
LINE
5
7b1
100
AcDbEntity
8
A-0
6
CONTINUOUS
62
6
100
AcDbLine
10
444.646026000000
20
181.501180000000
30
0.0
11
457.646026000000
21
181.501180000000
31
0.0
0
LINE
5
7b2
100
AcDbEntity
8
A-0
6
CONTINUOUS
62
6
100
AcDbLine
10
489.925694000000
20
181.501180000000
30
0.0
11
502.925694000000
21
181.501180000000
31
0.0
0
LINE
5
7b3
100
AcDbEntity
8
A-0
6
CONTINUOUS
62
6
100
AcDbLine
10
512.925694000000
20
181.501180000000
30
0.0
11
534.673571000000
21
181.501180000000
31
0.0
0
LINE
5
7b4
100
AcDbEntity
8
A-0
6
CONTINUOUS
62
6
100
AcDbLine
10
563.078890000000
20
181.501180000000
30
0.0
11
588.424983000000
21
181.501180000000
31
0.0
0
LINE
5
7b5
100
AcDbEntity
8
A-0
6
CONTINUOUS
62
6
100
AcDbLine
10
611.866483000000
20
181.501180000000
30
0.0
11
622.866483000000
21
181.501180000000
31
0.0
0
LINE
5
7b6
100
AcDbEntity
8
A-0
6
CONTINUOUS
62
6
100
AcDbLine
10
335.756375000000
20
183.501180000000
30
0.0
11
354.184279000000
21
183.501180000000
31
0.0
0
LINE
5
7b7
100
AcDbEntity
8
A-0
6
CONTINUOUS
62
6
100
AcDbLine
10
384.449257000000
20
183.501180000000
30
0.0
11
433.868205000000
21
183.501180000000
31
0.0
0
LINE
5
7b8
100
AcDbEntity
8
A-0
6
CONTINUOUS
62
6
100
AcDbLine
10
443.713410000000
20
183.501180000000
30
0.0
11
456.713410000000
21
183.501180000000
31
0.0
0
LINE
5
7b9
100
AcDbEntity
8
A-0
6
CONTINUOUS
62
6
100
AcDbLine
10
490.858309000000
20
183.501180000000
30
0.0
11
503.858309000000
21
183.501180000000
31
0.0
0
LINE
5
7ba
100
AcDbEntity
8
A-0
6
CONTINUOUS
62
6
100
AcDbLine
10
513.858309000000
20
183.501180000000
30
0.0
11
533.740956000000
21
183.501180000000
31
0.0
0
LINE
5
7bb
100
AcDbEntity
8
A-0
6
CONTINUOUS
62
6
100
AcDbLine
10
563.078890000000
20
183.501180000000
30
0.0
11
587.175244000000
21
183.501180000000
31
0.0
0
LINE
5
7bc
100
AcDbEntity
8
A-0
6
CONTINUOUS
62
6
100
AcDbLine
10
611.866483000000
20
183.501180000000
30
0.0
11
622.866483000000
21
183.501180000000
31
0.0
0
LINE
5
7bd
100
AcDbEntity
8
A-0
6
CONTINUOUS
62
6
100
AcDbLine
10
336.688991000000
20
185.501180000000
30
0.0
11
353.251664000000
21
185.501180000000
31
0.0
0
LINE
5
7be
100
AcDbEntity
8
A-0
6
CONTINUOUS
62
6
100
AcDbLine
10
384.449257000000
20
185.501180000000
30
0.0
11
431.090546000000
21
185.501180000000
31
0.0
0
LINE
5
7bf
100
AcDbEntity
8
A-0
6
CONTINUOUS
62
6
100
AcDbLine
10
442.780795000000
20
185.501180000000
30
0.0
11
455.780795000000
21
185.501180000000
31
0.0
0
LINE
5
7c0
100
AcDbEntity
8
A-0
6
CONTINUOUS
62
6
100
AcDbLine
10
491.790924000000
20
185.501180000000
30
0.0
11
504.790924000000
21
185.501180000000
31
0.0
0
LINE
5
7c1
100
AcDbEntity
8
A-0
6
CONTINUOUS
62
6
100
AcDbLine
10
514.790924000000
20
185.501180000000
30
0.0
11
532.808340000000
21
185.501180000000
31
0.0
0
LINE
5
7c2
100
AcDbEntity
8
A-0
6
CONTINUOUS
62
6
100
AcDbLine
10
563.078890000000
20
185.501180000000
30
0.0
11
585.925505000000
21
185.501180000000
31
0.0
0
LINE
5
7c3
100
AcDbEntity
8
A-0
6
CONTINUOUS
62
6
100
AcDbLine
10
611.866483000000
20
185.501180000000
30
0.0
11
622.866483000000
21
185.501180000000
31
0.0
0
LINE
5
7c4
100
AcDbEntity
8
A-0
6
CONTINUOUS
62
6
100
AcDbLine
10
337.621606000000
20
187.501180000000
30
0.0
11
352.319048000000
21
187.501180000000
31
0.0
0
LINE
5
7c5
100
AcDbEntity
8
A-0
6
CONTINUOUS
62
6
100
AcDbLine
10
384.449257000000
20
187.501180000000
30
0.0
11
427.079887000000
21
187.501180000000
31
0.0
0
LINE
5
7c6
100
AcDbEntity
8
A-0
6
CONTINUOUS
62
6
100
AcDbLine
10
441.848180000000
20
187.501180000000
30
0.0
11
454.848180000000
21
187.501180000000
31
0.0
0
LINE
5
7c7
100
AcDbEntity
8
A-0
6
CONTINUOUS
62
6
100
AcDbLine
10
492.723540000000
20
187.501180000000
30
0.0
11
505.723540000000
21
187.501180000000
31
0.0
0
LINE
5
7c8
100
AcDbEntity
8
A-0
6
CONTINUOUS
62
6
100
AcDbLine
10
515.723540000000
20
187.501180000000
30
0.0
11
531.875725000000
21
187.501180000000
31
0.0
0
LINE
5
7c9
100
AcDbEntity
8
A-0
6
CONTINUOUS
62
6
100
AcDbLine
10
563.078890000000
20
187.501180000000
30
0.0
11
584.675766000000
21
187.501180000000
31
0.0
0
LINE
5
7ca
100
AcDbEntity
8
A-0
6
CONTINUOUS
62
6
100
AcDbLine
10
611.866483000000
20
187.501180000000
30
0.0
11
622.866483000000
21
187.501180000000
31
0.0
0
LINE
5
7cb
100
AcDbEntity
8
A-0
6
CONTINUOUS
62
6
100
AcDbLine
10
338.554221000000
20
189.501180000000
30
0.0
11
351.386433000000
21
189.501180000000
31
0.0
0
LINE
5
7cc
100
AcDbEntity
8
A-0
6
CONTINUOUS
62
6
100
AcDbLine
10
384.449257000000
20
189.501180000000
30
0.0
11
421.195930000000
21
189.501180000000
31
0.0
0
LINE
5
7cd
100
AcDbEntity
8
A-0
6
CONTINUOUS
62
6
100
AcDbLine
10
440.915564000000
20
189.501180000000
30
0.0
11
453.915564000000
21
189.501180000000
31
0.0
0
LINE
5
7ce
100
AcDbEntity
8
A-0
6
CONTINUOUS
62
6
100
AcDbLine
10
493.656155000000
20
189.501180000000
30
0.0
11
506.656155000000
21
189.501180000000
31
0.0
0
LINE
5
7cf
100
AcDbEntity
8
A-0
6
CONTINUOUS
62
6
100
AcDbLine
10
516.656155000000
20
189.501180000000
30
0.0
11
530.943110000000
21
189.501180000000
31
0.0
0
LINE
5
7d0
100
AcDbEntity
8
A-0
6
CONTINUOUS
62
6
100
AcDbLine
10
563.078890000000
20
189.501180000000
30
0.0
11
583.426028000000
21
189.501180000000
31
0.0
0
LINE
5
7d1
100
AcDbEntity
8
A-0
6
CONTINUOUS
62
6
100
AcDbLine
10
611.866483000000
20
189.501180000000
30
0.0
11
622.866483000000
21
189.501180000000
31
0.0
0
LINE
5
7d2
100
AcDbEntity
8
A-0
6
CONTINUOUS
62
6
100
AcDbLine
10
204.111629000000
20
134.190527000000
30
0.0
11
246.150127000000
21
134.190527000000
31
0.0
0
LINE
5
7d3
100
AcDbEntity
8
A-0
6
CONTINUOUS
62
6
100
AcDbLine
10
204.111629000000
20
135.190527000000
30
0.0
11
246.150127000000
21
135.190527000000
31
0.0
0
LINE
5
7d4
100
AcDbEntity
8
A-0
6
CONTINUOUS
62
6
100
AcDbLine
10
204.111629000000
20
136.190527000000
30
0.0
11
246.150127000000
21
136.190527000000
31
0.0
0
LINE
5
7d5
100
AcDbEntity
8
A-0
6
CONTINUOUS
62
6
100
AcDbLine
10
204.111629000000
20
137.190527000000
30
0.0
11
246.150127000000
21
137.190527000000
31
0.0
0
LINE
5
7d6
100
AcDbEntity
8
A-0
6
CONTINUOUS
62
6
100
AcDbLine
10
204.111629000000
20
138.190527000000
30
0.0
11
246.150127000000
21
138.190527000000
31
0.0
0
LINE
5
7d7
100
AcDbEntity
8
A-0
6
CONTINUOUS
62
6
100
AcDbLine
10
204.111629000000
20
139.190527000000
30
0.0
11
246.150127000000
21
139.190527000000
31
0.0
0
LINE
5
7d8
100
AcDbEntity
8
A-0
6
CONTINUOUS
62
6
100
AcDbLine
10
204.111629000000
20
140.190527000000
30
0.0
11
246.150127000000
21
140.190527000000
31
0.0
0
LINE
5
7d9
100
AcDbEntity
8
A-0
6
CONTINUOUS
62
6
100
AcDbLine
10
204.111629000000
20
141.190527000000
30
0.0
11
246.150127000000
21
141.190527000000
31
0.0
0
LINE
5
7da
100
AcDbEntity
8
A-0
6
CONTINUOUS
62
6
100
AcDbLine
10
204.111629000000
20
142.190527000000
30
0.0
11
246.150127000000
21
142.190527000000
31
0.0
0
LINE
5
7db
100
AcDbEntity
8
A-0
6
CONTINUOUS
62
6
100
AcDbLine
10
204.111629000000
20
143.190527000000
30
0.0
11
246.150127000000
21
143.190527000000
31
0.0
0
LINE
5
7dc
100
AcDbEntity
8
A-0
6
CONTINUOUS
62
6
100
AcDbLine
10
204.111629000000
20
144.190527000000
30
0.0
11
246.150127000000
21
144.190527000000
31
0.0
0
LINE
5
7dd
100
AcDbEntity
8
A-0
6
CONTINUOUS
62
6
100
AcDbLine
10
204.111629000000
20
145.190527000000
30
0.0
11
246.150127000000
21
145.190527000000
31
0.0
0
LINE
5
7de
100
AcDbEntity
8
A-0
6
CONTINUOUS
62
6
100
AcDbLine
10
204.111629000000
20
146.190527000000
30
0.0
11
246.150127000000
21
146.190527000000
31
0.0
0
LINE
5
7df
100
AcDbEntity
8
A-0
6
CONTINUOUS
62
6
100
AcDbLine
10
204.111629000000
20
147.190527000000
30
0.0
11
246.150127000000
21
147.190527000000
31
0.0
0
LINE
5
7e0
100
AcDbEntity
8
A-0
6
CONTINUOUS
62
6
100
AcDbLine
10
204.111629000000
20
148.190527000000
30
0.0
11
246.150127000000
21
148.190527000000
31
0.0
0
LINE
5
7e1
100
AcDbEntity
8
A-0
6
CONTINUOUS
62
6
100
AcDbLine
10
204.111629000000
20
149.190527000000
30
0.0
11
246.150127000000
21
149.190527000000
31
0.0
0
LINE
5
7e2
100
AcDbEntity
8
A-0
6
CONTINUOUS
62
6
100
AcDbLine
10
204.111629000000
20
150.190527000000
30
0.0
11
246.150127000000
21
150.190527000000
31
0.0
0
LINE
5
7e3
100
AcDbEntity
8
A-0
6
CONTINUOUS
62
6
100
AcDbLine
10
204.111629000000
20
151.190527000000
30
0.0
11
246.150127000000
21
151.190527000000
31
0.0
0
LINE
5
7e4
100
AcDbEntity
8
A-0
6
CONTINUOUS
62
6
100
AcDbLine
10
204.111629000000
20
152.190527000000
30
0.0
11
246.150127000000
21
152.190527000000
31
0.0
0
LINE
5
7e5
100
AcDbEntity
8
A-0
6
CONTINUOUS
62
6
100
AcDbLine
10
204.111629000000
20
153.190527000000
30
0.0
11
246.150127000000
21
153.190527000000
31
0.0
0
LINE
5
7e6
100
AcDbEntity
8
A-0
6
CONTINUOUS
62
6
100
AcDbLine
10
204.111629000000
20
154.190527000000
30
0.0
11
246.150127000000
21
154.190527000000
31
0.0
0
LINE
5
7e7
100
AcDbEntity
8
A-0
6
CONTINUOUS
62
6
100
AcDbLine
10
204.111629000000
20
155.190527000000
30
0.0
11
246.150127000000
21
155.190527000000
31
0.0
0
LINE
5
7e8
100
AcDbEntity
8
A-0
6
CONTINUOUS
62
6
100
AcDbLine
10
204.111629000000
20
156.190527000000
30
0.0
11
246.150127000000
21
156.190527000000
31
0.0
0
LINE
5
7e9
100
AcDbEntity
8
A-0
6
CONTINUOUS
62
6
100
AcDbLine
10
204.111629000000
20
157.190527000000
30
0.0
11
246.150127000000
21
157.190527000000
31
0.0
0
LINE
5
7ea
100
AcDbEntity
8
A-0
6
CONTINUOUS
62
6
100
AcDbLine
10
204.111629000000
20
158.190527000000
30
0.0
11
246.150127000000
21
158.190527000000
31
0.0
0
LINE
5
7eb
100
AcDbEntity
8
A-0
6
CONTINUOUS
62
6
100
AcDbLine
10
204.111629000000
20
159.190527000000
30
0.0
11
246.150127000000
21
159.190527000000
31
0.0
0
LINE
5
7ec
100
AcDbEntity
8
A-0
6
CONTINUOUS
62
6
100
AcDbLine
10
204.111629000000
20
160.190527000000
30
0.0
11
246.150127000000
21
160.190527000000
31
0.0
0
LINE
5
7ed
100
AcDbEntity
8
A-0
6
CONTINUOUS
62
6
100
AcDbLine
10
204.111629000000
20
161.190527000000
30
0.0
11
246.150127000000
21
161.190527000000
31
0.0
0
LINE
5
7ee
100
AcDbEntity
8
A-0
6
CONTINUOUS
62
6
100
AcDbLine
10
204.111629000000
20
162.190527000000
30
0.0
11
246.150127000000
21
162.190527000000
31
0.0
0
LINE
5
7ef
100
AcDbEntity
8
A-0
6
CONTINUOUS
62
6
100
AcDbLine
10
204.111629000000
20
163.190527000000
30
0.0
11
246.150127000000
21
163.190527000000
31
0.0
0
LINE
5
7f0
100
AcDbEntity
8
A-0
6
CONTINUOUS
62
6
100
AcDbLine
10
204.111629000000
20
164.190527000000
30
0.0
11
246.150127000000
21
164.190527000000
31
0.0
0
LINE
5
7f1
100
AcDbEntity
8
A-0
6
CONTINUOUS
62
6
100
AcDbLine
10
204.111629000000
20
165.190527000000
30
0.0
11
246.150127000000
21
165.190527000000
31
0.0
0
LINE
5
7f2
100
AcDbEntity
8
A-0
6
CONTINUOUS
62
6
100
AcDbLine
10
204.111629000000
20
166.190527000000
30
0.0
11
246.150127000000
21
166.190527000000
31
0.0
0
LINE
5
7f3
100
AcDbEntity
8
A-0
6
CONTINUOUS
62
6
100
AcDbLine
10
204.111629000000
20
167.190527000000
30
0.0
11
246.150127000000
21
167.190527000000
31
0.0
0
LINE
5
7f4
100
AcDbEntity
8
A-0
6
CONTINUOUS
62
6
100
AcDbLine
10
204.111629000000
20
168.190527000000
30
0.0
11
246.150127000000
21
168.190527000000
31
0.0
0
LINE
5
7f5
100
AcDbEntity
8
A-0
6
CONTINUOUS
62
6
100
AcDbLine
10
204.111629000000
20
169.190527000000
30
0.0
11
246.150127000000
21
169.190527000000
31
0.0
0
LINE
5
7f6
100
AcDbEntity
8
A-0
6
CONTINUOUS
62
6
100
AcDbLine
10
204.111629000000
20
170.190527000000
30
0.0
11
246.150127000000
21
170.190527000000
31
0.0
0
LINE
5
7f7
100
AcDbEntity
8
A-0
6
CONTINUOUS
62
6
100
AcDbLine
10
204.111629000000
20
171.190527000000
30
0.0
11
246.150127000000
21
171.190527000000
31
0.0
0
LINE
5
7f8
100
AcDbEntity
8
A-0
6
CONTINUOUS
62
6
100
AcDbLine
10
204.111629000000
20
172.190527000000
30
0.0
11
246.150127000000
21
172.190527000000
31
0.0
0
LINE
5
7f9
100
AcDbEntity
8
A-0
6
CONTINUOUS
62
6
100
AcDbLine
10
204.111629000000
20
173.190527000000
30
0.0
11
246.150127000000
21
173.190527000000
31
0.0
0
LINE
5
7fa
100
AcDbEntity
8
A-0
6
CONTINUOUS
62
6
100
AcDbLine
10
204.111629000000
20
174.190527000000
30
0.0
11
246.150127000000
21
174.190527000000
31
0.0
0
LINE
5
7fb
100
AcDbEntity
8
A-0
6
CONTINUOUS
62
6
100
AcDbLine
10
204.111629000000
20
175.190527000000
30
0.0
11
246.150127000000
21
175.190527000000
31
0.0
0
LINE
5
7fc
100
AcDbEntity
8
A-0
6
CONTINUOUS
62
6
100
AcDbLine
10
298.923254000000
20
222.190527000000
30
0.0
11
313.558832000000
21
222.190527000000
31
0.0
0
LINE
5
7fd
100
AcDbEntity
8
A-0
6
CONTINUOUS
62
6
100
AcDbLine
10
296.200270000000
20
224.190527000000
30
0.0
11
316.281816000000
21
224.190527000000
31
0.0
0
LINE
5
7fe
100
AcDbEntity
8
A-0
6
CONTINUOUS
62
6
100
AcDbLine
10
294.405326000000
20
226.190527000000
30
0.0
11
318.076761000000
21
226.190527000000
31
0.0
0
LINE
5
7ff
100
AcDbEntity
8
A-0
6
CONTINUOUS
62
6
100
AcDbLine
10
293.150921000000
20
228.190527000000
30
0.0
11
319.331166000000
21
228.190527000000
31
0.0
0
LINE
5
800
100
AcDbEntity
8
A-0
6
CONTINUOUS
62
6
100
AcDbLine
10
292.290474000000
20
230.190527000000
30
0.0
11
320.191613000000
21
230.190527000000
31
0.0
0
LINE
5
801
100
AcDbEntity
8
A-0
6
CONTINUOUS
62
6
100
AcDbLine
10
291.753618000000
20
232.190527000000
30
0.0
11
320.728468000000
21
232.190527000000
31
0.0
0
LINE
5
802
100
AcDbEntity
8
A-0
6
CONTINUOUS
62
6
100
AcDbLine
10
291.504946000000
20
234.190527000000
30
0.0
11
320.977141000000
21
234.190527000000
31
0.0
0
LINE
5
803
100
AcDbEntity
8
A-0
6
CONTINUOUS
62
6
100
AcDbLine
10
291.529834000000
20
236.190527000000
30
0.0
11
320.952252000000
21
236.190527000000
31
0.0
0
LINE
5
804
100
AcDbEntity
8
A-0
6
CONTINUOUS
62
6
100
AcDbLine
10
291.829702000000
20
238.190527000000
30
0.0
11
320.652385000000
21
238.190527000000
31
0.0
0
LINE
5
805
100
AcDbEntity
8
A-0
6
CONTINUOUS
62
6
100
AcDbLine
10
292.422438000000
20
240.190527000000
30
0.0
11
320.059648000000
21
240.190527000000
31
0.0
0
LINE
5
806
100
AcDbEntity
8
A-0
6
CONTINUOUS
62
6
100
AcDbLine
10
293.348373000000
20
242.190527000000
30
0.0
11
319.133713000000
21
242.190527000000
31
0.0
0
LINE
5
807
100
AcDbEntity
8
A-0
6
CONTINUOUS
62
6
100
AcDbLine
10
294.687341000000
20
244.190527000000
30
0.0
11
317.794745000000
21
244.190527000000
31
0.0
0
LINE
5
808
100
AcDbEntity
8
A-0
6
CONTINUOUS
62
6
100
AcDbLine
10
296.610097000000
20
246.190527000000
30
0.0
11
315.871989000000
21
246.190527000000
31
0.0
0
LINE
5
809
100
AcDbEntity
8
A-0
6
CONTINUOUS
62
6
100
AcDbLine
10
299.606120000000
20
248.190527000000
30
0.0
11
312.875967000000
21
248.190527000000
31
0.0
0
LINE
5
80a
100
AcDbEntity
8
A-0
6
CONTINUOUS
62
6
100
AcDbLine
10
320.223164000000
20
230.282896000000
30
0.0
11
320.223164000000
21
239.731703000000
31
0.0
0
LINE
5
80b
100
AcDbEntity
8
A-0
6
CONTINUOUS
62
6
100
AcDbLine
10
318.223164000000
20
226.390545000000
30
0.0
11
318.223164000000
21
243.624055000000
31
0.0
0
LINE
5
80c
100
AcDbEntity
8
A-0
6
CONTINUOUS
62
6
100
AcDbLine
10
316.223164000000
20
224.136377000000
30
0.0
11
316.223164000000
21
245.878222000000
31
0.0
0
LINE
5
80d
100
AcDbEntity
8
A-0
6
CONTINUOUS
62
6
100
AcDbLine
10
314.223164000000
20
222.593379000000
30
0.0
11
314.223164000000
21
247.421221000000
31
0.0
0
LINE
5
80e
100
AcDbEntity
8
A-0
6
CONTINUOUS
62
6
100
AcDbLine
10
312.223164000000
20
221.515305000000
30
0.0
11
312.223164000000
21
248.499295000000
31
0.0
0
LINE
5
80f
100
AcDbEntity
8
A-0
6
CONTINUOUS
62
6
100
AcDbLine
10
310.223164000000
20
220.795952000000
30
0.0
11
310.223164000000
21
249.218648000000
31
0.0
0
LINE
5
810
100
AcDbEntity
8
A-0
6
CONTINUOUS
62
6
100
AcDbLine
10
308.223164000000
20
220.382291000000
30
0.0
11
308.223164000000
21
249.632309000000
31
0.0
0
LINE
5
811
100
AcDbEntity
8
A-0
6
CONTINUOUS
62
6
100
AcDbLine
10
306.223164000000
20
220.248595000000
30
0.0
11
306.223164000000
21
249.766005000000
31
0.0
0
LINE
5
812
100
AcDbEntity
8
A-0
6
CONTINUOUS
62
6
100
AcDbLine
10
245.223164000000
20
133.984898000000
30
0.0
11
245.223164000000
21
176.082590000000
31
0.0
0
LINE
5
813
100
AcDbEntity
8
A-0
6
CONTINUOUS
62
6
100
AcDbLine
10
244.223164000000
20
133.984898000000
30
0.0
11
244.223164000000
21
176.082590000000
31
0.0
0
LINE
5
814
100
AcDbEntity
8
A-0
6
CONTINUOUS
62
6
100
AcDbLine
10
243.223164000000
20
133.984898000000
30
0.0
11
243.223164000000
21
176.082590000000
31
0.0
0
LINE
5
815
100
AcDbEntity
8
A-0
6
CONTINUOUS
62
6
100
AcDbLine
10
242.223164000000
20
133.984898000000
30
0.0
11
242.223164000000
21
176.082590000000
31
0.0
0
LINE
5
816
100
AcDbEntity
8
A-0
6
CONTINUOUS
62
6
100
AcDbLine
10
241.223164000000
20
133.984898000000
30
0.0
11
241.223164000000
21
176.082590000000
31
0.0
0
LINE
5
817
100
AcDbEntity
8
A-0
6
CONTINUOUS
62
6
100
AcDbLine
10
240.223164000000
20
133.984898000000
30
0.0
11
240.223164000000
21
176.082590000000
31
0.0
0
LINE
5
818
100
AcDbEntity
8
A-0
6
CONTINUOUS
62
6
100
AcDbLine
10
239.223164000000
20
133.984898000000
30
0.0
11
239.223164000000
21
176.082590000000
31
0.0
0
LINE
5
819
100
AcDbEntity
8
A-0
6
CONTINUOUS
62
6
100
AcDbLine
10
238.223164000000
20
133.984898000000
30
0.0
11
238.223164000000
21
176.082590000000
31
0.0
0
LINE
5
81a
100
AcDbEntity
8
A-0
6
CONTINUOUS
62
6
100
AcDbLine
10
237.223164000000
20
133.984898000000
30
0.0
11
237.223164000000
21
176.082590000000
31
0.0
0
LINE
5
81b
100
AcDbEntity
8
A-0
6
CONTINUOUS
62
6
100
AcDbLine
10
236.223164000000
20
133.984898000000
30
0.0
11
236.223164000000
21
176.082590000000
31
0.0
0
LINE
5
81c
100
AcDbEntity
8
A-0
6
CONTINUOUS
62
6
100
AcDbLine
10
235.223164000000
20
133.984898000000
30
0.0
11
235.223164000000
21
176.082590000000
31
0.0
0
LINE
5
81d
100
AcDbEntity
8
A-0
6
CONTINUOUS
62
6
100
AcDbLine
10
234.223164000000
20
133.984898000000
30
0.0
11
234.223164000000
21
176.082590000000
31
0.0
0
LINE
5
81e
100
AcDbEntity
8
A-0
6
CONTINUOUS
62
6
100
AcDbLine
10
233.223164000000
20
133.984898000000
30
0.0
11
233.223164000000
21
176.082590000000
31
0.0
0
LINE
5
81f
100
AcDbEntity
8
A-0
6
CONTINUOUS
62
6
100
AcDbLine
10
232.223164000000
20
133.984898000000
30
0.0
11
232.223164000000
21
176.082590000000
31
0.0
0
LINE
5
820
100
AcDbEntity
8
A-0
6
CONTINUOUS
62
6
100
AcDbLine
10
231.223164000000
20
133.984898000000
30
0.0
11
231.223164000000
21
176.082590000000
31
0.0
0
LINE
5
821
100
AcDbEntity
8
A-0
6
CONTINUOUS
62
6
100
AcDbLine
10
230.223164000000
20
133.984898000000
30
0.0
11
230.223164000000
21
176.082590000000
31
0.0
0
LINE
5
822
100
AcDbEntity
8
A-0
6
CONTINUOUS
62
6
100
AcDbLine
10
229.223164000000
20
133.984898000000
30
0.0
11
229.223164000000
21
176.082590000000
31
0.0
0
LINE
5
823
100
AcDbEntity
8
A-0
6
CONTINUOUS
62
6
100
AcDbLine
10
228.223164000000
20
133.984898000000
30
0.0
11
228.223164000000
21
176.082590000000
31
0.0
0
LINE
5
824
100
AcDbEntity
8
A-0
6
CONTINUOUS
62
6
100
AcDbLine
10
227.223164000000
20
133.984898000000
30
0.0
11
227.223164000000
21
176.082590000000
31
0.0
0
LINE
5
825
100
AcDbEntity
8
A-0
6
CONTINUOUS
62
6
100
AcDbLine
10
226.223164000000
20
133.984898000000
30
0.0
11
226.223164000000
21
176.082590000000
31
0.0
0
LINE
5
826
100
AcDbEntity
8
A-0
6
CONTINUOUS
62
6
100
AcDbLine
10
225.223164000000
20
133.984898000000
30
0.0
11
225.223164000000
21
176.082590000000
31
0.0
0
LINE
5
827
100
AcDbEntity
8
A-0
6
CONTINUOUS
62
6
100
AcDbLine
10
224.223164000000
20
133.984898000000
30
0.0
11
224.223164000000
21
176.082590000000
31
0.0
0
LINE
5
828
100
AcDbEntity
8
A-0
6
CONTINUOUS
62
6
100
AcDbLine
10
223.223164000000
20
133.984898000000
30
0.0
11
223.223164000000
21
176.082590000000
31
0.0
0
LINE
5
829
100
AcDbEntity
8
A-0
6
CONTINUOUS
62
6
100
AcDbLine
10
222.223164000000
20
133.984898000000
30
0.0
11
222.223164000000
21
176.082590000000
31
0.0
0
LINE
5
82a
100
AcDbEntity
8
A-0
6
CONTINUOUS
62
6
100
AcDbLine
10
221.223164000000
20
133.984898000000
30
0.0
11
221.223164000000
21
176.082590000000
31
0.0
0
LINE
5
82b
100
AcDbEntity
8
A-0
6
CONTINUOUS
62
6
100
AcDbLine
10
220.223164000000
20
133.984898000000
30
0.0
11
220.223164000000
21
176.082590000000
31
0.0
0
LINE
5
82c
100
AcDbEntity
8
A-0
6
CONTINUOUS
62
6
100
AcDbLine
10
219.223164000000
20
133.984898000000
30
0.0
11
219.223164000000
21
176.082590000000
31
0.0
0
LINE
5
82d
100
AcDbEntity
8
A-0
6
CONTINUOUS
62
6
100
AcDbLine
10
218.223164000000
20
133.984898000000
30
0.0
11
218.223164000000
21
176.082590000000
31
0.0
0
LINE
5
82e
100
AcDbEntity
8
A-0
6
CONTINUOUS
62
6
100
AcDbLine
10
217.223164000000
20
133.984898000000
30
0.0
11
217.223164000000
21
176.082590000000
31
0.0
0
LINE
5
82f
100
AcDbEntity
8
A-0
6
CONTINUOUS
62
6
100
AcDbLine
10
216.223164000000
20
133.984898000000
30
0.0
11
216.223164000000
21
176.082590000000
31
0.0
0
LINE
5
830
100
AcDbEntity
8
A-0
6
CONTINUOUS
62
6
100
AcDbLine
10
215.223164000000
20
133.984898000000
30
0.0
11
215.223164000000
21
176.082590000000
31
0.0
0
LINE
5
831
100
AcDbEntity
8
A-0
6
CONTINUOUS
62
6
100
AcDbLine
10
214.223164000000
20
133.984898000000
30
0.0
11
214.223164000000
21
176.082590000000
31
0.0
0
LINE
5
832
100
AcDbEntity
8
A-0
6
CONTINUOUS
62
6
100
AcDbLine
10
213.223164000000
20
133.984898000000
30
0.0
11
213.223164000000
21
176.082590000000
31
0.0
0
LINE
5
833
100
AcDbEntity
8
A-0
6
CONTINUOUS
62
6
100
AcDbLine
10
212.223164000000
20
133.984898000000
30
0.0
11
212.223164000000
21
176.082590000000
31
0.0
0
LINE
5
834
100
AcDbEntity
8
A-0
6
CONTINUOUS
62
6
100
AcDbLine
10
211.223164000000
20
133.984898000000
30
0.0
11
211.223164000000
21
176.082590000000
31
0.0
0
LINE
5
835
100
AcDbEntity
8
A-0
6
CONTINUOUS
62
6
100
AcDbLine
10
210.223164000000
20
133.984898000000
30
0.0
11
210.223164000000
21
176.082590000000
31
0.0
0
LINE
5
836
100
AcDbEntity
8
A-0
6
CONTINUOUS
62
6
100
AcDbLine
10
209.223164000000
20
133.984898000000
30
0.0
11
209.223164000000
21
176.082590000000
31
0.0
0
LINE
5
837
100
AcDbEntity
8
A-0
6
CONTINUOUS
62
6
100
AcDbLine
10
208.223164000000
20
133.984898000000
30
0.0
11
208.223164000000
21
176.082590000000
31
0.0
0
LINE
5
838
100
AcDbEntity
8
A-0
6
CONTINUOUS
62
6
100
AcDbLine
10
207.223164000000
20
133.984898000000
30
0.0
11
207.223164000000
21
176.082590000000
31
0.0
0
LINE
5
839
100
AcDbEntity
8
A-0
6
CONTINUOUS
62
6
100
AcDbLine
10
206.223164000000
20
133.984898000000
30
0.0
11
206.223164000000
21
176.082590000000
31
0.0
0
LINE
5
83a
100
AcDbEntity
8
A-0
6
CONTINUOUS
62
6
100
AcDbLine
10
205.223164000000
20
133.984898000000
30
0.0
11
205.223164000000
21
176.082590000000
31
0.0
0
LINE
5
83b
100
AcDbEntity
8
A-0
6
CONTINUOUS
62
6
100
AcDbLine
10
204.223164000000
20
133.984898000000
30
0.0
11
204.223164000000
21
176.082590000000
31
0.0
0
LINE
5
83c
100
AcDbEntity
8
A-0
6
CONTINUOUS
62
6
100
AcDbLine
10
227.220640000000
20
206.853924000000
30
0.0
11
170.319056000000
21
132.765739000000
31
0.0
0
LINE
5
83d
100
AcDbEntity
8
A-0
6
CONTINUOUS
62
6
100
AcDbLine
10
170.319056000000
20
132.765739000000
30
0.0
11
164.745023000000
21
130.443226000000
31
0.0
0
LINE
5
83e
100
AcDbEntity
8
A-0
6
CONTINUOUS
62
6
100
AcDbLine
10
164.745023000000
20
130.443226000000
30
0.0
11
159.635493000000
21
128.585215000000
31
0.0
0
LINE
5
83f
100
AcDbEntity
8
A-0
6
CONTINUOUS
62
6
100
AcDbLine
10
159.635493000000
20
128.585215000000
30
0.0
11
156.848477000000
21
131.139980000000
31
0.0
0
LINE
5
840
100
AcDbEntity
8
A-0
6
CONTINUOUS
62
6
100
AcDbLine
10
156.848477000000
20
131.139980000000
30
0.0
11
154.525963000000
21
134.391499000000
31
0.0
0
LINE
5
841
100
AcDbEntity
8
A-0
6
CONTINUOUS
62
6
100
AcDbLine
10
154.525963000000
20
134.391499000000
30
0.0
11
152.667952000000
21
140.662285000000
31
0.0
0
LINE
5
842
100
AcDbEntity
8
A-0
6
CONTINUOUS
62
6
100
AcDbLine
10
152.667952000000
20
140.662285000000
30
0.0
11
154.525963000000
21
146.468570000000
31
0.0
0
LINE
5
843
100
AcDbEntity
8
A-0
6
CONTINUOUS
62
6
100
AcDbLine
10
154.525963000000
20
146.468570000000
30
0.0
11
161.493504000000
21
156.455378000000
31
0.0
0
LINE
5
844
100
AcDbEntity
8
A-0
6
CONTINUOUS
62
6
100
AcDbLine
10
161.493504000000
20
156.455378000000
30
0.0
11
213.982312000000
21
227.524295000000
31
0.0
0
LINE
5
845
100
AcDbEntity
8
A-0
6
CONTINUOUS
62
6
100
AcDbLine
10
213.982312000000
20
227.524295000000
30
0.0
11
213.982312000000
21
232.633825000000
31
0.0
0
LINE
5
846
100
AcDbEntity
8
A-0
6
CONTINUOUS
62
6
100
AcDbLine
10
213.982312000000
20
232.633825000000
30
0.0
11
215.375820000000
21
235.885344000000
31
0.0
0
LINE
5
847
100
AcDbEntity
8
A-0
6
CONTINUOUS
62
6
100
AcDbLine
10
215.375820000000
20
235.885344000000
30
0.0
11
219.091842000000
21
240.065869000000
31
0.0
0
LINE
5
848
100
AcDbEntity
8
A-0
6
CONTINUOUS
62
6
100
AcDbLine
10
219.091842000000
20
240.065869000000
30
0.0
11
220.253099000000
21
241.227126000000
31
0.0
0
LINE
5
849
100
AcDbEntity
8
A-0
6
CONTINUOUS
62
6
100
AcDbLine
10
220.253099000000
20
241.227126000000
30
0.0
11
222.343361000000
21
244.246393000000
31
0.0
0
LINE
5
84a
100
AcDbEntity
8
A-0
6
CONTINUOUS
62
6
100
AcDbLine
10
222.343361000000
20
244.246393000000
30
0.0
11
225.827131000000
21
244.710896000000
31
0.0
0
LINE
5
84b
100
AcDbEntity
8
A-0
6
CONTINUOUS
62
6
100
AcDbLine
10
225.827131000000
20
244.710896000000
30
0.0
11
231.865667000000
21
245.872153000000
31
0.0
0
LINE
5
84c
100
AcDbEntity
8
A-0
6
CONTINUOUS
62
6
100
AcDbLine
10
231.865667000000
20
245.872153000000
30
0.0
11
234.188181000000
21
245.639901000000
31
0.0
0
LINE
5
84d
100
AcDbEntity
8
A-0
6
CONTINUOUS
62
6
100
AcDbLine
10
234.188181000000
20
245.639901000000
30
0.0
11
239.065459000000
21
244.014142000000
31
0.0
0
LINE
5
84e
100
AcDbEntity
8
A-0
6
CONTINUOUS
62
6
100
AcDbLine
10
239.065459000000
20
244.014142000000
30
0.0
11
240.923470000000
21
241.691628000000
31
0.0
0
LINE
5
84f
100
AcDbEntity
8
A-0
6
CONTINUOUS
62
6
100
AcDbLine
10
240.923470000000
20
241.691628000000
30
0.0
11
246.033000000000
21
234.956339000000
31
0.0
0
LINE
5
850
100
AcDbEntity
8
A-0
6
CONTINUOUS
62
6
100
AcDbLine
10
246.033000000000
20
234.956339000000
30
0.0
11
261.826093000000
21
208.711935000000
31
0.0
0
LINE
5
851
100
AcDbEntity
8
A-0
6
CONTINUOUS
62
6
100
AcDbLine
10
273.014721000000
20
189.810508000000
30
0.0
11
295.493438000000
21
151.006964000000
31
0.0
0
LINE
5
852
100
AcDbEntity
8
A-0
6
CONTINUOUS
62
6
100
AcDbLine
10
295.493438000000
20
151.006964000000
30
0.0
11
297.648980000000
21
145.464141000000
31
0.0
0
LINE
5
853
100
AcDbEntity
8
A-0
6
CONTINUOUS
62
6
100
AcDbLine
10
297.648980000000
20
145.464141000000
30
0.0
11
296.725176000000
21
142.692729000000
31
0.0
0
LINE
5
854
100
AcDbEntity
8
A-0
6
CONTINUOUS
62
6
100
AcDbLine
10
296.725176000000
20
142.692729000000
30
0.0
11
293.953764000000
21
138.843547000000
31
0.0
0
LINE
5
855
100
AcDbEntity
8
A-0
6
CONTINUOUS
62
6
100
AcDbLine
10
293.953764000000
20
138.843547000000
30
0.0
11
283.176053000000
21
135.610233000000
31
0.0
0
LINE
5
856
100
AcDbEntity
8
A-0
6
CONTINUOUS
62
6
100
AcDbLine
10
283.176053000000
20
135.610233000000
30
0.0
11
276.709426000000
21
133.300724000000
31
0.0
0
LINE
5
857
100
AcDbEntity
8
A-0
6
CONTINUOUS
62
6
100
AcDbLine
10
276.709426000000
20
133.300724000000
30
0.0
11
271.012635000000
21
135.610233000000
31
0.0
0
LINE
5
858
100
AcDbEntity
8
A-0
6
CONTINUOUS
62
6
100
AcDbLine
10
271.012635000000
20
135.610233000000
30
0.0
11
262.236499000000
21
145.002239000000
31
0.0
0
LINE
5
859
100
AcDbEntity
8
A-0
6
CONTINUOUS
62
6
100
AcDbLine
10
262.236499000000
20
145.002239000000
30
0.0
11
261.928564000000
21
150.083160000000
31
0.0
0
LINE
5
85a
100
AcDbEntity
8
A-0
6
CONTINUOUS
62
6
100
AcDbLine
10
261.928564000000
20
150.083160000000
30
0.0
11
227.220640000000
21
206.853924000000
31
0.0
0
LINE
5
85b
100
AcDbEntity
8
A-0
6
CONTINUOUS
62
6
100
AcDbLine
10
292.873235000000
20
138.519388000000
30
0.0
11
295.898718000000
21
141.544871000000
31
0.0
0
LINE
5
85c
100
AcDbEntity
8
A-0
6
CONTINUOUS
62
6
100
AcDbLine
10
288.832625000000
20
137.307205000000
30
0.0
11
297.464343000000
21
145.938923000000
31
0.0
0
LINE
5
85d
100
AcDbEntity
8
A-0
6
CONTINUOUS
62
6
100
AcDbLine
10
284.792014000000
20
136.095022000000
30
0.0
11
296.672383000000
21
147.975390000000
31
0.0
0
LINE
5
85e
100
AcDbEntity
8
A-0
6
CONTINUOUS
62
6
100
AcDbLine
10
280.535880000000
20
134.667314000000
30
0.0
11
295.880423000000
21
150.011858000000
31
0.0
0
LINE
5
85f
100
AcDbEntity
8
A-0
6
CONTINUOUS
62
6
100
AcDbLine
10
276.447179000000
20
133.407040000000
30
0.0
11
294.962913000000
21
151.922774000000
31
0.0
0
LINE
5
860
100
AcDbEntity
8
A-0
6
CONTINUOUS
62
6
100
AcDbLine
10
274.434644000000
20
134.222932000000
30
0.0
11
293.925428000000
21
153.713717000000
31
0.0
0
LINE
5
861
100
AcDbEntity
8
A-0
6
CONTINUOUS
62
6
100
AcDbLine
10
272.422109000000
20
135.038825000000
30
0.0
11
292.887943000000
21
155.504659000000
31
0.0
0
LINE
5
862
100
AcDbEntity
8
A-0
6
CONTINUOUS
62
6
100
AcDbLine
10
270.603228000000
20
136.048371000000
30
0.0
11
291.850458000000
21
157.295601000000
31
0.0
0
LINE
5
863
100
AcDbEntity
8
A-0
6
CONTINUOUS
62
6
100
AcDbLine
10
269.236954000000
20
137.510524000000
30
0.0
11
290.812974000000
21
159.086544000000
31
0.0
0
LINE
5
864
100
AcDbEntity
8
A-0
6
CONTINUOUS
62
6
100
AcDbLine
10
267.870680000000
20
138.972677000000
30
0.0
11
289.775489000000
21
160.877486000000
31
0.0
0
LINE
5
865
100
AcDbEntity
8
A-0
6
CONTINUOUS
62
6
100
AcDbLine
10
266.504406000000
20
140.434830000000
30
0.0
11
288.738004000000
21
162.668428000000
31
0.0
0
LINE
5
866
100
AcDbEntity
8
A-0
6
CONTINUOUS
62
6
100
AcDbLine
10
265.138132000000
20
141.896983000000
30
0.0
11
287.700519000000
21
164.459371000000
31
0.0
0
LINE
5
867
100
AcDbEntity
8
A-0
6
CONTINUOUS
62
6
100
AcDbLine
10
263.771857000000
20
143.359136000000
30
0.0
11
286.663035000000
21
166.250313000000
31
0.0
0
LINE
5
868
100
AcDbEntity
8
A-0
6
CONTINUOUS
62
6
100
AcDbLine
10
262.405583000000
20
144.821289000000
30
0.0
11
285.625550000000
21
168.041255000000
31
0.0
0
LINE
5
869
100
AcDbEntity
8
A-0
6
CONTINUOUS
62
6
100
AcDbLine
10
262.094876000000
20
147.339009000000
30
0.0
11
284.588065000000
21
169.832198000000
31
0.0
0
LINE
5
86a
100
AcDbEntity
8
A-0
6
CONTINUOUS
62
6
100
AcDbLine
10
261.933252000000
20
150.005812000000
30
0.0
11
283.550580000000
21
171.623140000000
31
0.0
0
LINE
5
86b
100
AcDbEntity
8
A-0
6
CONTINUOUS
62
6
100
AcDbLine
10
260.886556000000
20
151.787543000000
30
0.0
11
282.513095000000
21
173.414082000000
31
0.0
0
LINE
5
86c
100
AcDbEntity
8
A-0
6
CONTINUOUS
62
6
100
AcDbLine
10
259.813423000000
20
153.542837000000
30
0.0
11
281.475611000000
21
175.205025000000
31
0.0
0
LINE
5
86d
100
AcDbEntity
8
A-0
6
CONTINUOUS
62
6
100
AcDbLine
10
258.740289000000
20
155.298131000000
30
0.0
11
280.438126000000
21
176.995967000000
31
0.0
0
LINE
5
86e
100
AcDbEntity
8
A-0
6
CONTINUOUS
62
6
100
AcDbLine
10
257.667156000000
20
157.053424000000
30
0.0
11
279.400641000000
21
178.786909000000
31
0.0
0
LINE
5
86f
100
AcDbEntity
8
A-0
6
CONTINUOUS
62
6
100
AcDbLine
10
256.594023000000
20
158.808718000000
30
0.0
11
278.363156000000
21
180.577852000000
31
0.0
0
LINE
5
870
100
AcDbEntity
8
A-0
6
CONTINUOUS
62
6
100
AcDbLine
10
255.520889000000
20
160.564012000000
30
0.0
11
277.325672000000
21
182.368794000000
31
0.0
0
LINE
5
871
100
AcDbEntity
8
A-0
6
CONTINUOUS
62
6
100
AcDbLine
10
254.447756000000
20
162.319305000000
30
0.0
11
276.288187000000
21
184.159737000000
31
0.0
0
LINE
5
872
100
AcDbEntity
8
A-0
6
CONTINUOUS
62
6
100
AcDbLine
10
253.374622000000
20
164.074599000000
30
0.0
11
275.250702000000
21
185.950679000000
31
0.0
0
LINE
5
873
100
AcDbEntity
8
A-0
6
CONTINUOUS
62
6
100
AcDbLine
10
252.301489000000
20
165.829893000000
30
0.0
11
274.213217000000
21
187.741621000000
31
0.0
0
LINE
5
874
100
AcDbEntity
8
A-0
6
CONTINUOUS
62
6
100
AcDbLine
10
251.228356000000
20
167.585187000000
30
0.0
11
273.175732000000
21
189.532564000000
31
0.0
0
LINE
5
875
100
AcDbEntity
8
A-0
6
CONTINUOUS
62
6
100
AcDbLine
10
250.155222000000
20
169.340480000000
30
0.0
11
270.625249000000
21
189.810508000000
31
0.0
0
LINE
5
876
100
AcDbEntity
8
A-0
6
CONTINUOUS
62
6
100
AcDbLine
10
249.082089000000
20
171.095774000000
30
0.0
11
267.796822000000
21
189.810508000000
31
0.0
0
LINE
5
877
100
AcDbEntity
8
A-0
6
CONTINUOUS
62
6
100
AcDbLine
10
248.008955000000
20
172.851068000000
30
0.0
11
264.968395000000
21
189.810508000000
31
0.0
0
LINE
5
878
100
AcDbEntity
8
A-0
6
CONTINUOUS
62
6
100
AcDbLine
10
246.935822000000
20
174.606362000000
30
0.0
11
262.139968000000
21
189.810508000000
31
0.0
0
LINE
5
879
100
AcDbEntity
8
A-0
6
CONTINUOUS
62
6
100
AcDbLine
10
245.862689000000
20
176.361655000000
30
0.0
11
259.311541000000
21
189.810508000000
31
0.0
0
LINE
5
87a
100
AcDbEntity
8
A-0
6
CONTINUOUS
62
6
100
AcDbLine
10
244.789555000000
20
178.116949000000
30
0.0
11
256.483114000000
21
189.810508000000
31
0.0
0
LINE
5
87b
100
AcDbEntity
8
A-0
6
CONTINUOUS
62
6
100
AcDbLine
10
243.716422000000
20
179.872243000000
30
0.0
11
253.654687000000
21
189.810508000000
31
0.0
0
LINE
5
87c
100
AcDbEntity
8
A-0
6
CONTINUOUS
62
6
100
AcDbLine
10
242.643288000000
20
181.627536000000
30
0.0
11
251.032315000000
21
190.016563000000
31
0.0
0
LINE
5
87d
100
AcDbEntity
8
A-0
6
CONTINUOUS
62
6
100
AcDbLine
10
241.570155000000
20
183.382830000000
30
0.0
11
254.896018000000
21
196.708693000000
31
0.0
0
LINE
5
87e
100
AcDbEntity
8
A-0
6
CONTINUOUS
62
6
100
AcDbLine
10
240.497022000000
20
185.138124000000
30
0.0
11
258.759721000000
21
203.400823000000
31
0.0
0
LINE
5
87f
100
AcDbEntity
8
A-0
6
CONTINUOUS
62
6
100
AcDbLine
10
239.423888000000
20
186.893418000000
30
0.0
11
261.606807000000
21
209.076336000000
31
0.0
0
LINE
5
880
100
AcDbEntity
8
A-0
6
CONTINUOUS
62
6
100
AcDbLine
10
238.350755000000
20
188.648711000000
30
0.0
11
260.544193000000
21
210.842150000000
31
0.0
0
LINE
5
881
100
AcDbEntity
8
A-0
6
CONTINUOUS
62
6
100
AcDbLine
10
237.277621000000
20
190.404005000000
30
0.0
11
259.481580000000
21
212.607964000000
31
0.0
0
LINE
5
882
100
AcDbEntity
8
A-0
6
CONTINUOUS
62
6
100
AcDbLine
10
236.204488000000
20
192.159299000000
30
0.0
11
258.418966000000
21
214.373777000000
31
0.0
0
LINE
5
883
100
AcDbEntity
8
A-0
6
CONTINUOUS
62
6
100
AcDbLine
10
235.131355000000
20
193.914593000000
30
0.0
11
257.356353000000
21
216.139591000000
31
0.0
0
LINE
5
884
100
AcDbEntity
8
A-0
6
CONTINUOUS
62
6
100
AcDbLine
10
234.058221000000
20
195.669886000000
30
0.0
11
256.293739000000
21
217.905404000000
31
0.0
0
LINE
5
885
100
AcDbEntity
8
A-0
6
CONTINUOUS
62
6
100
AcDbLine
10
166.901784000000
20
131.341876000000
30
0.0
11
176.918855000000
21
141.358947000000
31
0.0
0
LINE
5
886
100
AcDbEntity
8
A-0
6
CONTINUOUS
62
6
100
AcDbLine
10
232.985088000000
20
197.425180000000
30
0.0
11
255.231126000000
21
219.671218000000
31
0.0
0
LINE
5
887
100
AcDbEntity
8
A-0
6
CONTINUOUS
62
6
100
AcDbLine
10
162.277382000000
20
129.545902000000
30
0.0
11
186.283242000000
21
153.551762000000
31
0.0
0
LINE
5
888
100
AcDbEntity
8
A-0
6
CONTINUOUS
62
6
100
AcDbLine
10
231.911954000000
20
199.180474000000
30
0.0
11
254.168512000000
21
221.437032000000
31
0.0
0
LINE
5
889
100
AcDbEntity
8
A-0
6
CONTINUOUS
62
6
100
AcDbLine
10
159.036941000000
20
129.133887000000
30
0.0
11
195.647629000000
21
165.744576000000
31
0.0
0
LINE
5
88a
100
AcDbEntity
8
A-0
6
CONTINUOUS
62
6
100
AcDbLine
10
230.838821000000
20
200.935768000000
30
0.0
11
253.105899000000
21
223.202845000000
31
0.0
0
LINE
5
88b
100
AcDbEntity
8
A-0
6
CONTINUOUS
62
6
100
AcDbLine
10
157.561240000000
20
130.486613000000
30
0.0
11
205.012016000000
21
177.937390000000
31
0.0
0
LINE
5
88c
100
AcDbEntity
8
A-0
6
CONTINUOUS
62
6
100
AcDbLine
10
229.765688000000
20
202.691061000000
30
0.0
11
252.043285000000
21
224.968659000000
31
0.0
0
LINE
5
88d
100
AcDbEntity
8
A-0
6
CONTINUOUS
62
6
100
AcDbLine
10
156.239186000000
20
131.992987000000
30
0.0
11
214.376404000000
21
190.130204000000
31
0.0
0
LINE
5
88e
100
AcDbEntity
8
A-0
6
CONTINUOUS
62
6
100
AcDbLine
10
228.692554000000
20
204.446355000000
30
0.0
11
250.980672000000
21
226.734472000000
31
0.0
0
LINE
5
88f
100
AcDbEntity
8
A-0
6
CONTINUOUS
62
6
100
AcDbLine
10
155.060675000000
20
133.642902000000
30
0.0
11
223.740791000000
21
202.323018000000
31
0.0
0
LINE
5
890
100
AcDbEntity
8
A-0
6
CONTINUOUS
62
6
100
AcDbLine
10
227.619421000000
20
206.201649000000
30
0.0
11
249.918058000000
21
228.500286000000
31
0.0
0
LINE
5
891
100
AcDbEntity
8
A-0
6
CONTINUOUS
62
6
100
AcDbLine
10
154.172793000000
20
135.583448000000
30
0.0
11
248.855445000000
21
230.266100000000
31
0.0
0
LINE
5
892
100
AcDbEntity
8
A-0
6
CONTINUOUS
62
6
100
AcDbLine
10
153.526295000000
20
137.765377000000
30
0.0
11
247.792831000000
21
232.031913000000
31
0.0
0
LINE
5
893
100
AcDbEntity
8
A-0
6
CONTINUOUS
62
6
100
AcDbLine
10
152.879798000000
20
139.947307000000
30
0.0
11
246.730218000000
21
233.797727000000
31
0.0
0
LINE
5
894
100
AcDbEntity
8
A-0
6
CONTINUOUS
62
6
100
AcDbLine
10
153.562824000000
20
143.458760000000
30
0.0
11
245.613448000000
21
235.509384000000
31
0.0
0
LINE
5
895
100
AcDbEntity
8
A-0
6
CONTINUOUS
62
6
100
AcDbLine
10
156.330018000000
20
149.054381000000
30
0.0
11
244.393342000000
21
237.117706000000
31
0.0
0
LINE
5
896
100
AcDbEntity
8
A-0
6
CONTINUOUS
62
6
100
AcDbLine
10
163.162843000000
20
158.715633000000
30
0.0
11
243.173237000000
21
238.726027000000
31
0.0
0
LINE
5
897
100
AcDbEntity
8
A-0
6
CONTINUOUS
62
6
100
AcDbLine
10
171.153149000000
20
169.534367000000
30
0.0
11
241.953131000000
21
240.334348000000
31
0.0
0
LINE
5
898
100
AcDbEntity
8
A-0
6
CONTINUOUS
62
6
100
AcDbLine
10
179.143456000000
20
180.353101000000
30
0.0
11
240.727254000000
21
241.936899000000
31
0.0
0
LINE
5
899
100
AcDbEntity
8
A-0
6
CONTINUOUS
62
6
100
AcDbLine
10
187.133763000000
20
191.171834000000
30
0.0
11
239.470175000000
21
243.508247000000
31
0.0
0
LINE
5
89a
100
AcDbEntity
8
A-0
6
CONTINUOUS
62
6
100
AcDbLine
10
195.124069000000
20
201.990568000000
30
0.0
11
237.627097000000
21
244.493596000000
31
0.0
0
LINE
5
89b
100
AcDbEntity
8
A-0
6
CONTINUOUS
62
6
100
AcDbLine
10
203.114376000000
20
212.809302000000
30
0.0
11
235.505777000000
21
245.200703000000
31
0.0
0
LINE
5
89c
100
AcDbEntity
8
A-0
6
CONTINUOUS
62
6
100
AcDbLine
10
211.104682000000
20
223.628036000000
30
0.0
11
233.213969000000
21
245.737323000000
31
0.0
0
LINE
5
89d
100
AcDbEntity
8
A-0
6
CONTINUOUS
62
6
100
AcDbLine
10
213.982312000000
20
229.334092000000
30
0.0
11
230.200064000000
21
245.551845000000
31
0.0
0
LINE
5
89e
100
AcDbEntity
8
A-0
6
CONTINUOUS
62
6
100
AcDbLine
10
213.982312000000
20
232.162520000000
30
0.0
11
226.698202000000
21
244.878410000000
31
0.0
0
LINE
5
89f
100
AcDbEntity
8
A-0
6
CONTINUOUS
62
6
100
AcDbLine
10
220.330966000000
20
241.339601000000
30
0.0
11
223.375358000000
21
244.383993000000
31
0.0
0
LINE
5
8a0
100
AcDbEntity
8
A-0
6
CONTINUOUS
62
6
100
AcDbLine
10
154.445891000000
20
134.661742000000
30
0.0
11
160.285905000000
21
128.821728000000
31
0.0
0
LINE
5
8a1
100
AcDbEntity
8
A-0
6
CONTINUOUS
62
6
100
AcDbLine
10
153.254974000000
20
138.681086000000
30
0.0
11
162.360085000000
21
129.575975000000
31
0.0
0
LINE
5
8a2
100
AcDbEntity
8
A-0
6
CONTINUOUS
62
6
100
AcDbLine
10
153.015649000000
20
141.748838000000
30
0.0
11
164.434265000000
21
130.330223000000
31
0.0
0
LINE
5
8a3
100
AcDbEntity
8
A-0
6
CONTINUOUS
62
6
100
AcDbLine
10
153.701328000000
20
143.891586000000
30
0.0
11
166.442434000000
21
131.150480000000
31
0.0
0
LINE
5
8a4
100
AcDbEntity
8
A-0
6
CONTINUOUS
62
6
100
AcDbLine
10
154.387008000000
20
146.034334000000
30
0.0
11
168.438971000000
21
131.982371000000
31
0.0
0
LINE
5
8a5
100
AcDbEntity
8
A-0
6
CONTINUOUS
62
6
100
AcDbLine
10
155.452772000000
20
147.796996000000
30
0.0
11
170.390720000000
21
132.859049000000
31
0.0
0
LINE
5
8a6
100
AcDbEntity
8
A-0
6
CONTINUOUS
62
6
100
AcDbLine
10
156.615140000000
20
149.463056000000
30
0.0
11
171.619381000000
21
134.458815000000
31
0.0
0
LINE
5
8a7
100
AcDbEntity
8
A-0
6
CONTINUOUS
62
6
100
AcDbLine
10
157.777507000000
20
151.129116000000
30
0.0
11
172.848041000000
21
136.058582000000
31
0.0
0
LINE
5
8a8
100
AcDbEntity
8
A-0
6
CONTINUOUS
62
6
100
AcDbLine
10
158.939874000000
20
152.795176000000
30
0.0
11
174.076702000000
21
137.658348000000
31
0.0
0
LINE
5
8a9
100
AcDbEntity
8
A-0
6
CONTINUOUS
62
6
100
AcDbLine
10
160.102242000000
20
154.461236000000
30
0.0
11
175.305363000000
21
139.258114000000
31
0.0
0
LINE
5
8aa
100
AcDbEntity
8
A-0
6
CONTINUOUS
62
6
100
AcDbLine
10
161.264609000000
20
156.127295000000
30
0.0
11
176.534024000000
21
140.857881000000
31
0.0
0
LINE
5
8ab
100
AcDbEntity
8
A-0
6
CONTINUOUS
62
6
100
AcDbLine
10
162.458443000000
20
157.761889000000
30
0.0
11
177.762684000000
21
142.457647000000
31
0.0
0
LINE
5
8ac
100
AcDbEntity
8
A-0
6
CONTINUOUS
62
6
100
AcDbLine
10
163.659993000000
20
159.388766000000
30
0.0
11
178.991345000000
21
144.057414000000
31
0.0
0
LINE
5
8ad
100
AcDbEntity
8
A-0
6
CONTINUOUS
62
6
100
AcDbLine
10
164.861543000000
20
161.015643000000
30
0.0
11
180.220006000000
21
145.657180000000
31
0.0
0
LINE
5
8ae
100
AcDbEntity
8
A-0
6
CONTINUOUS
62
6
100
AcDbLine
10
166.063093000000
20
162.642520000000
30
0.0
11
181.448666000000
21
147.256947000000
31
0.0
0
LINE
5
8af
100
AcDbEntity
8
A-0
6
CONTINUOUS
62
6
100
AcDbLine
10
167.264642000000
20
164.269398000000
30
0.0
11
182.677327000000
21
148.856713000000
31
0.0
0
LINE
5
8b0
100
AcDbEntity
8
A-0
6
CONTINUOUS
62
6
100
AcDbLine
10
168.466192000000
20
165.896275000000
30
0.0
11
183.905988000000
21
150.456479000000
31
0.0
0
LINE
5
8b1
100
AcDbEntity
8
A-0
6
CONTINUOUS
62
6
100
AcDbLine
10
169.667742000000
20
167.523152000000
30
0.0
11
185.134649000000
21
152.056246000000
31
0.0
0
LINE
5
8b2
100
AcDbEntity
8
A-0
6
CONTINUOUS
62
6
100
AcDbLine
10
170.869292000000
20
169.150029000000
30
0.0
11
186.363309000000
21
153.656012000000
31
0.0
0
LINE
5
8b3
100
AcDbEntity
8
A-0
6
CONTINUOUS
62
6
100
AcDbLine
10
172.070842000000
20
170.776907000000
30
0.0
11
187.591970000000
21
155.255779000000
31
0.0
0
LINE
5
8b4
100
AcDbEntity
8
A-0
6
CONTINUOUS
62
6
100
AcDbLine
10
173.272392000000
20
172.403784000000
30
0.0
11
188.820631000000
21
156.855545000000
31
0.0
0
LINE
5
8b5
100
AcDbEntity
8
A-0
6
CONTINUOUS
62
6
100
AcDbLine
10
174.473942000000
20
174.030661000000
30
0.0
11
190.049291000000
21
158.455311000000
31
0.0
0
LINE
5
8b6
100
AcDbEntity
8
A-0
6
CONTINUOUS
62
6
100
AcDbLine
10
175.675492000000
20
175.657538000000
30
0.0
11
191.277952000000
21
160.055078000000
31
0.0
0
LINE
5
8b7
100
AcDbEntity
8
A-0
6
CONTINUOUS
62
6
100
AcDbLine
10
176.877041000000
20
177.284416000000
30
0.0
11
192.506613000000
21
161.654844000000
31
0.0
0
LINE
5
8b8
100
AcDbEntity
8
A-0
6
CONTINUOUS
62
6
100
AcDbLine
10
178.078591000000
20
178.911293000000
30
0.0
11
193.735274000000
21
163.254611000000
31
0.0
0
LINE
5
8b9
100
AcDbEntity
8
A-0
6
CONTINUOUS
62
6
100
AcDbLine
10
179.280141000000
20
180.538170000000
30
0.0
11
194.963934000000
21
164.854377000000
31
0.0
0
LINE
5
8ba
100
AcDbEntity
8
A-0
6
CONTINUOUS
62
6
100
AcDbLine
10
180.481691000000
20
182.165047000000
30
0.0
11
196.192595000000
21
166.454143000000
31
0.0
0
LINE
5
8bb
100
AcDbEntity
8
A-0
6
CONTINUOUS
62
6
100
AcDbLine
10
181.683241000000
20
183.791925000000
30
0.0
11
197.421256000000
21
168.053910000000
31
0.0
0
LINE
5
8bc
100
AcDbEntity
8
A-0
6
CONTINUOUS
62
6
100
AcDbLine
10
182.884791000000
20
185.418802000000
30
0.0
11
198.649916000000
21
169.653676000000
31
0.0
0
LINE
5
8bd
100
AcDbEntity
8
A-0
6
CONTINUOUS
62
6
100
AcDbLine
10
184.086341000000
20
187.045679000000
30
0.0
11
199.878577000000
21
171.253443000000
31
0.0
0
LINE
5
8be
100
AcDbEntity
8
A-0
6
CONTINUOUS
62
6
100
AcDbLine
10
185.287891000000
20
188.672556000000
30
0.0
11
201.107238000000
21
172.853209000000
31
0.0
0
LINE
5
8bf
100
AcDbEntity
8
A-0
6
CONTINUOUS
62
6
100
AcDbLine
10
186.489440000000
20
190.299434000000
30
0.0
11
202.335899000000
21
174.452975000000
31
0.0
0
LINE
5
8c0
100
AcDbEntity
8
A-0
6
CONTINUOUS
62
6
100
AcDbLine
10
187.690990000000
20
191.926311000000
30
0.0
11
203.564559000000
21
176.052742000000
31
0.0
0
LINE
5
8c1
100
AcDbEntity
8
A-0
6
CONTINUOUS
62
6
100
AcDbLine
10
188.892540000000
20
193.553188000000
30
0.0
11
204.793220000000
21
177.652508000000
31
0.0
0
LINE
5
8c2
100
AcDbEntity
8
A-0
6
CONTINUOUS
62
6
100
AcDbLine
10
190.094090000000
20
195.180065000000
30
0.0
11
206.021881000000
21
179.252275000000
31
0.0
0
LINE
5
8c3
100
AcDbEntity
8
A-0
6
CONTINUOUS
62
6
100
AcDbLine
10
191.295640000000
20
196.806943000000
30
0.0
11
207.250542000000
21
180.852041000000
31
0.0
0
LINE
5
8c4
100
AcDbEntity
8
A-0
6
CONTINUOUS
62
6
100
AcDbLine
10
192.497190000000
20
198.433820000000
30
0.0
11
208.479202000000
21
182.451807000000
31
0.0
0
LINE
5
8c5
100
AcDbEntity
8
A-0
6
CONTINUOUS
62
6
100
AcDbLine
10
193.698740000000
20
200.060697000000
30
0.0
11
209.707863000000
21
184.051574000000
31
0.0
0
LINE
5
8c6
100
AcDbEntity
8
A-0
6
CONTINUOUS
62
6
100
AcDbLine
10
194.900289000000
20
201.687574000000
30
0.0
11
210.936524000000
21
185.651340000000
31
0.0
0
LINE
5
8c7
100
AcDbEntity
8
A-0
6
CONTINUOUS
62
6
100
AcDbLine
10
196.101839000000
20
203.314452000000
30
0.0
11
212.165184000000
21
187.251107000000
31
0.0
0
LINE
5
8c8
100
AcDbEntity
8
A-0
6
CONTINUOUS
62
6
100
AcDbLine
10
197.303389000000
20
204.941329000000
30
0.0
11
213.393845000000
21
188.850873000000
31
0.0
0
LINE
5
8c9
100
AcDbEntity
8
A-0
6
CONTINUOUS
62
6
100
AcDbLine
10
198.504939000000
20
206.568206000000
30
0.0
11
214.622506000000
21
190.450639000000
31
0.0
0
LINE
5
8ca
100
AcDbEntity
8
A-0
6
CONTINUOUS
62
6
100
AcDbLine
10
199.706489000000
20
208.195083000000
30
0.0
11
215.851167000000
21
192.050406000000
31
0.0
0
LINE
5
8cb
100
AcDbEntity
8
A-0
6
CONTINUOUS
62
6
100
AcDbLine
10
262.193735000000
20
145.707837000000
30
0.0
11
273.163183000000
21
134.738390000000
31
0.0
0
LINE
5
8cc
100
AcDbEntity
8
A-0
6
CONTINUOUS
62
6
100
AcDbLine
10
200.908039000000
20
209.821961000000
30
0.0
11
217.079827000000
21
193.650172000000
31
0.0
0
LINE
5
8cd
100
AcDbEntity
8
A-0
6
CONTINUOUS
62
6
100
AcDbLine
10
262.011256000000
20
148.718743000000
30
0.0
11
277.239842000000
21
133.490158000000
31
0.0
0
LINE
5
8ce
100
AcDbEntity
8
A-0
6
CONTINUOUS
62
6
100
AcDbLine
10
202.109589000000
20
211.448838000000
30
0.0
11
218.308488000000
21
195.249939000000
31
0.0
0
LINE
5
8cf
100
AcDbEntity
8
A-0
6
CONTINUOUS
62
6
100
AcDbLine
10
259.495386000000
20
154.063041000000
30
0.0
11
279.323946000000
21
134.234481000000
31
0.0
0
LINE
5
8d0
100
AcDbEntity
8
A-0
6
CONTINUOUS
62
6
100
AcDbLine
10
203.311139000000
20
213.075715000000
30
0.0
11
219.537149000000
21
196.849705000000
31
0.0
0
LINE
5
8d1
100
AcDbEntity
8
A-0
6
CONTINUOUS
62
6
100
AcDbLine
10
255.045875000000
20
161.340979000000
30
0.0
11
281.408050000000
21
134.978804000000
31
0.0
0
LINE
5
8d2
100
AcDbEntity
8
A-0
6
CONTINUOUS
62
6
100
AcDbLine
10
204.512688000000
20
214.702593000000
30
0.0
11
220.765809000000
21
198.449471000000
31
0.0
0
LINE
5
8d3
100
AcDbEntity
8
A-0
6
CONTINUOUS
62
6
100
AcDbLine
10
250.596365000000
20
168.618916000000
30
0.0
11
283.506049000000
21
135.709232000000
31
0.0
0
LINE
5
8d4
100
AcDbEntity
8
A-0
6
CONTINUOUS
62
6
100
AcDbLine
10
205.714238000000
20
216.329470000000
30
0.0
11
221.994470000000
21
200.049238000000
31
0.0
0
LINE
5
8d5
100
AcDbEntity
8
A-0
6
CONTINUOUS
62
6
100
AcDbLine
10
246.146854000000
20
175.896854000000
30
0.0
11
285.681762000000
21
136.361946000000
31
0.0
0
LINE
5
8d6
100
AcDbEntity
8
A-0
6
CONTINUOUS
62
6
100
AcDbLine
10
206.915788000000
20
217.956347000000
30
0.0
11
223.223131000000
21
201.649004000000
31
0.0
0
LINE
5
8d7
100
AcDbEntity
8
A-0
6
CONTINUOUS
62
6
100
AcDbLine
10
241.697344000000
20
183.174792000000
30
0.0
11
287.857475000000
21
137.014660000000
31
0.0
0
LINE
5
8d8
100
AcDbEntity
8
A-0
6
CONTINUOUS
62
6
100
AcDbLine
10
208.117338000000
20
219.583224000000
30
0.0
11
224.451792000000
21
203.248771000000
31
0.0
0
LINE
5
8d9
100
AcDbEntity
8
A-0
6
CONTINUOUS
62
6
100
AcDbLine
10
237.247833000000
20
190.452729000000
30
0.0
11
290.033188000000
21
137.667374000000
31
0.0
0
LINE
5
8da
100
AcDbEntity
8
A-0
6
CONTINUOUS
62
6
100
AcDbLine
10
209.318888000000
20
221.210102000000
30
0.0
11
225.680452000000
21
204.848537000000
31
0.0
0
LINE
5
8db
100
AcDbEntity
8
A-0
6
CONTINUOUS
62
6
100
AcDbLine
10
232.798322000000
20
197.730667000000
30
0.0
11
292.208902000000
21
138.320088000000
31
0.0
0
LINE
5
8dc
100
AcDbEntity
8
A-0
6
CONTINUOUS
62
6
100
AcDbLine
10
210.520438000000
20
222.836979000000
30
0.0
11
226.909113000000
21
206.448304000000
31
0.0
0
LINE
5
8dd
100
AcDbEntity
8
A-0
6
CONTINUOUS
62
6
100
AcDbLine
10
228.348812000000
20
205.008605000000
30
0.0
11
294.188227000000
21
139.169189000000
31
0.0
0
LINE
5
8de
100
AcDbEntity
8
A-0
6
CONTINUOUS
62
6
100
AcDbLine
10
211.721988000000
20
224.463856000000
30
0.0
11
295.372220000000
21
140.813624000000
31
0.0
0
LINE
5
8df
100
AcDbEntity
8
A-0
6
CONTINUOUS
62
6
100
AcDbLine
10
212.923537000000
20
226.090733000000
30
0.0
11
296.556213000000
21
142.458058000000
31
0.0
0
LINE
5
8e0
100
AcDbEntity
8
A-0
6
CONTINUOUS
62
6
100
AcDbLine
10
213.982312000000
20
227.860386000000
30
0.0
11
251.322873000000
21
190.519825000000
31
0.0
0
LINE
5
8e1
100
AcDbEntity
8
A-0
6
CONTINUOUS
62
6
100
AcDbLine
10
252.032190000000
20
189.810508000000
30
0.0
11
297.331374000000
21
144.511324000000
31
0.0
0
LINE
5
8e2
100
AcDbEntity
8
A-0
6
CONTINUOUS
62
6
100
AcDbLine
10
213.982312000000
20
230.688813000000
30
0.0
11
252.358149000000
21
192.312976000000
31
0.0
0
LINE
5
8e3
100
AcDbEntity
8
A-0
6
CONTINUOUS
62
6
100
AcDbLine
10
254.860617000000
20
189.810508000000
30
0.0
11
296.657523000000
21
148.013602000000
31
0.0
0
LINE
5
8e4
100
AcDbEntity
8
A-0
6
CONTINUOUS
62
6
100
AcDbLine
10
214.247336000000
20
233.252216000000
30
0.0
11
253.393425000000
21
194.106127000000
31
0.0
0
LINE
5
8e5
100
AcDbEntity
8
A-0
6
CONTINUOUS
62
6
100
AcDbLine
10
257.689044000000
20
189.810508000000
30
0.0
11
294.117642000000
21
153.381910000000
31
0.0
0
LINE
5
8e6
100
AcDbEntity
8
A-0
6
CONTINUOUS
62
6
100
AcDbLine
10
215.095865000000
20
235.232115000000
30
0.0
11
254.428702000000
21
195.899278000000
31
0.0
0
LINE
5
8e7
100
AcDbEntity
8
A-0
6
CONTINUOUS
62
6
100
AcDbLine
10
260.517472000000
20
189.810508000000
30
0.0
11
290.222997000000
21
160.104983000000
31
0.0
0
LINE
5
8e8
100
AcDbEntity
8
A-0
6
CONTINUOUS
62
6
100
AcDbLine
10
216.267699000000
20
236.888708000000
30
0.0
11
255.463978000000
21
197.692429000000
31
0.0
0
LINE
5
8e9
100
AcDbEntity
8
A-0
6
CONTINUOUS
62
6
100
AcDbLine
10
263.345899000000
20
189.810508000000
30
0.0
11
286.328351000000
21
166.828055000000
31
0.0
0
LINE
5
8ea
100
AcDbEntity
8
A-0
6
CONTINUOUS
62
6
100
AcDbLine
10
217.598723000000
20
238.386110000000
30
0.0
11
256.499254000000
21
199.485580000000
31
0.0
0
LINE
5
8eb
100
AcDbEntity
8
A-0
6
CONTINUOUS
62
6
100
AcDbLine
10
266.174326000000
20
189.810508000000
30
0.0
11
282.433706000000
21
173.551128000000
31
0.0
0
LINE
5
8ec
100
AcDbEntity
8
A-0
6
CONTINUOUS
62
6
100
AcDbLine
10
218.929748000000
20
239.883513000000
30
0.0
11
257.534530000000
21
201.278730000000
31
0.0
0
LINE
5
8ed
100
AcDbEntity
8
A-0
6
CONTINUOUS
62
6
100
AcDbLine
10
269.002753000000
20
189.810508000000
30
0.0
11
278.539060000000
21
180.274200000000
31
0.0
0
LINE
5
8ee
100
AcDbEntity
8
A-0
6
CONTINUOUS
62
6
100
AcDbLine
10
220.319152000000
20
241.322536000000
30
0.0
11
258.569806000000
21
203.071881000000
31
0.0
0
LINE
5
8ef
100
AcDbEntity
8
A-0
6
CONTINUOUS
62
6
100
AcDbLine
10
271.831180000000
20
189.810508000000
30
0.0
11
274.644415000000
21
186.997273000000
31
0.0
0
LINE
5
8f0
100
AcDbEntity
8
A-0
6
CONTINUOUS
62
6
100
AcDbLine
10
221.476236000000
20
242.993879000000
30
0.0
11
259.605083000000
21
204.865032000000
31
0.0
0
LINE
5
8f1
100
AcDbEntity
8
A-0
6
CONTINUOUS
62
6
100
AcDbLine
10
222.968762000000
20
244.329780000000
30
0.0
11
260.640359000000
21
206.658183000000
31
0.0
0
LINE
5
8f2
100
AcDbEntity
8
A-0
6
CONTINUOUS
62
6
100
AcDbLine
10
225.464433000000
20
244.662536000000
30
0.0
11
261.675635000000
21
208.451334000000
31
0.0
0
LINE
5
8f3
100
AcDbEntity
8
A-0
6
CONTINUOUS
62
6
100
AcDbLine
10
227.854602000000
20
245.100794000000
30
0.0
11
258.173180000000
21
214.782216000000
31
0.0
0
LINE
5
8f4
100
AcDbEntity
8
A-0
6
CONTINUOUS
62
6
100
AcDbLine
10
230.226831000000
20
245.556992000000
30
0.0
11
253.899112000000
21
221.884711000000
31
0.0
0
LINE
5
8f5
100
AcDbEntity
8
A-0
6
CONTINUOUS
62
6
100
AcDbLine
10
232.837257000000
20
245.774994000000
30
0.0
11
249.625045000000
21
228.987206000000
31
0.0
0
LINE
5
8f6
100
AcDbEntity
8
A-0
6
CONTINUOUS
62
6
100
AcDbLine
10
236.607074000000
20
244.833604000000
30
0.0
11
244.614507000000
21
236.826171000000
31
0.0
0
LINE
5
8f7
100
AcDbEntity
8
A-0
6
CONTINUOUS
62
6
100
AcDbLine
10
304.223164000000
20
220.387182000000
30
0.0
11
304.223164000000
21
249.627418000000
31
0.0
0
LINE
5
8f8
100
AcDbEntity
8
A-0
6
CONTINUOUS
62
6
100
AcDbLine
10
302.223164000000
20
220.806020000000
30
0.0
11
302.223164000000
21
249.208579000000
31
0.0
0
LINE
5
8f9
100
AcDbEntity
8
A-0
6
CONTINUOUS
62
6
100
AcDbLine
10
300.223164000000
20
221.531216000000
30
0.0
11
300.223164000000
21
248.483383000000
31
0.0
0
LINE
5
8fa
100
AcDbEntity
8
A-0
6
CONTINUOUS
62
6
100
AcDbLine
10
298.223164000000
20
222.616444000000
30
0.0
11
298.223164000000
21
247.398156000000
31
0.0
0
LINE
5
8fb
100
AcDbEntity
8
A-0
6
CONTINUOUS
62
6
100
AcDbLine
10
296.223164000000
20
224.169321000000
30
0.0
11
296.223164000000
21
245.845279000000
31
0.0
0
LINE
5
8fc
100
AcDbEntity
8
A-0
6
CONTINUOUS
62
6
100
AcDbLine
10
294.223164000000
20
226.440487000000
30
0.0
11
294.223164000000
21
243.574112000000
31
0.0
0
LINE
5
8fd
100
AcDbEntity
8
A-0
6
CONTINUOUS
62
6
100
AcDbLine
10
292.223164000000
20
230.390076000000
30
0.0
11
292.223164000000
21
239.624524000000
31
0.0
0
LINE
5
8fe
100
AcDbEntity
8
A-0
6
CONTINUOUS
62
6
100
AcDbLine
10
251.132753000000
20
190.190527000000
30
0.0
11
293.693944000000
21
190.190527000000
31
0.0
0
LINE
5
8ff
100
AcDbEntity
8
A-0
6
CONTINUOUS
62
6
100
AcDbLine
10
252.287454000000
20
192.190527000000
30
0.0
11
292.539244000000
21
192.190527000000
31
0.0
0
LINE
5
900
100
AcDbEntity
8
A-0
6
CONTINUOUS
62
6
100
AcDbLine
10
253.442154000000
20
194.190527000000
30
0.0
11
291.384543000000
21
194.190527000000
31
0.0
0
LINE
5
901
100
AcDbEntity
8
A-0
6
CONTINUOUS
62
6
100
AcDbLine
10
254.596855000000
20
196.190527000000
30
0.0
11
290.229843000000
21
196.190527000000
31
0.0
0
LINE
5
902
100
AcDbEntity
8
A-0
6
CONTINUOUS
62
6
100
AcDbLine
10
255.751555000000
20
198.190527000000
30
0.0
11
289.075142000000
21
198.190527000000
31
0.0
0
LINE
5
903
100
AcDbEntity
8
A-0
6
CONTINUOUS
62
6
100
AcDbLine
10
256.906256000000
20
200.190527000000
30
0.0
11
287.920442000000
21
200.190527000000
31
0.0
0
LINE
5
904
100
AcDbEntity
8
A-0
6
CONTINUOUS
62
6
100
AcDbLine
10
258.060956000000
20
202.190527000000
30
0.0
11
286.765741000000
21
202.190527000000
31
0.0
0
LINE
5
905
100
AcDbEntity
8
A-0
6
CONTINUOUS
62
6
100
AcDbLine
10
259.215657000000
20
204.190527000000
30
0.0
11
285.611041000000
21
204.190527000000
31
0.0
0
LINE
5
906
100
AcDbEntity
8
A-0
6
CONTINUOUS
62
6
100
AcDbLine
10
260.370357000000
20
206.190527000000
30
0.0
11
284.456340000000
21
206.190527000000
31
0.0
0
LINE
5
907
100
AcDbEntity
8
A-0
6
CONTINUOUS
62
6
100
AcDbLine
10
261.525058000000
20
208.190527000000
30
0.0
11
283.301639000000
21
208.190527000000
31
0.0
0
LINE
5
908
100
AcDbEntity
8
A-0
6
CONTINUOUS
62
6
100
AcDbLine
10
262.679758000000
20
210.190527000000
30
0.0
11
282.146939000000
21
210.190527000000
31
0.0
0
LINE
5
909
100
AcDbEntity
8
A-0
6
CONTINUOUS
62
6
100
AcDbLine
10
263.834459000000
20
212.190527000000
30
0.0
11
280.992238000000
21
212.190527000000
31
0.0
0
LINE
5
90a
100
AcDbEntity
8
A-0
6
CONTINUOUS
62
6
100
AcDbLine
10
264.989160000000
20
214.190527000000
30
0.0
11
279.837538000000
21
214.190527000000
31
0.0
0
LINE
5
90b
100
AcDbEntity
8
A-0
6
CONTINUOUS
62
6
100
AcDbLine
10
266.143860000000
20
216.190527000000
30
0.0
11
278.682837000000
21
216.190527000000
31
0.0
0
LINE
5
90c
100
AcDbEntity
8
A-0
6
CONTINUOUS
62
6
100
AcDbLine
10
267.298561000000
20
218.190527000000
30
0.0
11
277.528137000000
21
218.190527000000
31
0.0
0
LINE
5
90d
100
AcDbEntity
8
A-0
6
CONTINUOUS
62
6
100
AcDbLine
10
268.453261000000
20
220.190527000000
30
0.0
11
276.373436000000
21
220.190527000000
31
0.0
0
LINE
5
90e
100
AcDbEntity
8
A-0
6
CONTINUOUS
62
6
100
AcDbLine
10
269.607962000000
20
222.190527000000
30
0.0
11
275.218736000000
21
222.190527000000
31
0.0
0
LINE
5
90f
100
AcDbEntity
8
A-0
6
CONTINUOUS
62
6
100
AcDbLine
10
270.762662000000
20
224.190527000000
30
0.0
11
274.064035000000
21
224.190527000000
31
0.0
0
LINE
5
910
100
AcDbEntity
8
A-0
6
CONTINUOUS
62
6
100
AcDbLine
10
271.917363000000
20
226.190527000000
30
0.0
11
272.909335000000
21
226.190527000000
31
0.0
0
LINE
5
911
100
AcDbEntity
8
A-0
6
CONTINUOUS
62
6
100
AcDbLine
10
292.223164000000
20
189.810508000000
30
0.0
11
292.223164000000
21
192.737993000000
31
0.0
0
LINE
5
912
100
AcDbEntity
8
A-0
6
CONTINUOUS
62
6
100
AcDbLine
10
290.223164000000
20
189.810508000000
30
0.0
11
290.223164000000
21
196.202095000000
31
0.0
0
LINE
5
913
100
AcDbEntity
8
A-0
6
CONTINUOUS
62
6
100
AcDbLine
10
288.223164000000
20
189.810508000000
30
0.0
11
288.223164000000
21
199.666196000000
31
0.0
0
LINE
5
914
100
AcDbEntity
8
A-0
6
CONTINUOUS
62
6
100
AcDbLine
10
286.223164000000
20
189.810508000000
30
0.0
11
286.223164000000
21
203.130298000000
31
0.0
0
LINE
5
915
100
AcDbEntity
8
A-0
6
CONTINUOUS
62
6
100
AcDbLine
10
284.223164000000
20
189.810508000000
30
0.0
11
284.223164000000
21
206.594400000000
31
0.0
0
LINE
5
916
100
AcDbEntity
8
A-0
6
CONTINUOUS
62
6
100
AcDbLine
10
282.223164000000
20
189.810508000000
30
0.0
11
282.223164000000
21
210.058501000000
31
0.0
0
LINE
5
917
100
AcDbEntity
8
A-0
6
CONTINUOUS
62
6
100
AcDbLine
10
280.223164000000
20
189.810508000000
30
0.0
11
280.223164000000
21
213.522603000000
31
0.0
0
LINE
5
918
100
AcDbEntity
8
A-0
6
CONTINUOUS
62
6
100
AcDbLine
10
278.223164000000
20
189.810508000000
30
0.0
11
278.223164000000
21
216.986704000000
31
0.0
0
LINE
5
919
100
AcDbEntity
8
A-0
6
CONTINUOUS
62
6
100
AcDbLine
10
276.223164000000
20
189.810508000000
30
0.0
11
276.223164000000
21
220.450806000000
31
0.0
0
LINE
5
91a
100
AcDbEntity
8
A-0
6
CONTINUOUS
62
6
100
AcDbLine
10
274.223164000000
20
189.810508000000
30
0.0
11
274.223164000000
21
223.914908000000
31
0.0
0
LINE
5
91b
100
AcDbEntity
8
A-0
6
CONTINUOUS
62
6
100
AcDbLine
10
272.223164000000
20
189.810508000000
30
0.0
11
272.223164000000
21
226.720191000000
31
0.0
0
LINE
5
91c
100
AcDbEntity
8
A-0
6
CONTINUOUS
62
6
100
AcDbLine
10
270.223164000000
20
189.810508000000
30
0.0
11
270.223164000000
21
223.256089000000
31
0.0
0
LINE
5
91d
100
AcDbEntity
8
A-0
6
CONTINUOUS
62
6
100
AcDbLine
10
268.223164000000
20
189.810508000000
30
0.0
11
268.223164000000
21
219.791988000000
31
0.0
0
LINE
5
91e
100
AcDbEntity
8
A-0
6
CONTINUOUS
62
6
100
AcDbLine
10
266.223164000000
20
189.810508000000
30
0.0
11
266.223164000000
21
216.327886000000
31
0.0
0
LINE
5
91f
100
AcDbEntity
8
A-0
6
CONTINUOUS
62
6
100
AcDbLine
10
264.223164000000
20
189.810508000000
30
0.0
11
264.223164000000
21
212.863784000000
31
0.0
0
LINE
5
920
100
AcDbEntity
8
A-0
6
CONTINUOUS
62
6
100
AcDbLine
10
262.223164000000
20
189.810508000000
30
0.0
11
262.223164000000
21
209.399683000000
31
0.0
0
LINE
5
921
100
AcDbEntity
8
A-0
6
CONTINUOUS
62
6
100
AcDbLine
10
260.223164000000
20
189.810508000000
30
0.0
11
260.223164000000
21
205.935581000000
31
0.0
0
LINE
5
922
100
AcDbEntity
8
A-0
6
CONTINUOUS
62
6
100
AcDbLine
10
258.223164000000
20
189.810508000000
30
0.0
11
258.223164000000
21
202.471480000000
31
0.0
0
LINE
5
923
100
AcDbEntity
8
A-0
6
CONTINUOUS
62
6
100
AcDbLine
10
256.223164000000
20
189.810508000000
30
0.0
11
256.223164000000
21
199.007378000000
31
0.0
0
LINE
5
924
100
AcDbEntity
8
A-0
6
CONTINUOUS
62
6
100
AcDbLine
10
254.223164000000
20
189.810508000000
30
0.0
11
254.223164000000
21
195.543276000000
31
0.0
0
LINE
5
925
100
AcDbEntity
8
A-0
6
CONTINUOUS
62
6
100
AcDbLine
10
252.223164000000
20
189.810508000000
30
0.0
11
252.223164000000
21
192.079175000000
31
0.0
0
LINE
5
926
100
AcDbEntity
8
B-0
6
CONTINUOUS
62
6
100
AcDbLine
10
1562.232787000000
20
211.675610000000
30
0.0
11
1562.232787000000
21
99.175610000000
31
0.0
0
LINE
5
927
100
AcDbEntity
8
B-0
6
CONTINUOUS
62
6
100
AcDbLine
10
1712.232787000000
20
211.675610000000
30
0.0
11
1712.232787000000
21
99.175610000000
31
0.0
0
LINE
5
928
100
AcDbEntity
8
B-0
6
CONTINUOUS
62
6
100
AcDbLine
10
2012.232787000000
20
181.675610000000
30
0.0
11
1362.232787000000
21
181.675610000000
31
0.0
0
LINE
5
929
100
AcDbEntity
8
B-0
6
CONTINUOUS
62
6
100
AcDbLine
10
1812.232787000000
20
279.175610000000
30
0.0
11
1812.232787000000
21
99.175610000000
31
0.0
0
LINE
5
92a
100
AcDbEntity
8
B-0
6
CONTINUOUS
62
6
100
AcDbLine
10
1912.232787000000
20
279.175610000000
30
0.0
11
1912.232787000000
21
99.175610000000
31
0.0
0
LINE
5
92b
100
AcDbEntity
8
B-0
6
CONTINUOUS
62
6
100
AcDbLine
10
2012.232787000000
20
245.425610000000
30
0.0
11
1912.232787000000
21
245.425610000000
31
0.0
0
LINE
5
92c
100
AcDbEntity
8
B-0
6
CONTINUOUS
62
6
100
AcDbLine
10
2012.232787000000
20
211.675610000000
30
0.0
11
1362.232787000000
21
211.675610000000
31
0.0
0
CIRCLE
5
92d
100
AcDbEntity
8
2-0
6
CONTINUOUS
62
2
100
AcDbCircle
10
1837.232787000000
20
245.425610000000
30
0.0
40
20.000000000000
0
CIRCLE
5
92e
100
AcDbEntity
8
2-0
6
CONTINUOUS
62
2
100
AcDbCircle
10
1837.232787000000
20
245.425610000000
30
0.0
40
10.000000000000
0
LINE
5
92f
100
AcDbEntity
8
D-0
6
CENTER2
62
16
100
AcDbLine
10
1837.232787000000
20
270.425610000000
30
0.0
11
1837.232787000000
21
220.425610000000
31
0.0
0
LINE
5
930
100
AcDbEntity
8
2-0
6
CONTINUOUS
62
2
100
AcDbLine
10
1867.232787000000
20
255.425610000000
30
0.0
11
1902.232787000000
21
265.425610000000
31
0.0
0
LINE
5
931
100
AcDbEntity
8
2-0
6
CONTINUOUS
62
2
100
AcDbLine
10
1902.232787000000
20
265.425610000000
30
0.0
11
1902.232787000000
21
225.425610000000
31
0.0
0
LINE
5
932
100
AcDbEntity
8
2-0
6
CONTINUOUS
62
2
100
AcDbLine
10
1867.232787000000
20
235.425610000000
30
0.0
11
1902.232787000000
21
225.425610000000
31
0.0
0
LINE
5
933
100
AcDbEntity
8
2-0
6
CONTINUOUS
62
2
100
AcDbLine
10
1867.232787000000
20
255.425610000000
30
0.0
11
1867.232787000000
21
235.425610000000
31
0.0
0
LINE
5
934
100
AcDbEntity
8
D-0
6
CENTER2
62
16
100
AcDbLine
10
1812.232787000000
20
245.425610000000
30
0.0
11
1907.232787000000
21
245.425610000000
31
0.0
0
LINE
5
935
100
AcDbEntity
8
B-0
6
CONTINUOUS
62
6
100
AcDbLine
10
1362.232787000000
20
189.175610000000
30
0.0
11
687.767218000000
21
189.175610000000
31
0.0
0
LINE
5
936
100
AcDbEntity
8
B-0
6
CONTINUOUS
62
6
100
AcDbLine
10
687.767218000000
20
99.175610000000
30
0.0
11
687.767218000000
21
279.175610000000
31
0.0
0
TEXT
5
937
100
AcDbEntity
8
E-0
62
4
100
AcDbText
10
697.767
20
252.477
30
0.0
40
25.600
1
品番
41
1.000
50
0.000
100
AcDbText
0
TEXT
5
938
100
AcDbEntity
8
E-0
62
4
100
AcDbText
10
697.767
20
162.516
30
0.0
40
25.600
1
名称
41
1.000
50
0.000
100
AcDbText
0
TEXT
5
939
100
AcDbEntity
8
E-0
62
4
100
AcDbText
10
1840.640
20
183.593
30
0.0
40
25.600
1
検図
41
1.000
50
0.000
100
AcDbText
0
LINE
5
93a
100
AcDbEntity
8
B-0
6
CONTINUOUS
62
6
100
AcDbLine
10
87.767218000000
20
279.175610000000
30
0.0
11
87.767218000000
21
99.175610000000
31
0.0
0
TEXT
5
93b
100
AcDbEntity
8
E-0
62
4
100
AcDbText
10
1940.899
20
249.741
30
0.0
40
25.600
1
単位
41
1.000
50
0.000
100
AcDbText
0
TEXT
5
93c
100
AcDbEntity
8
E-0
62
4
100
AcDbText
10
1933.661
20
219.324
30
0.0
40
25.600
1
mm
41
1.000
50
0.000
100
AcDbText
0
TEXT
5
93d
100
AcDbEntity
8
E-0
62
4
100
AcDbText
10
1574.757
20
127.866
30
0.0
40
25.600
1
S=1：10
41
1.000
50
0.000
100
AcDbText
0
TEXT
5
93e
100
AcDbEntity
8
E-0
62
4
100
AcDbText
10
1394.138
20
127.866
30
0.0
40
25.600
1
10.10.12
41
1.000
50
0.000
100
AcDbText
0
TEXT
5
93f
100
AcDbEntity
8
E-0
62
4
100
AcDbText
10
1741.566
20
127.866
30
0.0
40
25.600
1
竹内
41
1.000
50
0.000
100
AcDbText
0
TEXT
5
940
100
AcDbEntity
8
E-0
62
4
100
AcDbText
10
1439.566
20
184.116
30
0.0
40
25.600
1
日付
41
1.000
50
0.000
100
AcDbText
0
TEXT
5
941
100
AcDbEntity
8
E-0
62
4
100
AcDbText
10
1591.519
20
184.116
30
0.0
40
25.600
1
SCALE
41
1.000
50
0.000
100
AcDbText
0
TEXT
5
942
100
AcDbEntity
8
E-0
62
4
100
AcDbText
10
1741.566
20
184.116
30
0.0
40
25.600
1
製図
41
1.000
50
0.000
100
AcDbText
0
TEXT
5
943
100
AcDbEntity
8
E-0
62
4
100
AcDbText
10
899.286
20
209.056
30
0.0
40
51.200
1
GI-L910
41
1.000
50
0.000
100
AcDbText
0
TEXT
5
944
100
AcDbEntity
8
E-0
62
4
100
AcDbText
10
964.048
20
119.056
30
0.0
40
51.200
1
Oval
41
1.000
50
0.000
100
AcDbText
0
TEXT
5
945
100
AcDbEntity
8
E-0
62
4
100
AcDbText
10
114.401
20
310.340
30
0.0
40
25.600
1
焼成による寸法誤差が生じることがありますので予めご了承下さい。
41
1.000
50
0.000
100
AcDbText
0
TEXT
5
946
100
AcDbEntity
8
E-0
62
4
100
AcDbText
10
115.810
20
340.993
30
0.0
40
25.600
1
深さ：75mm
41
1.000
50
0.000
100
AcDbText
0
TEXT
5
947
100
AcDbEntity
8
E-0
62
4
100
AcDbText
10
113.821
20
371.784
30
0.0
40
25.600
1
タイプ：置型
41
1.000
50
0.000
100
AcDbText
0
TEXT
5
948
100
AcDbEntity
8
E-0
62
4
100
AcDbText
10
114.990
20
400.756
30
0.0
40
25.600
1
オーバーフロー：無（固定タイプ排水栓RP-147.555.5のご使用をおすすめします。）
41
1.000
50
0.000
100
AcDbText
0
ENDSEC
0
EOF
