0
SECTION
2
HEADER
9
$ACADVER
1
AC1009
9
$DWGCODEPAGE
3
ANSI_932
9
$EXTMIN
10
0.000
20
0.000
30
0.0
9
$EXTMAX
10
4752.000
20
3360.000
30
0.0
9
$LTSCALE
40
8.000
9
$PDMODE
70
0
9
$PDSIZE
40
40.0
0
ENDSEC
0
SECTION
2
TABLES
0
TABLE
2
LTYPE
70
9
0
LTYPE
5
1f4
2
CONTINUOUS
70
64
3
SolidLine
72
65
73
0
40
0.0
0
LTYPE
5
1f5
2
DOT
70
64
3
--  --  --  --  --  --  --  --     
72
65
73
2
40
3.000
49
1.000
49
-2.000
0
LTYPE
5
1f6
2
DASHED
70
64
3
----    ----    ----    ----    
72
65
73
2
40
5.000
49
2.000
49
-3.000
0
LTYPE
5
1f7
2
DASHED2
70
64
3
------  ------  ------  ------ 
72
65
73
2
40
10.000
49
4.000
49
-6.000
0
LTYPE
5
1f8
2
CENTER
70
64
3
----- - ----- - ----- - ----- - 
72
65
73
4
40
10.000
49
6.000
49
-3.000
49
1.000
49
-3.000
0
LTYPE
5
1f9
2
CENTER2
70
64
3
----------  --  ----------  -- 
72
65
73
4
40
17.000
49
12.000
49
-5.000
49
2.000
49
-5.000
0
LTYPE
5
1fa
2
PHANTOM
70
64
3
--- - - --- - - --- - - --- - -
72
65
73
6
40
13.000
49
5.000
49
-3.000
49
1.000
49
-3.000
49
1.000
49
-3.000
0
LTYPE
5
1fb
2
PHANTOM2
70
64
3
--------  -  -  --------  -  -
72
65
73
6
40
20.000
49
6.000
49
-5.000
49
2.000
49
-5.000
49
2.000
49
-5.000
0
LTYPE
5
1fc
2
HIDDEN
70
64
3
-   -   -   -   -   -   -   -   
72
65
73
2
40
3.000
49
0.500
49
-2.500
0
ENDTAB
0
TABLE
2
STYLE
70
1
0
STYLE
5
1fd
100
AcDbSymbolTableRecord
100
AcDbTextStyleTableRecord
2
STANDARD
70
0
40
0.0
41
1.0
50
0.0
71
0
42
0.0
3
txt.shx
4
extfont.shx
0
STYLE
5
1fe
100
AcDbSymbolTableRecord
100
AcDbTextStyleTableRecord
2
TATEGAKI
70
4
40
0.0
41
1.0
50
0.0
71
0
42
0.0
3
txt.shx
4
extfont.shx
0
STYLE
5
1ff
100
AcDbSymbolTableRecord
100
AcDbTextStyleTableRecord
2
DIM
70
0
40
0.0
41
0.75
50
0.0
71
0
42
0.0
3
txt.shx
4
extfont.shx
0
STYLE
5
200
100
AcDbSymbolTableRecord
100
AcDbTextStyleTableRecord
2
_Gothic__
70
0
40
0.0
41
1.0
50
0.0
71
0
42
0.0
3
MS Gothic
4

0
STYLE
5
201
100
AcDbSymbolTableRecord
100
AcDbTextStyleTableRecord
2
_TateGothic_
70
4
40
0.0
41
1.0
50
0.0
71
0
42
0.0
3
@MS Gothic
4

0
ENDTAB
0
TABLE
2
LAYER
5
403
100
AcDbSymbolTable
70
10
0
LAYER
5
404
100
AcDbSymbolTableRecord
100
AcDbLayerTableRecord
2
2-0
70
0
62
5
6
CONTINUOUS
0
LAYER
5
405
100
AcDbSymbolTableRecord
100
AcDbLayerTableRecord
2
3-0
70
0
62
7
6
CONTINUOUS
0
LAYER
5
406
100
AcDbSymbolTableRecord
100
AcDbLayerTableRecord
2
4-0
70
0
62
7
6
CONTINUOUS
0
LAYER
5
407
100
AcDbSymbolTableRecord
100
AcDbLayerTableRecord
2
5-0
70
0
62
-7
6
CONTINUOUS
0
LAYER
5
408
100
AcDbSymbolTableRecord
100
AcDbLayerTableRecord
2
6-0
70
0
62
-7
6
CONTINUOUS
0
LAYER
5
409
100
AcDbSymbolTableRecord
100
AcDbLayerTableRecord
2
9-0
70
0
62
7
6
CONTINUOUS
0
LAYER
5
40a
100
AcDbSymbolTableRecord
100
AcDbLayerTableRecord
2
A-0
70
0
62
5
6
CONTINUOUS
0
LAYER
5
40b
100
AcDbSymbolTableRecord
100
AcDbLayerTableRecord
2
B-0
70
0
62
6
6
CONTINUOUS
0
LAYER
5
40c
100
AcDbSymbolTableRecord
100
AcDbLayerTableRecord
2
C-0
70
0
62
6
6
CONTINUOUS
0
LAYER
5
40d
100
AcDbSymbolTableRecord
100
AcDbLayerTableRecord
2
D-0
70
0
62
3
6
CONTINUOUS
0
LAYER
5
40e
100
AcDbSymbolTableRecord
100
AcDbLayerTableRecord
2
E-0
70
0
62
1
6
CENTER2
0
LAYER
5
40f
100
AcDbSymbolTableRecord
100
AcDbLayerTableRecord
2
F-0
70
0
62
4
6
CONTINUOUS
0
ENDTAB
0
ENDSEC
0
SECTION
2
ENTITIES
0
LINE
5
410
100
AcDbEntity
8
C-0
6
CONTINUOUS
62
6
100
AcDbLine
10
2049.959528866013
20
2870.824391000000
30
0.0
11
2049.959528866013
21
99.175609000000
31
0.0
0
LINE
5
411
100
AcDbEntity
8
C-0
6
CONTINUOUS
62
6
100
AcDbLine
10
125.493959866013
20
99.175609000000
30
0.0
11
125.493959866013
21
2870.824391000000
31
0.0
0
LINE
5
412
100
AcDbEntity
8
C-0
6
CONTINUOUS
62
6
100
AcDbLine
10
125.493959866013
20
2870.824391000000
30
0.0
11
2049.959528866013
21
2870.824391000000
31
0.0
0
LINE
5
413
100
AcDbEntity
8
C-0
6
CONTINUOUS
62
6
100
AcDbLine
10
2049.959528866013
20
99.175609000000
30
0.0
11
125.493959866013
21
99.175609000000
31
0.0
0
LINE
5
414
100
AcDbEntity
8
C-0
6
CONTINUOUS
62
6
100
AcDbLine
10
1399.959528866013
20
279.175609000000
30
0.0
11
1399.959528866013
21
99.175609000000
31
0.0
0
LINE
5
415
100
AcDbEntity
8
C-0
6
CONTINUOUS
62
6
100
AcDbLine
10
2049.959528866013
20
279.175609000000
30
0.0
11
125.493959866013
21
279.175609000000
31
0.0
0
LINE
5
416
100
AcDbEntity
8
B-0
6
CONTINUOUS
62
6
100
AcDbLine
10
241.838370866013
20
133.984897000000
30
0.0
11
283.876868866013
21
133.984897000000
31
0.0
0
LINE
5
417
100
AcDbEntity
8
B-0
6
CONTINUOUS
62
6
100
AcDbLine
10
283.876868866013
20
133.984897000000
30
0.0
11
283.876868866013
21
176.082589000000
31
0.0
0
LINE
5
418
100
AcDbEntity
8
B-0
6
CONTINUOUS
62
6
100
AcDbLine
10
241.838370866013
20
176.082589000000
30
0.0
11
241.838370866013
21
133.984897000000
31
0.0
0
LINE
5
419
100
AcDbEntity
8
B-0
6
CONTINUOUS
62
6
100
AcDbLine
10
283.876868866013
20
176.082589000000
30
0.0
11
241.838370866013
21
176.082589000000
31
0.0
0
LINE
5
41a
100
AcDbEntity
8
B-0
6
CONTINUOUS
62
6
100
AcDbLine
10
288.640089866013
20
189.810507000000
30
0.0
11
310.140089866013
21
227.049599000000
31
0.0
0
LINE
5
41b
100
AcDbEntity
8
B-0
6
CONTINUOUS
62
6
100
AcDbLine
10
288.640089866013
20
189.810507000000
30
0.0
11
331.640089866013
21
189.810507000000
31
0.0
0
LINE
5
41c
100
AcDbEntity
8
B-0
6
CONTINUOUS
62
6
100
AcDbLine
10
310.140089866013
20
227.049599000000
30
0.0
11
331.640089866013
21
189.810507000000
31
0.0
0
CIRCLE
5
41d
100
AcDbEntity
8
B-0
6
CONTINUOUS
62
6
100
AcDbCircle
10
343.967784866013
20
235.007299000000
30
0.0
40
14.758716000000
0
LINE
5
41e
100
AcDbEntity
8
B-0
6
CONTINUOUS
62
6
100
AcDbLine
10
373.635743866013
20
155.949899000000
30
0.0
11
391.758393866013
21
155.949899000000
31
0.0
0
LINE
5
41f
100
AcDbEntity
8
B-0
6
CONTINUOUS
62
6
100
AcDbLine
10
396.421469866013
20
145.949899000000
30
0.0
11
402.483469866013
21
132.949899000000
31
0.0
0
LINE
5
420
100
AcDbEntity
8
B-0
6
CONTINUOUS
62
6
100
AcDbLine
10
368.972666866013
20
145.949899000000
30
0.0
11
362.910667866013
21
132.949899000000
31
0.0
0
LINE
5
421
100
AcDbEntity
8
B-0
6
CONTINUOUS
62
6
100
AcDbLine
10
382.697068866013
20
175.381973000000
30
0.0
11
391.758393866013
21
155.949899000000
31
0.0
0
LINE
5
422
100
AcDbEntity
8
B-0
6
CONTINUOUS
62
6
100
AcDbLine
10
382.697068866013
20
175.381973000000
30
0.0
11
373.635743866013
21
155.949899000000
31
0.0
0
LINE
5
423
100
AcDbEntity
8
B-0
6
CONTINUOUS
62
6
100
AcDbLine
10
376.747270866013
20
190.501179000000
30
0.0
11
349.910667866013
21
132.949899000000
31
0.0
0
LINE
5
424
100
AcDbEntity
8
B-0
6
CONTINUOUS
62
6
100
AcDbLine
10
455.175998866014
20
180.501179000000
30
0.0
11
455.924138866013
21
180.090612000000
31
0.0
0
LINE
5
425
100
AcDbEntity
8
B-0
6
CONTINUOUS
62
6
100
AcDbLine
10
455.924138866013
20
180.090612000000
30
0.0
11
457.200102866013
21
179.373316000000
31
0.0
0
LINE
5
426
100
AcDbEntity
8
B-0
6
CONTINUOUS
62
6
100
AcDbLine
10
457.200102866013
20
179.373316000000
30
0.0
11
458.437366866013
21
178.629853000000
31
0.0
0
LINE
5
427
100
AcDbEntity
8
B-0
6
CONTINUOUS
62
6
100
AcDbLine
10
458.437366866013
20
178.629853000000
30
0.0
11
459.611436866013
21
177.843660000000
31
0.0
0
LINE
5
428
100
AcDbEntity
8
B-0
6
CONTINUOUS
62
6
100
AcDbLine
10
459.611436866013
20
177.843660000000
30
0.0
11
460.697817866013
21
176.998176000000
31
0.0
0
LINE
5
429
100
AcDbEntity
8
B-0
6
CONTINUOUS
62
6
100
AcDbLine
10
460.697817866013
20
176.998176000000
30
0.0
11
461.672016866013
21
176.076838000000
31
0.0
0
LINE
5
42a
100
AcDbEntity
8
B-0
6
CONTINUOUS
62
6
100
AcDbLine
10
461.672016866013
20
176.076838000000
30
0.0
11
462.175998866014
21
175.501179000000
31
0.0
0
LINE
5
42b
100
AcDbEntity
8
B-0
6
CONTINUOUS
62
6
100
AcDbLine
10
462.175998866014
20
175.501179000000
30
0.0
11
462.895484866013
21
174.485834000000
31
0.0
0
LINE
5
42c
100
AcDbEntity
8
B-0
6
CONTINUOUS
62
6
100
AcDbLine
10
462.895484866013
20
174.485834000000
30
0.0
11
463.850040866013
21
172.544054000000
31
0.0
0
LINE
5
42d
100
AcDbEntity
8
B-0
6
CONTINUOUS
62
6
100
AcDbLine
10
463.850040866013
20
172.544054000000
30
0.0
11
464.494407866013
21
170.398528000000
31
0.0
0
LINE
5
42e
100
AcDbEntity
8
B-0
6
CONTINUOUS
62
6
100
AcDbLine
10
464.494407866013
20
170.398528000000
30
0.0
11
464.888772866013
21
168.093740000000
31
0.0
0
LINE
5
42f
100
AcDbEntity
8
B-0
6
CONTINUOUS
62
6
100
AcDbLine
10
464.888772866013
20
168.093740000000
30
0.0
11
465.093318866014
21
165.674179000000
31
0.0
0
LINE
5
430
100
AcDbEntity
8
B-0
6
CONTINUOUS
62
6
100
AcDbLine
10
465.093318866014
20
165.674179000000
30
0.0
11
465.168231866013
21
163.184328000000
31
0.0
0
LINE
5
431
100
AcDbEntity
8
B-0
6
CONTINUOUS
62
6
100
AcDbLine
10
465.168231866013
20
163.184328000000
30
0.0
11
465.175998866014
21
161.725539000000
31
0.0
0
LINE
5
432
100
AcDbEntity
8
B-0
6
CONTINUOUS
62
6
100
AcDbLine
10
465.175998866014
20
161.725539000000
30
0.0
11
465.168231866013
21
160.266750000000
31
0.0
0
LINE
5
433
100
AcDbEntity
8
B-0
6
CONTINUOUS
62
6
100
AcDbLine
10
465.168231866013
20
160.266750000000
30
0.0
11
465.093318866014
21
157.776899000000
31
0.0
0
LINE
5
434
100
AcDbEntity
8
B-0
6
CONTINUOUS
62
6
100
AcDbLine
10
465.093318866014
20
157.776899000000
30
0.0
11
464.888772866013
21
155.357338000000
31
0.0
0
LINE
5
435
100
AcDbEntity
8
B-0
6
CONTINUOUS
62
6
100
AcDbLine
10
464.888772866013
20
155.357338000000
30
0.0
11
464.494407866013
21
153.052550000000
31
0.0
0
LINE
5
436
100
AcDbEntity
8
B-0
6
CONTINUOUS
62
6
100
AcDbLine
10
464.494407866013
20
153.052550000000
30
0.0
11
463.850040866013
21
150.907024000000
31
0.0
0
LINE
5
437
100
AcDbEntity
8
B-0
6
CONTINUOUS
62
6
100
AcDbLine
10
463.850040866013
20
150.907024000000
30
0.0
11
462.895484866013
21
148.965244000000
31
0.0
0
LINE
5
438
100
AcDbEntity
8
B-0
6
CONTINUOUS
62
6
100
AcDbLine
10
462.895484866013
20
148.965244000000
30
0.0
11
462.175998866014
21
147.949899000000
31
0.0
0
LINE
5
439
100
AcDbEntity
8
B-0
6
CONTINUOUS
62
6
100
AcDbLine
10
462.175998866014
20
147.949899000000
30
0.0
11
461.672016866013
21
147.374240000000
31
0.0
0
LINE
5
43a
100
AcDbEntity
8
B-0
6
CONTINUOUS
62
6
100
AcDbLine
10
461.672016866013
20
147.374240000000
30
0.0
11
460.697817866013
21
146.452902000000
31
0.0
0
LINE
5
43b
100
AcDbEntity
8
B-0
6
CONTINUOUS
62
6
100
AcDbLine
10
460.697817866013
20
146.452902000000
30
0.0
11
459.611436866013
21
145.607418000000
31
0.0
0
LINE
5
43c
100
AcDbEntity
8
B-0
6
CONTINUOUS
62
6
100
AcDbLine
10
459.611436866013
20
145.607418000000
30
0.0
11
458.437366866013
21
144.821225000000
31
0.0
0
LINE
5
43d
100
AcDbEntity
8
B-0
6
CONTINUOUS
62
6
100
AcDbLine
10
458.437366866013
20
144.821225000000
30
0.0
11
457.200102866013
21
144.077762000000
31
0.0
0
LINE
5
43e
100
AcDbEntity
8
B-0
6
CONTINUOUS
62
6
100
AcDbLine
10
457.200102866013
20
144.077762000000
30
0.0
11
455.924138866013
21
143.360466000000
31
0.0
0
LINE
5
43f
100
AcDbEntity
8
B-0
6
CONTINUOUS
62
6
100
AcDbLine
10
455.924138866013
20
143.360466000000
30
0.0
11
455.175998866014
21
142.949899000000
31
0.0
0
LINE
5
440
100
AcDbEntity
8
B-0
6
CONTINUOUS
62
6
100
AcDbLine
10
455.175998866014
20
132.949899000000
30
0.0
11
455.830885866013
21
133.119437000000
31
0.0
0
LINE
5
441
100
AcDbEntity
8
B-0
6
CONTINUOUS
62
6
100
AcDbLine
10
455.830885866013
20
133.119437000000
30
0.0
11
456.960659866013
21
133.414681000000
31
0.0
0
LINE
5
442
100
AcDbEntity
8
B-0
6
CONTINUOUS
62
6
100
AcDbLine
10
456.960659866013
20
133.414681000000
30
0.0
11
458.092259866013
21
133.718084000000
31
0.0
0
LINE
5
443
100
AcDbEntity
8
B-0
6
CONTINUOUS
62
6
100
AcDbLine
10
458.092259866013
20
133.718084000000
30
0.0
11
459.226843866014
21
134.034810000000
31
0.0
0
LINE
5
444
100
AcDbEntity
8
B-0
6
CONTINUOUS
62
6
100
AcDbLine
10
459.226843866014
20
134.034810000000
30
0.0
11
460.365566866013
21
134.370023000000
31
0.0
0
LINE
5
445
100
AcDbEntity
8
B-0
6
CONTINUOUS
62
6
100
AcDbLine
10
460.365566866013
20
134.370023000000
30
0.0
11
461.509585866013
21
134.728886000000
31
0.0
0
LINE
5
446
100
AcDbEntity
8
B-0
6
CONTINUOUS
62
6
100
AcDbLine
10
461.509585866013
20
134.728886000000
30
0.0
11
462.175998866014
21
134.949899000000
31
0.0
0
LINE
5
447
100
AcDbEntity
8
B-0
6
CONTINUOUS
62
6
100
AcDbLine
10
462.175998866014
20
134.949899000000
30
0.0
11
463.501040866013
21
135.419726000000
31
0.0
0
LINE
5
448
100
AcDbEntity
8
B-0
6
CONTINUOUS
62
6
100
AcDbLine
10
463.501040866013
20
135.419726000000
30
0.0
11
465.770066866013
21
136.341132000000
31
0.0
0
LINE
5
449
100
AcDbEntity
8
B-0
6
CONTINUOUS
62
6
100
AcDbLine
10
465.770066866013
20
136.341132000000
30
0.0
11
467.962565866013
21
137.422754000000
31
0.0
0
LINE
5
44a
100
AcDbEntity
8
B-0
6
CONTINUOUS
62
6
100
AcDbLine
10
467.962565866013
20
137.422754000000
30
0.0
11
470.012412866013
21
138.686985000000
31
0.0
0
LINE
5
44b
100
AcDbEntity
8
B-0
6
CONTINUOUS
62
6
100
AcDbLine
10
470.012412866013
20
138.686985000000
30
0.0
11
471.853479866013
21
140.156217000000
31
0.0
0
LINE
5
44c
100
AcDbEntity
8
B-0
6
CONTINUOUS
62
6
100
AcDbLine
10
471.853479866013
20
140.156217000000
30
0.0
11
473.419642866013
21
141.852842000000
31
0.0
0
LINE
5
44d
100
AcDbEntity
8
B-0
6
CONTINUOUS
62
6
100
AcDbLine
10
473.419642866013
20
141.852842000000
30
0.0
11
474.175998866014
21
142.949899000000
31
0.0
0
LINE
5
44e
100
AcDbEntity
8
B-0
6
CONTINUOUS
62
6
100
AcDbLine
10
474.175998866014
20
142.949899000000
30
0.0
11
474.426703866013
21
143.381745000000
31
0.0
0
LINE
5
44f
100
AcDbEntity
8
B-0
6
CONTINUOUS
62
6
100
AcDbLine
10
474.426703866013
20
143.381745000000
30
0.0
11
474.820796866013
21
144.152066000000
31
0.0
0
LINE
5
450
100
AcDbEntity
8
B-0
6
CONTINUOUS
62
6
100
AcDbLine
10
474.820796866013
20
144.152066000000
30
0.0
11
475.172077866014
21
144.950179000000
31
0.0
0
LINE
5
451
100
AcDbEntity
8
B-0
6
CONTINUOUS
62
6
100
AcDbLine
10
475.172077866014
20
144.950179000000
30
0.0
11
475.486928866013
21
145.770485000000
31
0.0
0
LINE
5
452
100
AcDbEntity
8
B-0
6
CONTINUOUS
62
6
100
AcDbLine
10
475.486928866013
20
145.770485000000
30
0.0
11
475.771731866013
21
146.607386000000
31
0.0
0
LINE
5
453
100
AcDbEntity
8
B-0
6
CONTINUOUS
62
6
100
AcDbLine
10
475.771731866013
20
146.607386000000
30
0.0
11
476.032868866013
21
147.455285000000
31
0.0
0
LINE
5
454
100
AcDbEntity
8
B-0
6
CONTINUOUS
62
6
100
AcDbLine
10
476.032868866013
20
147.455285000000
30
0.0
11
476.175998866014
21
147.949899000000
31
0.0
0
LINE
5
455
100
AcDbEntity
8
B-0
6
CONTINUOUS
62
6
100
AcDbLine
10
476.175998866014
20
147.949899000000
30
0.0
11
476.524149866013
21
149.232172000000
31
0.0
0
LINE
5
456
100
AcDbEntity
8
B-0
6
CONTINUOUS
62
6
100
AcDbLine
10
476.524149866013
20
149.232172000000
30
0.0
11
477.050681866014
21
151.453021000000
31
0.0
0
LINE
5
457
100
AcDbEntity
8
B-0
6
CONTINUOUS
62
6
100
AcDbLine
10
477.050681866014
20
151.453021000000
30
0.0
11
477.480816866014
21
153.684562000000
31
0.0
0
LINE
5
458
100
AcDbEntity
8
B-0
6
CONTINUOUS
62
6
100
AcDbLine
10
477.480816866014
20
153.684562000000
30
0.0
11
477.810985866013
21
155.924462000000
31
0.0
0
LINE
5
459
100
AcDbEntity
8
B-0
6
CONTINUOUS
62
6
100
AcDbLine
10
477.810985866013
20
155.924462000000
30
0.0
11
478.037619866014
21
158.170384000000
31
0.0
0
LINE
5
45a
100
AcDbEntity
8
B-0
6
CONTINUOUS
62
6
100
AcDbLine
10
478.037619866014
20
158.170384000000
30
0.0
11
478.157151866013
21
160.419995000000
31
0.0
0
LINE
5
45b
100
AcDbEntity
8
B-0
6
CONTINUOUS
62
6
100
AcDbLine
10
478.157151866013
20
160.419995000000
30
0.0
11
478.175998866014
21
161.725539000000
31
0.0
0
LINE
5
45c
100
AcDbEntity
8
B-0
6
CONTINUOUS
62
6
100
AcDbLine
10
478.175998866014
20
161.725539000000
30
0.0
11
478.157151866013
21
163.031083000000
31
0.0
0
LINE
5
45d
100
AcDbEntity
8
B-0
6
CONTINUOUS
62
6
100
AcDbLine
10
478.157151866013
20
163.031083000000
30
0.0
11
478.037619866014
21
165.280694000000
31
0.0
0
LINE
5
45e
100
AcDbEntity
8
B-0
6
CONTINUOUS
62
6
100
AcDbLine
10
478.037619866014
20
165.280694000000
30
0.0
11
477.810985866013
21
167.526616000000
31
0.0
0
LINE
5
45f
100
AcDbEntity
8
B-0
6
CONTINUOUS
62
6
100
AcDbLine
10
477.810985866013
20
167.526616000000
30
0.0
11
477.480816866014
21
169.766516000000
31
0.0
0
LINE
5
460
100
AcDbEntity
8
B-0
6
CONTINUOUS
62
6
100
AcDbLine
10
477.480816866014
20
169.766516000000
30
0.0
11
477.050681866014
21
171.998057000000
31
0.0
0
LINE
5
461
100
AcDbEntity
8
B-0
6
CONTINUOUS
62
6
100
AcDbLine
10
477.050681866014
20
171.998057000000
30
0.0
11
476.524149866013
21
174.218906000000
31
0.0
0
LINE
5
462
100
AcDbEntity
8
B-0
6
CONTINUOUS
62
6
100
AcDbLine
10
476.524149866013
20
174.218906000000
30
0.0
11
476.175998866014
21
175.501179000000
31
0.0
0
LINE
5
463
100
AcDbEntity
8
B-0
6
CONTINUOUS
62
6
100
AcDbLine
10
476.175998866014
20
175.501179000000
30
0.0
11
476.032868866013
21
175.995793000000
31
0.0
0
LINE
5
464
100
AcDbEntity
8
B-0
6
CONTINUOUS
62
6
100
AcDbLine
10
476.032868866013
20
175.995793000000
30
0.0
11
475.771731866013
21
176.843692000000
31
0.0
0
LINE
5
465
100
AcDbEntity
8
B-0
6
CONTINUOUS
62
6
100
AcDbLine
10
475.771731866013
20
176.843692000000
30
0.0
11
475.486928866013
21
177.680593000000
31
0.0
0
LINE
5
466
100
AcDbEntity
8
B-0
6
CONTINUOUS
62
6
100
AcDbLine
10
475.486928866013
20
177.680593000000
30
0.0
11
475.172077866014
21
178.500899000000
31
0.0
0
LINE
5
467
100
AcDbEntity
8
B-0
6
CONTINUOUS
62
6
100
AcDbLine
10
475.172077866014
20
178.500899000000
30
0.0
11
474.820796866013
21
179.299012000000
31
0.0
0
LINE
5
468
100
AcDbEntity
8
B-0
6
CONTINUOUS
62
6
100
AcDbLine
10
474.820796866013
20
179.299012000000
30
0.0
11
474.426703866013
21
180.069333000000
31
0.0
0
LINE
5
469
100
AcDbEntity
8
B-0
6
CONTINUOUS
62
6
100
AcDbLine
10
474.426703866013
20
180.069333000000
30
0.0
11
474.175998866014
21
180.501179000000
31
0.0
0
LINE
5
46a
100
AcDbEntity
8
B-0
6
CONTINUOUS
62
6
100
AcDbLine
10
474.175998866014
20
180.501179000000
30
0.0
11
473.419642866013
21
181.598236000000
31
0.0
0
LINE
5
46b
100
AcDbEntity
8
B-0
6
CONTINUOUS
62
6
100
AcDbLine
10
473.419642866013
20
181.598236000000
30
0.0
11
471.853479866013
21
183.294861000000
31
0.0
0
LINE
5
46c
100
AcDbEntity
8
B-0
6
CONTINUOUS
62
6
100
AcDbLine
10
471.853479866013
20
183.294861000000
30
0.0
11
470.012412866013
21
184.764093000000
31
0.0
0
LINE
5
46d
100
AcDbEntity
8
B-0
6
CONTINUOUS
62
6
100
AcDbLine
10
470.012412866013
20
184.764093000000
30
0.0
11
467.962565866013
21
186.028324000000
31
0.0
0
LINE
5
46e
100
AcDbEntity
8
B-0
6
CONTINUOUS
62
6
100
AcDbLine
10
467.962565866013
20
186.028324000000
30
0.0
11
465.770066866013
21
187.109946000000
31
0.0
0
LINE
5
46f
100
AcDbEntity
8
B-0
6
CONTINUOUS
62
6
100
AcDbLine
10
465.770066866013
20
187.109946000000
30
0.0
11
463.501040866013
21
188.031352000000
31
0.0
0
LINE
5
470
100
AcDbEntity
8
B-0
6
CONTINUOUS
62
6
100
AcDbLine
10
463.501040866013
20
188.031352000000
30
0.0
11
462.175998866014
21
188.501179000000
31
0.0
0
LINE
5
471
100
AcDbEntity
8
B-0
6
CONTINUOUS
62
6
100
AcDbLine
10
462.175998866014
20
188.501179000000
30
0.0
11
461.509585866013
21
188.722192000000
31
0.0
0
LINE
5
472
100
AcDbEntity
8
B-0
6
CONTINUOUS
62
6
100
AcDbLine
10
461.509585866013
20
188.722192000000
30
0.0
11
460.365566866013
21
189.081055000000
31
0.0
0
LINE
5
473
100
AcDbEntity
8
B-0
6
CONTINUOUS
62
6
100
AcDbLine
10
460.365566866013
20
189.081055000000
30
0.0
11
459.226843866014
21
189.416268000000
31
0.0
0
LINE
5
474
100
AcDbEntity
8
B-0
6
CONTINUOUS
62
6
100
AcDbLine
10
459.226843866014
20
189.416268000000
30
0.0
11
458.092259866013
21
189.732994000000
31
0.0
0
LINE
5
475
100
AcDbEntity
8
B-0
6
CONTINUOUS
62
6
100
AcDbLine
10
458.092259866013
20
189.732994000000
30
0.0
11
456.960659866013
21
190.036397000000
31
0.0
0
LINE
5
476
100
AcDbEntity
8
B-0
6
CONTINUOUS
62
6
100
AcDbLine
10
456.960659866013
20
190.036397000000
30
0.0
11
455.830885866013
21
190.331641000000
31
0.0
0
LINE
5
477
100
AcDbEntity
8
B-0
6
CONTINUOUS
62
6
100
AcDbLine
10
455.830885866013
20
190.331641000000
30
0.0
11
455.175998866014
21
190.501179000000
31
0.0
0
LINE
5
478
100
AcDbEntity
8
B-0
6
CONTINUOUS
62
6
100
AcDbLine
10
491.175998866014
20
190.501179000000
30
0.0
11
511.512600866013
21
146.889194000000
31
0.0
0
LINE
5
479
100
AcDbEntity
8
B-0
6
CONTINUOUS
62
6
100
AcDbLine
10
531.849203866014
20
190.501179000000
30
0.0
11
511.512600866013
21
146.889194000000
31
0.0
0
LINE
5
47a
100
AcDbEntity
8
B-0
6
CONTINUOUS
62
6
100
AcDbLine
10
478.175998866014
20
190.501179000000
30
0.0
11
505.012600866013
21
132.949899000000
31
0.0
0
LINE
5
47b
100
AcDbEntity
8
B-0
6
CONTINUOUS
62
6
100
AcDbLine
10
518.012600866013
20
132.949899000000
30
0.0
11
544.849203866014
21
190.501179000000
31
0.0
0
LINE
5
47c
100
AcDbEntity
8
B-0
6
CONTINUOUS
62
6
100
AcDbLine
10
554.849203866014
20
190.501179000000
30
0.0
11
528.012600866013
21
132.949899000000
31
0.0
0
LINE
5
47d
100
AcDbEntity
8
B-0
6
CONTINUOUS
62
6
100
AcDbLine
10
568.203543866013
20
190.501179000000
30
0.0
11
595.040146866013
21
132.949899000000
31
0.0
0
LINE
5
47e
100
AcDbEntity
8
B-0
6
CONTINUOUS
62
6
100
AcDbLine
10
368.972666866013
20
145.949899000000
30
0.0
11
396.421469866013
21
145.949899000000
31
0.0
0
LINE
5
47f
100
AcDbEntity
8
B-0
6
CONTINUOUS
62
6
100
AcDbLine
10
547.074600866013
20
145.949899000000
30
0.0
11
575.978146866013
21
145.949899000000
31
0.0
0
LINE
5
480
100
AcDbEntity
8
B-0
6
CONTINUOUS
62
6
100
AcDbLine
10
551.737677866013
20
155.949899000000
30
0.0
11
571.315070866013
21
155.949899000000
31
0.0
0
LINE
5
481
100
AcDbEntity
8
B-0
6
CONTINUOUS
62
6
100
AcDbLine
10
613.805630866013
20
180.501179000000
30
0.0
11
643.518968866013
21
132.949899000000
31
0.0
0
LINE
5
482
100
AcDbEntity
8
B-0
6
CONTINUOUS
62
6
100
AcDbLine
10
649.593224866014
20
143.986936000000
30
0.0
11
649.593224866014
21
190.501179000000
31
0.0
0
LINE
5
483
100
AcDbEntity
8
B-0
6
CONTINUOUS
62
6
100
AcDbLine
10
660.593224866014
20
132.949899000000
30
0.0
11
660.593224866014
21
190.501179000000
31
0.0
0
LINE
5
484
100
AcDbEntity
8
B-0
6
CONTINUOUS
62
6
100
AcDbLine
10
620.527899866014
20
190.501179000000
30
0.0
11
649.593224866014
21
143.986936000000
31
0.0
0
LINE
5
485
100
AcDbEntity
8
B-0
6
CONTINUOUS
62
6
100
AcDbLine
10
600.805630866013
20
190.501179000000
30
0.0
11
600.805630866013
21
132.949899000000
31
0.0
0
LINE
5
486
100
AcDbEntity
8
B-0
6
CONTINUOUS
62
6
100
AcDbLine
10
455.175998866014
20
180.501179000000
30
0.0
11
435.175998866014
21
180.501179000000
31
0.0
0
LINE
5
487
100
AcDbEntity
8
B-0
6
CONTINUOUS
62
6
100
AcDbLine
10
435.175998866014
20
142.949899000000
30
0.0
11
455.175998866014
21
142.949899000000
31
0.0
0
LINE
5
488
100
AcDbEntity
8
B-0
6
CONTINUOUS
62
6
100
AcDbLine
10
571.315070866013
20
155.949899000000
30
0.0
11
561.526373866014
21
176.941826000000
31
0.0
0
LINE
5
489
100
AcDbEntity
8
B-0
6
CONTINUOUS
62
6
100
AcDbLine
10
551.737677866013
20
155.949899000000
30
0.0
11
561.526373866014
21
176.941826000000
31
0.0
0
LINE
5
48a
100
AcDbEntity
8
B-0
6
CONTINUOUS
62
6
100
AcDbLine
10
541.012600866013
20
132.949899000000
30
0.0
11
547.074600866013
21
145.949899000000
31
0.0
0
LINE
5
48b
100
AcDbEntity
8
B-0
6
CONTINUOUS
62
6
100
AcDbLine
10
582.040146866013
20
132.949899000000
30
0.0
11
575.978146866013
21
145.949899000000
31
0.0
0
LINE
5
48c
100
AcDbEntity
8
B-0
6
CONTINUOUS
62
6
100
AcDbLine
10
613.805630866013
20
180.501179000000
30
0.0
11
613.805630866013
21
132.949899000000
31
0.0
0
LINE
5
48d
100
AcDbEntity
8
B-0
6
CONTINUOUS
62
6
100
AcDbLine
10
349.910667866013
20
132.949899000000
30
0.0
11
362.910667866013
21
132.949899000000
31
0.0
0
LINE
5
48e
100
AcDbEntity
8
B-0
6
CONTINUOUS
62
6
100
AcDbLine
10
402.483469866013
20
132.949899000000
30
0.0
11
415.483469866013
21
132.949899000000
31
0.0
0
LINE
5
48f
100
AcDbEntity
8
B-0
6
CONTINUOUS
62
6
100
AcDbLine
10
388.646866866013
20
190.501179000000
30
0.0
11
415.483469866013
21
132.949899000000
31
0.0
0
LINE
5
490
100
AcDbEntity
8
B-0
6
CONTINUOUS
62
6
100
AcDbLine
10
388.646866866013
20
190.501179000000
30
0.0
11
376.747270866013
21
190.501179000000
31
0.0
0
LINE
5
491
100
AcDbEntity
8
B-0
6
CONTINUOUS
62
6
100
AcDbLine
10
422.175998866014
20
190.501179000000
30
0.0
11
422.175998866014
21
132.949899000000
31
0.0
0
LINE
5
492
100
AcDbEntity
8
B-0
6
CONTINUOUS
62
6
100
AcDbLine
10
435.175998866014
20
180.501179000000
30
0.0
11
435.175998866014
21
142.949899000000
31
0.0
0
LINE
5
493
100
AcDbEntity
8
B-0
6
CONTINUOUS
62
6
100
AcDbLine
10
422.175998866014
20
132.949899000000
30
0.0
11
455.175998866014
21
132.949899000000
31
0.0
0
LINE
5
494
100
AcDbEntity
8
B-0
6
CONTINUOUS
62
6
100
AcDbLine
10
455.175998866014
20
190.501179000000
30
0.0
11
422.175998866014
21
190.501179000000
31
0.0
0
LINE
5
495
100
AcDbEntity
8
B-0
6
CONTINUOUS
62
6
100
AcDbLine
10
491.175998866014
20
190.501179000000
30
0.0
11
478.175998866014
21
190.501179000000
31
0.0
0
LINE
5
496
100
AcDbEntity
8
B-0
6
CONTINUOUS
62
6
100
AcDbLine
10
505.012600866013
20
132.949899000000
30
0.0
11
518.012600866013
21
132.949899000000
31
0.0
0
LINE
5
497
100
AcDbEntity
8
B-0
6
CONTINUOUS
62
6
100
AcDbLine
10
544.849203866014
20
190.501179000000
30
0.0
11
531.849203866014
21
190.501179000000
31
0.0
0
LINE
5
498
100
AcDbEntity
8
B-0
6
CONTINUOUS
62
6
100
AcDbLine
10
528.012600866013
20
132.949899000000
30
0.0
11
541.012600866013
21
132.949899000000
31
0.0
0
LINE
5
499
100
AcDbEntity
8
B-0
6
CONTINUOUS
62
6
100
AcDbLine
10
582.040146866013
20
132.949899000000
30
0.0
11
595.040146866013
21
132.949899000000
31
0.0
0
LINE
5
49a
100
AcDbEntity
8
B-0
6
CONTINUOUS
62
6
100
AcDbLine
10
600.805630866013
20
132.949899000000
30
0.0
11
613.805630866013
21
132.949899000000
31
0.0
0
LINE
5
49b
100
AcDbEntity
8
B-0
6
CONTINUOUS
62
6
100
AcDbLine
10
643.518968866013
20
132.949899000000
30
0.0
11
660.593224866014
21
132.949899000000
31
0.0
0
LINE
5
49c
100
AcDbEntity
8
B-0
6
CONTINUOUS
62
6
100
AcDbLine
10
660.593224866014
20
190.501179000000
30
0.0
11
649.593224866014
21
190.501179000000
31
0.0
0
LINE
5
49d
100
AcDbEntity
8
B-0
6
CONTINUOUS
62
6
100
AcDbLine
10
620.527899866014
20
190.501179000000
30
0.0
11
600.805630866013
21
190.501179000000
31
0.0
0
LINE
5
49e
100
AcDbEntity
8
B-0
6
CONTINUOUS
62
6
100
AcDbLine
10
568.203543866013
20
190.501179000000
30
0.0
11
554.849203866014
21
190.501179000000
31
0.0
0
LINE
5
49f
100
AcDbEntity
8
B-0
6
CONTINUOUS
62
6
100
AcDbLine
10
350.634041866013
20
134.501179000000
30
0.0
11
363.634041866013
21
134.501179000000
31
0.0
0
LINE
5
4a0
100
AcDbEntity
8
B-0
6
CONTINUOUS
62
6
100
AcDbLine
10
401.760095866013
20
134.501179000000
30
0.0
11
414.760095866013
21
134.501179000000
31
0.0
0
LINE
5
4a1
100
AcDbEntity
8
B-0
6
CONTINUOUS
62
6
100
AcDbLine
10
422.175998866014
20
134.501179000000
30
0.0
11
460.783678866013
21
134.501179000000
31
0.0
0
LINE
5
4a2
100
AcDbEntity
8
B-0
6
CONTINUOUS
62
6
100
AcDbLine
10
504.289226866013
20
134.501179000000
30
0.0
11
518.735974866014
21
134.501179000000
31
0.0
0
LINE
5
4a3
100
AcDbEntity
8
B-0
6
CONTINUOUS
62
6
100
AcDbLine
10
528.735974866014
20
134.501179000000
30
0.0
11
541.735974866014
21
134.501179000000
31
0.0
0
LINE
5
4a4
100
AcDbEntity
8
B-0
6
CONTINUOUS
62
6
100
AcDbLine
10
581.316772866013
20
134.501179000000
30
0.0
11
594.316772866013
21
134.501179000000
31
0.0
0
LINE
5
4a5
100
AcDbEntity
8
B-0
6
CONTINUOUS
62
6
100
AcDbLine
10
600.805630866013
20
134.501179000000
30
0.0
11
613.805630866013
21
134.501179000000
31
0.0
0
LINE
5
4a6
100
AcDbEntity
8
B-0
6
CONTINUOUS
62
6
100
AcDbLine
10
642.549620866014
20
134.501179000000
30
0.0
11
660.593224866014
21
134.501179000000
31
0.0
0
LINE
5
4a7
100
AcDbEntity
8
B-0
6
CONTINUOUS
62
6
100
AcDbLine
10
351.566656866013
20
136.501179000000
30
0.0
11
364.566656866013
21
136.501179000000
31
0.0
0
LINE
5
4a8
100
AcDbEntity
8
B-0
6
CONTINUOUS
62
6
100
AcDbLine
10
400.827480866013
20
136.501179000000
30
0.0
11
413.827480866013
21
136.501179000000
31
0.0
0
LINE
5
4a9
100
AcDbEntity
8
B-0
6
CONTINUOUS
62
6
100
AcDbLine
10
422.175998866014
20
136.501179000000
30
0.0
11
466.094490866013
21
136.501179000000
31
0.0
0
LINE
5
4aa
100
AcDbEntity
8
B-0
6
CONTINUOUS
62
6
100
AcDbLine
10
503.356611866014
20
136.501179000000
30
0.0
11
519.668590866014
21
136.501179000000
31
0.0
0
LINE
5
4ab
100
AcDbEntity
8
B-0
6
CONTINUOUS
62
6
100
AcDbLine
10
529.668590866014
20
136.501179000000
30
0.0
11
542.668590866014
21
136.501179000000
31
0.0
0
LINE
5
4ac
100
AcDbEntity
8
B-0
6
CONTINUOUS
62
6
100
AcDbLine
10
580.384156866013
20
136.501179000000
30
0.0
11
593.384156866013
21
136.501179000000
31
0.0
0
LINE
5
4ad
100
AcDbEntity
8
B-0
6
CONTINUOUS
62
6
100
AcDbLine
10
600.805630866013
20
136.501179000000
30
0.0
11
613.805630866013
21
136.501179000000
31
0.0
0
LINE
5
4ae
100
AcDbEntity
8
B-0
6
CONTINUOUS
62
6
100
AcDbLine
10
641.299882866013
20
136.501179000000
30
0.0
11
660.593224866014
21
136.501179000000
31
0.0
0
LINE
5
4af
100
AcDbEntity
8
B-0
6
CONTINUOUS
62
6
100
AcDbLine
10
352.499272866013
20
138.501179000000
30
0.0
11
365.499272866013
21
138.501179000000
31
0.0
0
LINE
5
4b0
100
AcDbEntity
8
B-0
6
CONTINUOUS
62
6
100
AcDbLine
10
399.894864866013
20
138.501179000000
30
0.0
11
412.894864866013
21
138.501179000000
31
0.0
0
LINE
5
4b1
100
AcDbEntity
8
B-0
6
CONTINUOUS
62
6
100
AcDbLine
10
422.175998866014
20
138.501179000000
30
0.0
11
469.711143866013
21
138.501179000000
31
0.0
0
LINE
5
4b2
100
AcDbEntity
8
B-0
6
CONTINUOUS
62
6
100
AcDbLine
10
502.423996866013
20
138.501179000000
30
0.0
11
520.601205866013
21
138.501179000000
31
0.0
0
LINE
5
4b3
100
AcDbEntity
8
B-0
6
CONTINUOUS
62
6
100
AcDbLine
10
530.601205866013
20
138.501179000000
30
0.0
11
543.601205866013
21
138.501179000000
31
0.0
0
LINE
5
4b4
100
AcDbEntity
8
B-0
6
CONTINUOUS
62
6
100
AcDbLine
10
579.451541866013
20
138.501179000000
30
0.0
11
592.451541866013
21
138.501179000000
31
0.0
0
LINE
5
4b5
100
AcDbEntity
8
B-0
6
CONTINUOUS
62
6
100
AcDbLine
10
600.805630866013
20
138.501179000000
30
0.0
11
613.805630866013
21
138.501179000000
31
0.0
0
LINE
5
4b6
100
AcDbEntity
8
B-0
6
CONTINUOUS
62
6
100
AcDbLine
10
640.050143866013
20
138.501179000000
30
0.0
11
660.593224866014
21
138.501179000000
31
0.0
0
LINE
5
4b7
100
AcDbEntity
8
B-0
6
CONTINUOUS
62
6
100
AcDbLine
10
353.431887866014
20
140.501179000000
30
0.0
11
366.431887866014
21
140.501179000000
31
0.0
0
LINE
5
4b8
100
AcDbEntity
8
B-0
6
CONTINUOUS
62
6
100
AcDbLine
10
398.962249866014
20
140.501179000000
30
0.0
11
411.962249866014
21
140.501179000000
31
0.0
0
LINE
5
4b9
100
AcDbEntity
8
B-0
6
CONTINUOUS
62
6
100
AcDbLine
10
422.175998866014
20
140.501179000000
30
0.0
11
472.171916866013
21
140.501179000000
31
0.0
0
LINE
5
4ba
100
AcDbEntity
8
B-0
6
CONTINUOUS
62
6
100
AcDbLine
10
501.491381866013
20
140.501179000000
30
0.0
11
521.533820866013
21
140.501179000000
31
0.0
0
LINE
5
4bb
100
AcDbEntity
8
B-0
6
CONTINUOUS
62
6
100
AcDbLine
10
531.533820866013
20
140.501179000000
30
0.0
11
544.533820866013
21
140.501179000000
31
0.0
0
LINE
5
4bc
100
AcDbEntity
8
B-0
6
CONTINUOUS
62
6
100
AcDbLine
10
578.518926866014
20
140.501179000000
30
0.0
11
591.518926866014
21
140.501179000000
31
0.0
0
LINE
5
4bd
100
AcDbEntity
8
B-0
6
CONTINUOUS
62
6
100
AcDbLine
10
600.805630866013
20
140.501179000000
30
0.0
11
613.805630866013
21
140.501179000000
31
0.0
0
LINE
5
4be
100
AcDbEntity
8
B-0
6
CONTINUOUS
62
6
100
AcDbLine
10
638.800404866013
20
140.501179000000
30
0.0
11
660.593224866014
21
140.501179000000
31
0.0
0
LINE
5
4bf
100
AcDbEntity
8
B-0
6
CONTINUOUS
62
6
100
AcDbLine
10
354.364502866013
20
142.501179000000
30
0.0
11
367.364502866013
21
142.501179000000
31
0.0
0
LINE
5
4c0
100
AcDbEntity
8
B-0
6
CONTINUOUS
62
6
100
AcDbLine
10
398.029634866013
20
142.501179000000
30
0.0
11
411.029634866013
21
142.501179000000
31
0.0
0
LINE
5
4c1
100
AcDbEntity
8
B-0
6
CONTINUOUS
62
6
100
AcDbLine
10
422.175998866014
20
142.501179000000
30
0.0
11
473.866632866013
21
142.501179000000
31
0.0
0
LINE
5
4c2
100
AcDbEntity
8
B-0
6
CONTINUOUS
62
6
100
AcDbLine
10
500.558765866014
20
142.501179000000
30
0.0
11
522.466436866014
21
142.501179000000
31
0.0
0
LINE
5
4c3
100
AcDbEntity
8
B-0
6
CONTINUOUS
62
6
100
AcDbLine
10
532.466436866014
20
142.501179000000
30
0.0
11
545.466436866014
21
142.501179000000
31
0.0
0
LINE
5
4c4
100
AcDbEntity
8
B-0
6
CONTINUOUS
62
6
100
AcDbLine
10
577.586310866013
20
142.501179000000
30
0.0
11
590.586310866013
21
142.501179000000
31
0.0
0
LINE
5
4c5
100
AcDbEntity
8
B-0
6
CONTINUOUS
62
6
100
AcDbLine
10
600.805630866013
20
142.501179000000
30
0.0
11
613.805630866013
21
142.501179000000
31
0.0
0
LINE
5
4c6
100
AcDbEntity
8
B-0
6
CONTINUOUS
62
6
100
AcDbLine
10
637.550666866013
20
142.501179000000
30
0.0
11
660.593224866014
21
142.501179000000
31
0.0
0
LINE
5
4c7
100
AcDbEntity
8
B-0
6
CONTINUOUS
62
6
100
AcDbLine
10
355.297117866013
20
144.501179000000
30
0.0
11
368.297117866013
21
144.501179000000
31
0.0
0
LINE
5
4c8
100
AcDbEntity
8
B-0
6
CONTINUOUS
62
6
100
AcDbLine
10
397.097018866013
20
144.501179000000
30
0.0
11
410.097018866013
21
144.501179000000
31
0.0
0
LINE
5
4c9
100
AcDbEntity
8
B-0
6
CONTINUOUS
62
6
100
AcDbLine
10
422.175998866014
20
144.501179000000
30
0.0
11
435.175998866014
21
144.501179000000
31
0.0
0
LINE
5
4ca
100
AcDbEntity
8
B-0
6
CONTINUOUS
62
6
100
AcDbLine
10
457.904750866014
20
144.501179000000
30
0.0
11
474.974454866014
21
144.501179000000
31
0.0
0
LINE
5
4cb
100
AcDbEntity
8
B-0
6
CONTINUOUS
62
6
100
AcDbLine
10
499.626150866013
20
144.501179000000
30
0.0
11
523.399051866013
21
144.501179000000
31
0.0
0
LINE
5
4cc
100
AcDbEntity
8
B-0
6
CONTINUOUS
62
6
100
AcDbLine
10
533.399051866013
20
144.501179000000
30
0.0
11
546.399051866013
21
144.501179000000
31
0.0
0
LINE
5
4cd
100
AcDbEntity
8
B-0
6
CONTINUOUS
62
6
100
AcDbLine
10
576.653695866013
20
144.501179000000
30
0.0
11
589.653695866013
21
144.501179000000
31
0.0
0
LINE
5
4ce
100
AcDbEntity
8
B-0
6
CONTINUOUS
62
6
100
AcDbLine
10
600.805630866013
20
144.501179000000
30
0.0
11
613.805630866013
21
144.501179000000
31
0.0
0
LINE
5
4cf
100
AcDbEntity
8
B-0
6
CONTINUOUS
62
6
100
AcDbLine
10
636.300927866014
20
144.501179000000
30
0.0
11
649.271889866013
21
144.501179000000
31
0.0
0
LINE
5
4d0
100
AcDbEntity
8
B-0
6
CONTINUOUS
62
6
100
AcDbLine
10
649.593224866014
20
144.501179000000
30
0.0
11
660.593224866014
21
144.501179000000
31
0.0
0
LINE
5
4d1
100
AcDbEntity
8
B-0
6
CONTINUOUS
62
6
100
AcDbLine
10
356.229733866013
20
146.501179000000
30
0.0
11
409.164403866013
21
146.501179000000
31
0.0
0
LINE
5
4d2
100
AcDbEntity
8
B-0
6
CONTINUOUS
62
6
100
AcDbLine
10
422.175998866014
20
146.501179000000
30
0.0
11
435.175998866014
21
146.501179000000
31
0.0
0
LINE
5
4d3
100
AcDbEntity
8
B-0
6
CONTINUOUS
62
6
100
AcDbLine
10
460.748864866013
20
146.501179000000
30
0.0
11
475.735588866013
21
146.501179000000
31
0.0
0
LINE
5
4d4
100
AcDbEntity
8
B-0
6
CONTINUOUS
62
6
100
AcDbLine
10
498.693535866013
20
146.501179000000
30
0.0
11
524.331666866013
21
146.501179000000
31
0.0
0
LINE
5
4d5
100
AcDbEntity
8
B-0
6
CONTINUOUS
62
6
100
AcDbLine
10
534.331666866013
20
146.501179000000
30
0.0
11
588.721080866013
21
146.501179000000
31
0.0
0
LINE
5
4d6
100
AcDbEntity
8
B-0
6
CONTINUOUS
62
6
100
AcDbLine
10
600.805630866013
20
146.501179000000
30
0.0
11
613.805630866013
21
146.501179000000
31
0.0
0
LINE
5
4d7
100
AcDbEntity
8
B-0
6
CONTINUOUS
62
6
100
AcDbLine
10
635.051188866013
20
146.501179000000
30
0.0
11
648.022151866013
21
146.501179000000
31
0.0
0
LINE
5
4d8
100
AcDbEntity
8
B-0
6
CONTINUOUS
62
6
100
AcDbLine
10
649.593224866014
20
146.501179000000
30
0.0
11
660.593224866014
21
146.501179000000
31
0.0
0
LINE
5
4d9
100
AcDbEntity
8
B-0
6
CONTINUOUS
62
6
100
AcDbLine
10
357.162348866013
20
148.501179000000
30
0.0
11
408.231788866013
21
148.501179000000
31
0.0
0
LINE
5
4da
100
AcDbEntity
8
B-0
6
CONTINUOUS
62
6
100
AcDbLine
10
422.175998866014
20
148.501179000000
30
0.0
11
435.175998866014
21
148.501179000000
31
0.0
0
LINE
5
4db
100
AcDbEntity
8
B-0
6
CONTINUOUS
62
6
100
AcDbLine
10
462.566642866013
20
148.501179000000
30
0.0
11
476.325676866013
21
148.501179000000
31
0.0
0
LINE
5
4dc
100
AcDbEntity
8
B-0
6
CONTINUOUS
62
6
100
AcDbLine
10
497.760919866013
20
148.501179000000
30
0.0
11
510.760919866013
21
148.501179000000
31
0.0
0
LINE
5
4dd
100
AcDbEntity
8
B-0
6
CONTINUOUS
62
6
100
AcDbLine
10
512.264282866013
20
148.501179000000
30
0.0
11
525.264282866013
21
148.501179000000
31
0.0
0
LINE
5
4de
100
AcDbEntity
8
B-0
6
CONTINUOUS
62
6
100
AcDbLine
10
535.264282866013
20
148.501179000000
30
0.0
11
587.788465866013
21
148.501179000000
31
0.0
0
LINE
5
4df
100
AcDbEntity
8
B-0
6
CONTINUOUS
62
6
100
AcDbLine
10
600.805630866013
20
148.501179000000
30
0.0
11
613.805630866013
21
148.501179000000
31
0.0
0
LINE
5
4e0
100
AcDbEntity
8
B-0
6
CONTINUOUS
62
6
100
AcDbLine
10
633.801450866013
20
148.501179000000
30
0.0
11
646.772412866013
21
148.501179000000
31
0.0
0
LINE
5
4e1
100
AcDbEntity
8
B-0
6
CONTINUOUS
62
6
100
AcDbLine
10
649.593224866014
20
148.501179000000
30
0.0
11
660.593224866014
21
148.501179000000
31
0.0
0
LINE
5
4e2
100
AcDbEntity
8
B-0
6
CONTINUOUS
62
6
100
AcDbLine
10
358.094963866013
20
150.501179000000
30
0.0
11
407.299172866013
21
150.501179000000
31
0.0
0
LINE
5
4e3
100
AcDbEntity
8
B-0
6
CONTINUOUS
62
6
100
AcDbLine
10
422.175998866014
20
150.501179000000
30
0.0
11
435.175998866014
21
150.501179000000
31
0.0
0
LINE
5
4e4
100
AcDbEntity
8
B-0
6
CONTINUOUS
62
6
100
AcDbLine
10
463.650531866013
20
150.501179000000
30
0.0
11
476.825013866013
21
150.501179000000
31
0.0
0
LINE
5
4e5
100
AcDbEntity
8
B-0
6
CONTINUOUS
62
6
100
AcDbLine
10
496.828304866013
20
150.501179000000
30
0.0
11
509.828304866013
21
150.501179000000
31
0.0
0
LINE
5
4e6
100
AcDbEntity
8
B-0
6
CONTINUOUS
62
6
100
AcDbLine
10
513.196897866013
20
150.501179000000
30
0.0
11
526.196897866013
21
150.501179000000
31
0.0
0
LINE
5
4e7
100
AcDbEntity
8
B-0
6
CONTINUOUS
62
6
100
AcDbLine
10
536.196897866013
20
150.501179000000
30
0.0
11
586.855849866013
21
150.501179000000
31
0.0
0
LINE
5
4e8
100
AcDbEntity
8
B-0
6
CONTINUOUS
62
6
100
AcDbLine
10
600.805630866013
20
150.501179000000
30
0.0
11
613.805630866013
21
150.501179000000
31
0.0
0
LINE
5
4e9
100
AcDbEntity
8
B-0
6
CONTINUOUS
62
6
100
AcDbLine
10
632.551711866013
20
150.501179000000
30
0.0
11
645.522673866013
21
150.501179000000
31
0.0
0
LINE
5
4ea
100
AcDbEntity
8
B-0
6
CONTINUOUS
62
6
100
AcDbLine
10
649.593224866014
20
150.501179000000
30
0.0
11
660.593224866014
21
150.501179000000
31
0.0
0
LINE
5
4eb
100
AcDbEntity
8
B-0
6
CONTINUOUS
62
6
100
AcDbLine
10
359.027579866013
20
152.501179000000
30
0.0
11
406.366557866013
21
152.501179000000
31
0.0
0
LINE
5
4ec
100
AcDbEntity
8
B-0
6
CONTINUOUS
62
6
100
AcDbLine
10
422.175998866014
20
152.501179000000
30
0.0
11
435.175998866014
21
152.501179000000
31
0.0
0
LINE
5
4ed
100
AcDbEntity
8
B-0
6
CONTINUOUS
62
6
100
AcDbLine
10
464.328814866013
20
152.501179000000
30
0.0
11
477.252716866013
21
152.501179000000
31
0.0
0
LINE
5
4ee
100
AcDbEntity
8
B-0
6
CONTINUOUS
62
6
100
AcDbLine
10
495.895689866013
20
152.501179000000
30
0.0
11
508.895689866013
21
152.501179000000
31
0.0
0
LINE
5
4ef
100
AcDbEntity
8
B-0
6
CONTINUOUS
62
6
100
AcDbLine
10
514.129512866013
20
152.501179000000
30
0.0
11
527.129512866013
21
152.501179000000
31
0.0
0
LINE
5
4f0
100
AcDbEntity
8
B-0
6
CONTINUOUS
62
6
100
AcDbLine
10
537.129512866013
20
152.501179000000
30
0.0
11
585.923234866013
21
152.501179000000
31
0.0
0
LINE
5
4f1
100
AcDbEntity
8
B-0
6
CONTINUOUS
62
6
100
AcDbLine
10
600.805630866013
20
152.501179000000
30
0.0
11
613.805630866013
21
152.501179000000
31
0.0
0
LINE
5
4f2
100
AcDbEntity
8
B-0
6
CONTINUOUS
62
6
100
AcDbLine
10
631.301972866014
20
152.501179000000
30
0.0
11
644.272935866013
21
152.501179000000
31
0.0
0
LINE
5
4f3
100
AcDbEntity
8
B-0
6
CONTINUOUS
62
6
100
AcDbLine
10
649.593224866014
20
152.501179000000
30
0.0
11
660.593224866014
21
152.501179000000
31
0.0
0
LINE
5
4f4
100
AcDbEntity
8
B-0
6
CONTINUOUS
62
6
100
AcDbLine
10
359.960194866013
20
154.501179000000
30
0.0
11
405.433942866013
21
154.501179000000
31
0.0
0
LINE
5
4f5
100
AcDbEntity
8
B-0
6
CONTINUOUS
62
6
100
AcDbLine
10
422.175998866014
20
154.501179000000
30
0.0
11
435.175998866014
21
154.501179000000
31
0.0
0
LINE
5
4f6
100
AcDbEntity
8
B-0
6
CONTINUOUS
62
6
100
AcDbLine
10
464.742278866014
20
154.501179000000
30
0.0
11
477.601188866013
21
154.501179000000
31
0.0
0
LINE
5
4f7
100
AcDbEntity
8
B-0
6
CONTINUOUS
62
6
100
AcDbLine
10
494.963073866013
20
154.501179000000
30
0.0
11
507.963073866013
21
154.501179000000
31
0.0
0
LINE
5
4f8
100
AcDbEntity
8
B-0
6
CONTINUOUS
62
6
100
AcDbLine
10
515.062128866013
20
154.501179000000
30
0.0
11
528.062128866013
21
154.501179000000
31
0.0
0
LINE
5
4f9
100
AcDbEntity
8
B-0
6
CONTINUOUS
62
6
100
AcDbLine
10
538.062128866013
20
154.501179000000
30
0.0
11
584.990619866014
21
154.501179000000
31
0.0
0
LINE
5
4fa
100
AcDbEntity
8
B-0
6
CONTINUOUS
62
6
100
AcDbLine
10
600.805630866013
20
154.501179000000
30
0.0
11
613.805630866013
21
154.501179000000
31
0.0
0
LINE
5
4fb
100
AcDbEntity
8
B-0
6
CONTINUOUS
62
6
100
AcDbLine
10
630.052233866013
20
154.501179000000
30
0.0
11
643.023196866013
21
154.501179000000
31
0.0
0
LINE
5
4fc
100
AcDbEntity
8
B-0
6
CONTINUOUS
62
6
100
AcDbLine
10
649.593224866014
20
154.501179000000
30
0.0
11
660.593224866014
21
154.501179000000
31
0.0
0
LINE
5
4fd
100
AcDbEntity
8
B-0
6
CONTINUOUS
62
6
100
AcDbLine
10
360.892809866013
20
156.501179000000
30
0.0
11
373.892809866013
21
156.501179000000
31
0.0
0
LINE
5
4fe
100
AcDbEntity
8
B-0
6
CONTINUOUS
62
6
100
AcDbLine
10
391.501326866013
20
156.501179000000
30
0.0
11
404.501326866013
21
156.501179000000
31
0.0
0
LINE
5
4ff
100
AcDbEntity
8
B-0
6
CONTINUOUS
62
6
100
AcDbLine
10
422.175998866014
20
156.501179000000
30
0.0
11
435.175998866014
21
156.501179000000
31
0.0
0
LINE
5
500
100
AcDbEntity
8
B-0
6
CONTINUOUS
62
6
100
AcDbLine
10
464.985471866013
20
156.501179000000
30
0.0
11
477.869181866013
21
156.501179000000
31
0.0
0
LINE
5
501
100
AcDbEntity
8
B-0
6
CONTINUOUS
62
6
100
AcDbLine
10
494.030458866014
20
156.501179000000
30
0.0
11
507.030458866014
21
156.501179000000
31
0.0
0
LINE
5
502
100
AcDbEntity
8
B-0
6
CONTINUOUS
62
6
100
AcDbLine
10
515.994743866014
20
156.501179000000
30
0.0
11
528.994743866014
21
156.501179000000
31
0.0
0
LINE
5
503
100
AcDbEntity
8
B-0
6
CONTINUOUS
62
6
100
AcDbLine
10
538.994743866014
20
156.501179000000
30
0.0
11
551.994743866014
21
156.501179000000
31
0.0
0
LINE
5
504
100
AcDbEntity
8
B-0
6
CONTINUOUS
62
6
100
AcDbLine
10
571.058003866013
20
156.501179000000
30
0.0
11
584.058003866013
21
156.501179000000
31
0.0
0
LINE
5
505
100
AcDbEntity
8
B-0
6
CONTINUOUS
62
6
100
AcDbLine
10
600.805630866013
20
156.501179000000
30
0.0
11
613.805630866013
21
156.501179000000
31
0.0
0
LINE
5
506
100
AcDbEntity
8
B-0
6
CONTINUOUS
62
6
100
AcDbLine
10
628.802495866013
20
156.501179000000
30
0.0
11
641.773457866013
21
156.501179000000
31
0.0
0
LINE
5
507
100
AcDbEntity
8
B-0
6
CONTINUOUS
62
6
100
AcDbLine
10
649.593224866014
20
156.501179000000
30
0.0
11
660.593224866014
21
156.501179000000
31
0.0
0
LINE
5
508
100
AcDbEntity
8
B-0
6
CONTINUOUS
62
6
100
AcDbLine
10
361.825425866013
20
158.501179000000
30
0.0
11
374.825425866013
21
158.501179000000
31
0.0
0
LINE
5
509
100
AcDbEntity
8
B-0
6
CONTINUOUS
62
6
100
AcDbLine
10
390.568711866013
20
158.501179000000
30
0.0
11
403.568711866013
21
158.501179000000
31
0.0
0
LINE
5
50a
100
AcDbEntity
8
B-0
6
CONTINUOUS
62
6
100
AcDbLine
10
422.175998866014
20
158.501179000000
30
0.0
11
435.175998866014
21
158.501179000000
31
0.0
0
LINE
5
50b
100
AcDbEntity
8
B-0
6
CONTINUOUS
62
6
100
AcDbLine
10
465.115110866014
20
158.501179000000
30
0.0
11
478.055196866013
21
158.501179000000
31
0.0
0
LINE
5
50c
100
AcDbEntity
8
B-0
6
CONTINUOUS
62
6
100
AcDbLine
10
493.097843866013
20
158.501179000000
30
0.0
11
506.097843866013
21
158.501179000000
31
0.0
0
LINE
5
50d
100
AcDbEntity
8
B-0
6
CONTINUOUS
62
6
100
AcDbLine
10
516.927358866013
20
158.501179000000
30
0.0
11
529.927358866013
21
158.501179000000
31
0.0
0
LINE
5
50e
100
AcDbEntity
8
B-0
6
CONTINUOUS
62
6
100
AcDbLine
10
539.927358866013
20
158.501179000000
30
0.0
11
552.927358866013
21
158.501179000000
31
0.0
0
LINE
5
50f
100
AcDbEntity
8
B-0
6
CONTINUOUS
62
6
100
AcDbLine
10
570.125388866013
20
158.501179000000
30
0.0
11
583.125388866013
21
158.501179000000
31
0.0
0
LINE
5
510
100
AcDbEntity
8
B-0
6
CONTINUOUS
62
6
100
AcDbLine
10
600.805630866013
20
158.501179000000
30
0.0
11
613.805630866013
21
158.501179000000
31
0.0
0
LINE
5
511
100
AcDbEntity
8
B-0
6
CONTINUOUS
62
6
100
AcDbLine
10
627.552756866013
20
158.501179000000
30
0.0
11
640.523718866013
21
158.501179000000
31
0.0
0
LINE
5
512
100
AcDbEntity
8
B-0
6
CONTINUOUS
62
6
100
AcDbLine
10
649.593224866014
20
158.501179000000
30
0.0
11
660.593224866014
21
158.501179000000
31
0.0
0
LINE
5
513
100
AcDbEntity
8
B-0
6
CONTINUOUS
62
6
100
AcDbLine
10
362.758040866014
20
160.501179000000
30
0.0
11
375.758040866014
21
160.501179000000
31
0.0
0
LINE
5
514
100
AcDbEntity
8
B-0
6
CONTINUOUS
62
6
100
AcDbLine
10
389.636096866014
20
160.501179000000
30
0.0
11
402.636096866014
21
160.501179000000
31
0.0
0
LINE
5
515
100
AcDbEntity
8
B-0
6
CONTINUOUS
62
6
100
AcDbLine
10
422.175998866014
20
160.501179000000
30
0.0
11
435.175998866014
21
160.501179000000
31
0.0
0
LINE
5
516
100
AcDbEntity
8
B-0
6
CONTINUOUS
62
6
100
AcDbLine
10
465.169479866013
20
160.501179000000
30
0.0
11
478.158323866013
21
160.501179000000
31
0.0
0
LINE
5
517
100
AcDbEntity
8
B-0
6
CONTINUOUS
62
6
100
AcDbLine
10
492.165227866013
20
160.501179000000
30
0.0
11
505.165227866013
21
160.501179000000
31
0.0
0
LINE
5
518
100
AcDbEntity
8
B-0
6
CONTINUOUS
62
6
100
AcDbLine
10
517.859974866013
20
160.501179000000
30
0.0
11
530.859974866013
21
160.501179000000
31
0.0
0
LINE
5
519
100
AcDbEntity
8
B-0
6
CONTINUOUS
62
6
100
AcDbLine
10
540.859974866013
20
160.501179000000
30
0.0
11
553.859974866013
21
160.501179000000
31
0.0
0
LINE
5
51a
100
AcDbEntity
8
B-0
6
CONTINUOUS
62
6
100
AcDbLine
10
569.192773866014
20
160.501179000000
30
0.0
11
582.192773866014
21
160.501179000000
31
0.0
0
LINE
5
51b
100
AcDbEntity
8
B-0
6
CONTINUOUS
62
6
100
AcDbLine
10
600.805630866013
20
160.501179000000
30
0.0
11
613.805630866013
21
160.501179000000
31
0.0
0
LINE
5
51c
100
AcDbEntity
8
B-0
6
CONTINUOUS
62
6
100
AcDbLine
10
626.303017866014
20
160.501179000000
30
0.0
11
639.273980866013
21
160.501179000000
31
0.0
0
LINE
5
51d
100
AcDbEntity
8
B-0
6
CONTINUOUS
62
6
100
AcDbLine
10
649.593224866014
20
160.501179000000
30
0.0
11
660.593224866014
21
160.501179000000
31
0.0
0
LINE
5
51e
100
AcDbEntity
8
B-0
6
CONTINUOUS
62
6
100
AcDbLine
10
363.690655866013
20
162.501179000000
30
0.0
11
376.690655866013
21
162.501179000000
31
0.0
0
LINE
5
51f
100
AcDbEntity
8
B-0
6
CONTINUOUS
62
6
100
AcDbLine
10
388.703480866013
20
162.501179000000
30
0.0
11
401.703480866013
21
162.501179000000
31
0.0
0
LINE
5
520
100
AcDbEntity
8
B-0
6
CONTINUOUS
62
6
100
AcDbLine
10
422.175998866014
20
162.501179000000
30
0.0
11
435.175998866014
21
162.501179000000
31
0.0
0
LINE
5
521
100
AcDbEntity
8
B-0
6
CONTINUOUS
62
6
100
AcDbLine
10
465.171868866013
20
162.501179000000
30
0.0
11
478.164800866013
21
162.501179000000
31
0.0
0
LINE
5
522
100
AcDbEntity
8
B-0
6
CONTINUOUS
62
6
100
AcDbLine
10
491.232612866013
20
162.501179000000
30
0.0
11
504.232612866013
21
162.501179000000
31
0.0
0
LINE
5
523
100
AcDbEntity
8
B-0
6
CONTINUOUS
62
6
100
AcDbLine
10
518.792589866013
20
162.501179000000
30
0.0
11
531.792589866013
21
162.501179000000
31
0.0
0
LINE
5
524
100
AcDbEntity
8
B-0
6
CONTINUOUS
62
6
100
AcDbLine
10
541.792589866013
20
162.501179000000
30
0.0
11
554.792589866013
21
162.501179000000
31
0.0
0
LINE
5
525
100
AcDbEntity
8
B-0
6
CONTINUOUS
62
6
100
AcDbLine
10
568.260157866014
20
162.501179000000
30
0.0
11
581.260157866014
21
162.501179000000
31
0.0
0
LINE
5
526
100
AcDbEntity
8
B-0
6
CONTINUOUS
62
6
100
AcDbLine
10
600.805630866013
20
162.501179000000
30
0.0
11
613.805630866013
21
162.501179000000
31
0.0
0
LINE
5
527
100
AcDbEntity
8
B-0
6
CONTINUOUS
62
6
100
AcDbLine
10
625.053279866014
20
162.501179000000
30
0.0
11
638.024241866013
21
162.501179000000
31
0.0
0
LINE
5
528
100
AcDbEntity
8
B-0
6
CONTINUOUS
62
6
100
AcDbLine
10
649.593224866014
20
162.501179000000
30
0.0
11
660.593224866014
21
162.501179000000
31
0.0
0
LINE
5
529
100
AcDbEntity
8
B-0
6
CONTINUOUS
62
6
100
AcDbLine
10
364.623271866013
20
164.501179000000
30
0.0
11
377.623271866013
21
164.501179000000
31
0.0
0
LINE
5
52a
100
AcDbEntity
8
B-0
6
CONTINUOUS
62
6
100
AcDbLine
10
387.770865866013
20
164.501179000000
30
0.0
11
400.770865866013
21
164.501179000000
31
0.0
0
LINE
5
52b
100
AcDbEntity
8
B-0
6
CONTINUOUS
62
6
100
AcDbLine
10
422.175998866014
20
164.501179000000
30
0.0
11
435.175998866014
21
164.501179000000
31
0.0
0
LINE
5
52c
100
AcDbEntity
8
B-0
6
CONTINUOUS
62
6
100
AcDbLine
10
465.128610866013
20
164.501179000000
30
0.0
11
478.079038866013
21
164.501179000000
31
0.0
0
LINE
5
52d
100
AcDbEntity
8
B-0
6
CONTINUOUS
62
6
100
AcDbLine
10
490.299997866013
20
164.501179000000
30
0.0
11
503.299997866013
21
164.501179000000
31
0.0
0
LINE
5
52e
100
AcDbEntity
8
B-0
6
CONTINUOUS
62
6
100
AcDbLine
10
519.725204866013
20
164.501179000000
30
0.0
11
532.725204866013
21
164.501179000000
31
0.0
0
LINE
5
52f
100
AcDbEntity
8
B-0
6
CONTINUOUS
62
6
100
AcDbLine
10
542.725204866013
20
164.501179000000
30
0.0
11
555.725204866013
21
164.501179000000
31
0.0
0
LINE
5
530
100
AcDbEntity
8
B-0
6
CONTINUOUS
62
6
100
AcDbLine
10
567.327542866013
20
164.501179000000
30
0.0
11
580.327542866013
21
164.501179000000
31
0.0
0
LINE
5
531
100
AcDbEntity
8
B-0
6
CONTINUOUS
62
6
100
AcDbLine
10
600.805630866013
20
164.501179000000
30
0.0
11
613.805630866013
21
164.501179000000
31
0.0
0
LINE
5
532
100
AcDbEntity
8
B-0
6
CONTINUOUS
62
6
100
AcDbLine
10
623.803540866013
20
164.501179000000
30
0.0
11
636.774502866014
21
164.501179000000
31
0.0
0
LINE
5
533
100
AcDbEntity
8
B-0
6
CONTINUOUS
62
6
100
AcDbLine
10
649.593224866014
20
164.501179000000
30
0.0
11
660.593224866014
21
164.501179000000
31
0.0
0
LINE
5
534
100
AcDbEntity
8
B-0
6
CONTINUOUS
62
6
100
AcDbLine
10
365.555886866013
20
166.501179000000
30
0.0
11
378.555886866013
21
166.501179000000
31
0.0
0
LINE
5
535
100
AcDbEntity
8
B-0
6
CONTINUOUS
62
6
100
AcDbLine
10
386.838250866013
20
166.501179000000
30
0.0
11
399.838250866013
21
166.501179000000
31
0.0
0
LINE
5
536
100
AcDbEntity
8
B-0
6
CONTINUOUS
62
6
100
AcDbLine
10
422.175998866014
20
166.501179000000
30
0.0
11
435.175998866014
21
166.501179000000
31
0.0
0
LINE
5
537
100
AcDbEntity
8
B-0
6
CONTINUOUS
62
6
100
AcDbLine
10
465.023405866013
20
166.501179000000
30
0.0
11
477.914461866013
21
166.501179000000
31
0.0
0
LINE
5
538
100
AcDbEntity
8
B-0
6
CONTINUOUS
62
6
100
AcDbLine
10
489.367381866013
20
166.501179000000
30
0.0
11
502.367381866013
21
166.501179000000
31
0.0
0
LINE
5
539
100
AcDbEntity
8
B-0
6
CONTINUOUS
62
6
100
AcDbLine
10
520.657819866013
20
166.501179000000
30
0.0
11
533.657819866013
21
166.501179000000
31
0.0
0
LINE
5
53a
100
AcDbEntity
8
B-0
6
CONTINUOUS
62
6
100
AcDbLine
10
543.657819866013
20
166.501179000000
30
0.0
11
556.657819866013
21
166.501179000000
31
0.0
0
LINE
5
53b
100
AcDbEntity
8
B-0
6
CONTINUOUS
62
6
100
AcDbLine
10
566.394927866013
20
166.501179000000
30
0.0
11
579.394927866013
21
166.501179000000
31
0.0
0
LINE
5
53c
100
AcDbEntity
8
B-0
6
CONTINUOUS
62
6
100
AcDbLine
10
600.805630866013
20
166.501179000000
30
0.0
11
613.805630866013
21
166.501179000000
31
0.0
0
LINE
5
53d
100
AcDbEntity
8
B-0
6
CONTINUOUS
62
6
100
AcDbLine
10
622.553801866013
20
166.501179000000
30
0.0
11
635.524764866014
21
166.501179000000
31
0.0
0
LINE
5
53e
100
AcDbEntity
8
B-0
6
CONTINUOUS
62
6
100
AcDbLine
10
649.593224866014
20
166.501179000000
30
0.0
11
660.593224866014
21
166.501179000000
31
0.0
0
LINE
5
53f
100
AcDbEntity
8
B-0
6
CONTINUOUS
62
6
100
AcDbLine
10
366.488501866013
20
168.501179000000
30
0.0
11
379.488501866013
21
168.501179000000
31
0.0
0
LINE
5
540
100
AcDbEntity
8
B-0
6
CONTINUOUS
62
6
100
AcDbLine
10
385.905635866013
20
168.501179000000
30
0.0
11
398.905635866013
21
168.501179000000
31
0.0
0
LINE
5
541
100
AcDbEntity
8
B-0
6
CONTINUOUS
62
6
100
AcDbLine
10
422.175998866014
20
168.501179000000
30
0.0
11
435.175998866014
21
168.501179000000
31
0.0
0
LINE
5
542
100
AcDbEntity
8
B-0
6
CONTINUOUS
62
6
100
AcDbLine
10
464.819056866013
20
168.501179000000
30
0.0
11
477.667331866013
21
168.501179000000
31
0.0
0
LINE
5
543
100
AcDbEntity
8
B-0
6
CONTINUOUS
62
6
100
AcDbLine
10
488.434766866013
20
168.501179000000
30
0.0
11
501.434766866013
21
168.501179000000
31
0.0
0
LINE
5
544
100
AcDbEntity
8
B-0
6
CONTINUOUS
62
6
100
AcDbLine
10
521.590435866013
20
168.501179000000
30
0.0
11
534.590435866013
21
168.501179000000
31
0.0
0
LINE
5
545
100
AcDbEntity
8
B-0
6
CONTINUOUS
62
6
100
AcDbLine
10
544.590435866013
20
168.501179000000
30
0.0
11
557.590435866013
21
168.501179000000
31
0.0
0
LINE
5
546
100
AcDbEntity
8
B-0
6
CONTINUOUS
62
6
100
AcDbLine
10
565.462311866014
20
168.501179000000
30
0.0
11
578.462311866014
21
168.501179000000
31
0.0
0
LINE
5
547
100
AcDbEntity
8
B-0
6
CONTINUOUS
62
6
100
AcDbLine
10
600.805630866013
20
168.501179000000
30
0.0
11
613.805630866013
21
168.501179000000
31
0.0
0
LINE
5
548
100
AcDbEntity
8
B-0
6
CONTINUOUS
62
6
100
AcDbLine
10
621.304063866013
20
168.501179000000
30
0.0
11
634.275025866013
21
168.501179000000
31
0.0
0
LINE
5
549
100
AcDbEntity
8
B-0
6
CONTINUOUS
62
6
100
AcDbLine
10
649.593224866014
20
168.501179000000
30
0.0
11
660.593224866014
21
168.501179000000
31
0.0
0
LINE
5
54a
100
AcDbEntity
8
B-0
6
CONTINUOUS
62
6
100
AcDbLine
10
367.421117866013
20
170.501179000000
30
0.0
11
380.421117866013
21
170.501179000000
31
0.0
0
LINE
5
54b
100
AcDbEntity
8
B-0
6
CONTINUOUS
62
6
100
AcDbLine
10
384.973019866013
20
170.501179000000
30
0.0
11
397.973019866013
21
170.501179000000
31
0.0
0
LINE
5
54c
100
AcDbEntity
8
B-0
6
CONTINUOUS
62
6
100
AcDbLine
10
422.175998866014
20
170.501179000000
30
0.0
11
435.175998866014
21
170.501179000000
31
0.0
0
LINE
5
54d
100
AcDbEntity
8
B-0
6
CONTINUOUS
62
6
100
AcDbLine
10
464.463578866013
20
170.501179000000
30
0.0
11
477.339208866013
21
170.501179000000
31
0.0
0
LINE
5
54e
100
AcDbEntity
8
B-0
6
CONTINUOUS
62
6
100
AcDbLine
10
487.502151866013
20
170.501179000000
30
0.0
11
500.502151866013
21
170.501179000000
31
0.0
0
LINE
5
54f
100
AcDbEntity
8
B-0
6
CONTINUOUS
62
6
100
AcDbLine
10
522.523050866013
20
170.501179000000
30
0.0
11
535.523050866013
21
170.501179000000
31
0.0
0
LINE
5
550
100
AcDbEntity
8
B-0
6
CONTINUOUS
62
6
100
AcDbLine
10
545.523050866013
20
170.501179000000
30
0.0
11
558.523050866013
21
170.501179000000
31
0.0
0
LINE
5
551
100
AcDbEntity
8
B-0
6
CONTINUOUS
62
6
100
AcDbLine
10
564.529696866013
20
170.501179000000
30
0.0
11
577.529696866013
21
170.501179000000
31
0.0
0
LINE
5
552
100
AcDbEntity
8
B-0
6
CONTINUOUS
62
6
100
AcDbLine
10
600.805630866013
20
170.501179000000
30
0.0
11
613.805630866013
21
170.501179000000
31
0.0
0
LINE
5
553
100
AcDbEntity
8
B-0
6
CONTINUOUS
62
6
100
AcDbLine
10
620.054324866014
20
170.501179000000
30
0.0
11
633.025286866013
21
170.501179000000
31
0.0
0
LINE
5
554
100
AcDbEntity
8
B-0
6
CONTINUOUS
62
6
100
AcDbLine
10
649.593224866014
20
170.501179000000
30
0.0
11
660.593224866014
21
170.501179000000
31
0.0
0
LINE
5
555
100
AcDbEntity
8
B-0
6
CONTINUOUS
62
6
100
AcDbLine
10
368.353732866013
20
172.501179000000
30
0.0
11
381.353732866013
21
172.501179000000
31
0.0
0
LINE
5
556
100
AcDbEntity
8
B-0
6
CONTINUOUS
62
6
100
AcDbLine
10
384.040404866013
20
172.501179000000
30
0.0
11
397.040404866013
21
172.501179000000
31
0.0
0
LINE
5
557
100
AcDbEntity
8
B-0
6
CONTINUOUS
62
6
100
AcDbLine
10
422.175998866014
20
172.501179000000
30
0.0
11
435.175998866014
21
172.501179000000
31
0.0
0
LINE
5
558
100
AcDbEntity
8
B-0
6
CONTINUOUS
62
6
100
AcDbLine
10
463.862916866013
20
172.501179000000
30
0.0
11
476.931398866014
21
172.501179000000
31
0.0
0
LINE
5
559
100
AcDbEntity
8
B-0
6
CONTINUOUS
62
6
100
AcDbLine
10
486.569535866013
20
172.501179000000
30
0.0
11
499.569535866013
21
172.501179000000
31
0.0
0
LINE
5
55a
100
AcDbEntity
8
B-0
6
CONTINUOUS
62
6
100
AcDbLine
10
523.455665866013
20
172.501179000000
30
0.0
11
536.455665866013
21
172.501179000000
31
0.0
0
LINE
5
55b
100
AcDbEntity
8
B-0
6
CONTINUOUS
62
6
100
AcDbLine
10
546.455665866013
20
172.501179000000
30
0.0
11
559.455665866013
21
172.501179000000
31
0.0
0
LINE
5
55c
100
AcDbEntity
8
B-0
6
CONTINUOUS
62
6
100
AcDbLine
10
563.597081866013
20
172.501179000000
30
0.0
11
576.597081866013
21
172.501179000000
31
0.0
0
LINE
5
55d
100
AcDbEntity
8
B-0
6
CONTINUOUS
62
6
100
AcDbLine
10
600.805630866013
20
172.501179000000
30
0.0
11
613.805630866013
21
172.501179000000
31
0.0
0
LINE
5
55e
100
AcDbEntity
8
B-0
6
CONTINUOUS
62
6
100
AcDbLine
10
618.804585866013
20
172.501179000000
30
0.0
11
631.775548866013
21
172.501179000000
31
0.0
0
LINE
5
55f
100
AcDbEntity
8
B-0
6
CONTINUOUS
62
6
100
AcDbLine
10
649.593224866014
20
172.501179000000
30
0.0
11
660.593224866014
21
172.501179000000
31
0.0
0
LINE
5
560
100
AcDbEntity
8
B-0
6
CONTINUOUS
62
6
100
AcDbLine
10
369.286347866013
20
174.501179000000
30
0.0
11
382.286347866013
21
174.501179000000
31
0.0
0
LINE
5
561
100
AcDbEntity
8
B-0
6
CONTINUOUS
62
6
100
AcDbLine
10
383.107789866013
20
174.501179000000
30
0.0
11
396.107789866013
21
174.501179000000
31
0.0
0
LINE
5
562
100
AcDbEntity
8
B-0
6
CONTINUOUS
62
6
100
AcDbLine
10
422.175998866014
20
174.501179000000
30
0.0
11
435.175998866014
21
174.501179000000
31
0.0
0
LINE
5
563
100
AcDbEntity
8
B-0
6
CONTINUOUS
62
6
100
AcDbLine
10
462.884610866013
20
174.501179000000
30
0.0
11
476.447509866013
21
174.501179000000
31
0.0
0
LINE
5
564
100
AcDbEntity
8
B-0
6
CONTINUOUS
62
6
100
AcDbLine
10
485.636920866013
20
174.501179000000
30
0.0
11
498.636920866013
21
174.501179000000
31
0.0
0
LINE
5
565
100
AcDbEntity
8
B-0
6
CONTINUOUS
62
6
100
AcDbLine
10
524.388281866013
20
174.501179000000
30
0.0
11
537.388281866013
21
174.501179000000
31
0.0
0
LINE
5
566
100
AcDbEntity
8
B-0
6
CONTINUOUS
62
6
100
AcDbLine
10
547.388281866013
20
174.501179000000
30
0.0
11
560.388281866013
21
174.501179000000
31
0.0
0
LINE
5
567
100
AcDbEntity
8
B-0
6
CONTINUOUS
62
6
100
AcDbLine
10
562.664465866013
20
174.501179000000
30
0.0
11
575.664465866013
21
174.501179000000
31
0.0
0
LINE
5
568
100
AcDbEntity
8
B-0
6
CONTINUOUS
62
6
100
AcDbLine
10
600.805630866013
20
174.501179000000
30
0.0
11
613.805630866013
21
174.501179000000
31
0.0
0
LINE
5
569
100
AcDbEntity
8
B-0
6
CONTINUOUS
62
6
100
AcDbLine
10
617.554846866013
20
174.501179000000
30
0.0
11
630.525809866014
21
174.501179000000
31
0.0
0
LINE
5
56a
100
AcDbEntity
8
B-0
6
CONTINUOUS
62
6
100
AcDbLine
10
649.593224866014
20
174.501179000000
30
0.0
11
660.593224866014
21
174.501179000000
31
0.0
0
LINE
5
56b
100
AcDbEntity
8
B-0
6
CONTINUOUS
62
6
100
AcDbLine
10
370.218963866013
20
176.501179000000
30
0.0
11
395.175173866013
21
176.501179000000
31
0.0
0
LINE
5
56c
100
AcDbEntity
8
B-0
6
CONTINUOUS
62
6
100
AcDbLine
10
422.175998866014
20
176.501179000000
30
0.0
11
435.175998866014
21
176.501179000000
31
0.0
0
LINE
5
56d
100
AcDbEntity
8
B-0
6
CONTINUOUS
62
6
100
AcDbLine
10
461.223328866013
20
176.501179000000
30
0.0
11
475.877218866013
21
176.501179000000
31
0.0
0
LINE
5
56e
100
AcDbEntity
8
B-0
6
CONTINUOUS
62
6
100
AcDbLine
10
484.704305866014
20
176.501179000000
30
0.0
11
497.704305866014
21
176.501179000000
31
0.0
0
LINE
5
56f
100
AcDbEntity
8
B-0
6
CONTINUOUS
62
6
100
AcDbLine
10
525.320896866014
20
176.501179000000
30
0.0
11
538.320896866014
21
176.501179000000
31
0.0
0
LINE
5
570
100
AcDbEntity
8
B-0
6
CONTINUOUS
62
6
100
AcDbLine
10
548.320896866014
20
176.501179000000
30
0.0
11
561.320896866014
21
176.501179000000
31
0.0
0
LINE
5
571
100
AcDbEntity
8
B-0
6
CONTINUOUS
62
6
100
AcDbLine
10
561.731850866013
20
176.501179000000
30
0.0
11
574.731850866013
21
176.501179000000
31
0.0
0
LINE
5
572
100
AcDbEntity
8
B-0
6
CONTINUOUS
62
6
100
AcDbLine
10
600.805630866013
20
176.501179000000
30
0.0
11
613.805630866013
21
176.501179000000
31
0.0
0
LINE
5
573
100
AcDbEntity
8
B-0
6
CONTINUOUS
62
6
100
AcDbLine
10
616.305108866013
20
176.501179000000
30
0.0
11
629.276070866013
21
176.501179000000
31
0.0
0
LINE
5
574
100
AcDbEntity
8
B-0
6
CONTINUOUS
62
6
100
AcDbLine
10
649.593224866014
20
176.501179000000
30
0.0
11
660.593224866014
21
176.501179000000
31
0.0
0
LINE
5
575
100
AcDbEntity
8
B-0
6
CONTINUOUS
62
6
100
AcDbLine
10
371.151578866013
20
178.501179000000
30
0.0
11
394.242558866014
21
178.501179000000
31
0.0
0
LINE
5
576
100
AcDbEntity
8
B-0
6
CONTINUOUS
62
6
100
AcDbLine
10
422.175998866014
20
178.501179000000
30
0.0
11
435.175998866014
21
178.501179000000
31
0.0
0
LINE
5
577
100
AcDbEntity
8
B-0
6
CONTINUOUS
62
6
100
AcDbLine
10
458.629523866013
20
178.501179000000
30
0.0
11
475.171954866013
21
178.501179000000
31
0.0
0
LINE
5
578
100
AcDbEntity
8
B-0
6
CONTINUOUS
62
6
100
AcDbLine
10
483.771690866013
20
178.501179000000
30
0.0
11
496.771690866013
21
178.501179000000
31
0.0
0
LINE
5
579
100
AcDbEntity
8
B-0
6
CONTINUOUS
62
6
100
AcDbLine
10
526.253511866013
20
178.501179000000
30
0.0
11
539.253511866013
21
178.501179000000
31
0.0
0
LINE
5
57a
100
AcDbEntity
8
B-0
6
CONTINUOUS
62
6
100
AcDbLine
10
549.253511866013
20
178.501179000000
30
0.0
11
573.799235866013
21
178.501179000000
31
0.0
0
LINE
5
57b
100
AcDbEntity
8
B-0
6
CONTINUOUS
62
6
100
AcDbLine
10
600.805630866013
20
178.501179000000
30
0.0
11
613.805630866013
21
178.501179000000
31
0.0
0
LINE
5
57c
100
AcDbEntity
8
B-0
6
CONTINUOUS
62
6
100
AcDbLine
10
615.055369866014
20
178.501179000000
30
0.0
11
628.026331866013
21
178.501179000000
31
0.0
0
LINE
5
57d
100
AcDbEntity
8
B-0
6
CONTINUOUS
62
6
100
AcDbLine
10
649.593224866014
20
178.501179000000
30
0.0
11
660.593224866014
21
178.501179000000
31
0.0
0
LINE
5
57e
100
AcDbEntity
8
B-0
6
CONTINUOUS
62
6
100
AcDbLine
10
372.084193866013
20
180.501179000000
30
0.0
11
393.309943866014
21
180.501179000000
31
0.0
0
LINE
5
57f
100
AcDbEntity
8
B-0
6
CONTINUOUS
62
6
100
AcDbLine
10
422.175998866014
20
180.501179000000
30
0.0
11
435.175998866014
21
180.501179000000
31
0.0
0
LINE
5
580
100
AcDbEntity
8
B-0
6
CONTINUOUS
62
6
100
AcDbLine
10
455.175998866014
20
180.501179000000
30
0.0
11
474.175998866014
21
180.501179000000
31
0.0
0
LINE
5
581
100
AcDbEntity
8
B-0
6
CONTINUOUS
62
6
100
AcDbLine
10
482.839074866013
20
180.501179000000
30
0.0
11
495.839074866013
21
180.501179000000
31
0.0
0
LINE
5
582
100
AcDbEntity
8
B-0
6
CONTINUOUS
62
6
100
AcDbLine
10
527.186127866013
20
180.501179000000
30
0.0
11
540.186127866013
21
180.501179000000
31
0.0
0
LINE
5
583
100
AcDbEntity
8
B-0
6
CONTINUOUS
62
6
100
AcDbLine
10
550.186127866013
20
180.501179000000
30
0.0
11
572.866619866013
21
180.501179000000
31
0.0
0
LINE
5
584
100
AcDbEntity
8
B-0
6
CONTINUOUS
62
6
100
AcDbLine
10
600.805630866013
20
180.501179000000
30
0.0
11
613.805630866013
21
180.501179000000
31
0.0
0
LINE
5
585
100
AcDbEntity
8
B-0
6
CONTINUOUS
62
6
100
AcDbLine
10
613.805630866013
20
180.501179000000
30
0.0
11
626.776593866013
21
180.501179000000
31
0.0
0
LINE
5
586
100
AcDbEntity
8
B-0
6
CONTINUOUS
62
6
100
AcDbLine
10
649.593224866014
20
180.501179000000
30
0.0
11
660.593224866014
21
180.501179000000
31
0.0
0
LINE
5
587
100
AcDbEntity
8
B-0
6
CONTINUOUS
62
6
100
AcDbLine
10
373.016808866013
20
182.501179000000
30
0.0
11
392.377327866014
21
182.501179000000
31
0.0
0
LINE
5
588
100
AcDbEntity
8
B-0
6
CONTINUOUS
62
6
100
AcDbLine
10
422.175998866014
20
182.501179000000
30
0.0
11
472.586131866013
21
182.501179000000
31
0.0
0
LINE
5
589
100
AcDbEntity
8
B-0
6
CONTINUOUS
62
6
100
AcDbLine
10
481.906459866013
20
182.501179000000
30
0.0
11
494.906459866013
21
182.501179000000
31
0.0
0
LINE
5
58a
100
AcDbEntity
8
B-0
6
CONTINUOUS
62
6
100
AcDbLine
10
528.118742866013
20
182.501179000000
30
0.0
11
541.118742866013
21
182.501179000000
31
0.0
0
LINE
5
58b
100
AcDbEntity
8
B-0
6
CONTINUOUS
62
6
100
AcDbLine
10
551.118742866013
20
182.501179000000
30
0.0
11
571.934004866014
21
182.501179000000
31
0.0
0
LINE
5
58c
100
AcDbEntity
8
B-0
6
CONTINUOUS
62
6
100
AcDbLine
10
600.805630866013
20
182.501179000000
30
0.0
11
625.526854866014
21
182.501179000000
31
0.0
0
LINE
5
58d
100
AcDbEntity
8
B-0
6
CONTINUOUS
62
6
100
AcDbLine
10
649.593224866014
20
182.501179000000
30
0.0
11
660.593224866014
21
182.501179000000
31
0.0
0
LINE
5
58e
100
AcDbEntity
8
B-0
6
CONTINUOUS
62
6
100
AcDbLine
10
373.949424866013
20
184.501179000000
30
0.0
11
391.444712866013
21
184.501179000000
31
0.0
0
LINE
5
58f
100
AcDbEntity
8
B-0
6
CONTINUOUS
62
6
100
AcDbLine
10
422.175998866014
20
184.501179000000
30
0.0
11
470.341864866013
21
184.501179000000
31
0.0
0
LINE
5
590
100
AcDbEntity
8
B-0
6
CONTINUOUS
62
6
100
AcDbLine
10
480.973844866013
20
184.501179000000
30
0.0
11
493.973844866013
21
184.501179000000
31
0.0
0
LINE
5
591
100
AcDbEntity
8
B-0
6
CONTINUOUS
62
6
100
AcDbLine
10
529.051357866013
20
184.501179000000
30
0.0
11
542.051357866013
21
184.501179000000
31
0.0
0
LINE
5
592
100
AcDbEntity
8
B-0
6
CONTINUOUS
62
6
100
AcDbLine
10
552.051357866013
20
184.501179000000
30
0.0
11
571.001389866013
21
184.501179000000
31
0.0
0
LINE
5
593
100
AcDbEntity
8
B-0
6
CONTINUOUS
62
6
100
AcDbLine
10
600.805630866013
20
184.501179000000
30
0.0
11
624.277115866013
21
184.501179000000
31
0.0
0
LINE
5
594
100
AcDbEntity
8
B-0
6
CONTINUOUS
62
6
100
AcDbLine
10
649.593224866014
20
184.501179000000
30
0.0
11
660.593224866014
21
184.501179000000
31
0.0
0
LINE
5
595
100
AcDbEntity
8
B-0
6
CONTINUOUS
62
6
100
AcDbLine
10
374.882039866013
20
186.501179000000
30
0.0
11
390.512097866013
21
186.501179000000
31
0.0
0
LINE
5
596
100
AcDbEntity
8
B-0
6
CONTINUOUS
62
6
100
AcDbLine
10
422.175998866014
20
186.501179000000
30
0.0
11
467.004066866013
21
186.501179000000
31
0.0
0
LINE
5
597
100
AcDbEntity
8
B-0
6
CONTINUOUS
62
6
100
AcDbLine
10
480.041228866013
20
186.501179000000
30
0.0
11
493.041228866013
21
186.501179000000
31
0.0
0
LINE
5
598
100
AcDbEntity
8
B-0
6
CONTINUOUS
62
6
100
AcDbLine
10
529.983973866013
20
186.501179000000
30
0.0
11
542.983973866013
21
186.501179000000
31
0.0
0
LINE
5
599
100
AcDbEntity
8
B-0
6
CONTINUOUS
62
6
100
AcDbLine
10
552.983973866013
20
186.501179000000
30
0.0
11
570.068773866013
21
186.501179000000
31
0.0
0
LINE
5
59a
100
AcDbEntity
8
B-0
6
CONTINUOUS
62
6
100
AcDbLine
10
600.805630866013
20
186.501179000000
30
0.0
11
623.027377866013
21
186.501179000000
31
0.0
0
LINE
5
59b
100
AcDbEntity
8
B-0
6
CONTINUOUS
62
6
100
AcDbLine
10
649.593224866014
20
186.501179000000
30
0.0
11
660.593224866014
21
186.501179000000
31
0.0
0
LINE
5
59c
100
AcDbEntity
8
B-0
6
CONTINUOUS
62
6
100
AcDbLine
10
375.814654866013
20
188.501179000000
30
0.0
11
389.579481866013
21
188.501179000000
31
0.0
0
LINE
5
59d
100
AcDbEntity
8
B-0
6
CONTINUOUS
62
6
100
AcDbLine
10
422.175998866014
20
188.501179000000
30
0.0
11
462.175998866014
21
188.501179000000
31
0.0
0
LINE
5
59e
100
AcDbEntity
8
B-0
6
CONTINUOUS
62
6
100
AcDbLine
10
479.108613866013
20
188.501179000000
30
0.0
11
492.108613866013
21
188.501179000000
31
0.0
0
LINE
5
59f
100
AcDbEntity
8
B-0
6
CONTINUOUS
62
6
100
AcDbLine
10
530.916588866013
20
188.501179000000
30
0.0
11
543.916588866013
21
188.501179000000
31
0.0
0
LINE
5
5a0
100
AcDbEntity
8
B-0
6
CONTINUOUS
62
6
100
AcDbLine
10
553.916588866013
20
188.501179000000
30
0.0
11
569.136158866013
21
188.501179000000
31
0.0
0
LINE
5
5a1
100
AcDbEntity
8
B-0
6
CONTINUOUS
62
6
100
AcDbLine
10
600.805630866013
20
188.501179000000
30
0.0
11
621.777638866013
21
188.501179000000
31
0.0
0
LINE
5
5a2
100
AcDbEntity
8
B-0
6
CONTINUOUS
62
6
100
AcDbLine
10
649.593224866014
20
188.501179000000
30
0.0
11
660.593224866014
21
188.501179000000
31
0.0
0
LINE
5
5a3
100
AcDbEntity
8
B-0
6
CONTINUOUS
62
6
100
AcDbLine
10
376.747270866013
20
190.501179000000
30
0.0
11
388.646866866013
21
190.501179000000
31
0.0
0
LINE
5
5a4
100
AcDbEntity
8
B-0
6
CONTINUOUS
62
6
100
AcDbLine
10
422.175998866014
20
190.501179000000
30
0.0
11
455.175998866014
21
190.501179000000
31
0.0
0
LINE
5
5a5
100
AcDbEntity
8
B-0
6
CONTINUOUS
62
6
100
AcDbLine
10
478.175998866014
20
190.501179000000
30
0.0
11
491.175998866014
21
190.501179000000
31
0.0
0
LINE
5
5a6
100
AcDbEntity
8
B-0
6
CONTINUOUS
62
6
100
AcDbLine
10
531.849203866014
20
190.501179000000
30
0.0
11
544.849203866014
21
190.501179000000
31
0.0
0
LINE
5
5a7
100
AcDbEntity
8
B-0
6
CONTINUOUS
62
6
100
AcDbLine
10
554.849203866014
20
190.501179000000
30
0.0
11
568.203543866013
21
190.501179000000
31
0.0
0
LINE
5
5a8
100
AcDbEntity
8
B-0
6
CONTINUOUS
62
6
100
AcDbLine
10
600.805630866013
20
190.501179000000
30
0.0
11
620.527899866014
21
190.501179000000
31
0.0
0
LINE
5
5a9
100
AcDbEntity
8
B-0
6
CONTINUOUS
62
6
100
AcDbLine
10
649.593224866014
20
190.501179000000
30
0.0
11
660.593224866014
21
190.501179000000
31
0.0
0
LINE
5
5aa
100
AcDbEntity
8
B-0
6
CONTINUOUS
62
6
100
AcDbLine
10
350.167733866013
20
133.501179000000
30
0.0
11
363.167733866013
21
133.501179000000
31
0.0
0
LINE
5
5ab
100
AcDbEntity
8
B-0
6
CONTINUOUS
62
6
100
AcDbLine
10
402.226403866013
20
133.501179000000
30
0.0
11
415.226403866013
21
133.501179000000
31
0.0
0
LINE
5
5ac
100
AcDbEntity
8
B-0
6
CONTINUOUS
62
6
100
AcDbLine
10
422.175998866014
20
133.501179000000
30
0.0
11
457.283270866013
21
133.501179000000
31
0.0
0
LINE
5
5ad
100
AcDbEntity
8
B-0
6
CONTINUOUS
62
6
100
AcDbLine
10
504.755534866013
20
133.501179000000
30
0.0
11
518.269667866013
21
133.501179000000
31
0.0
0
LINE
5
5ae
100
AcDbEntity
8
B-0
6
CONTINUOUS
62
6
100
AcDbLine
10
528.269667866013
20
133.501179000000
30
0.0
11
541.269667866013
21
133.501179000000
31
0.0
0
LINE
5
5af
100
AcDbEntity
8
B-0
6
CONTINUOUS
62
6
100
AcDbLine
10
581.783079866013
20
133.501179000000
30
0.0
11
594.783079866013
21
133.501179000000
31
0.0
0
LINE
5
5b0
100
AcDbEntity
8
B-0
6
CONTINUOUS
62
6
100
AcDbLine
10
600.805630866013
20
133.501179000000
30
0.0
11
613.805630866013
21
133.501179000000
31
0.0
0
LINE
5
5b1
100
AcDbEntity
8
B-0
6
CONTINUOUS
62
6
100
AcDbLine
10
643.174490866013
20
133.501179000000
30
0.0
11
660.593224866014
21
133.501179000000
31
0.0
0
LINE
5
5b2
100
AcDbEntity
8
B-0
6
CONTINUOUS
62
6
100
AcDbLine
10
351.100349866013
20
135.501179000000
30
0.0
11
364.100349866013
21
135.501179000000
31
0.0
0
LINE
5
5b3
100
AcDbEntity
8
B-0
6
CONTINUOUS
62
6
100
AcDbLine
10
401.293787866013
20
135.501179000000
30
0.0
11
414.293787866013
21
135.501179000000
31
0.0
0
LINE
5
5b4
100
AcDbEntity
8
B-0
6
CONTINUOUS
62
6
100
AcDbLine
10
422.175998866014
20
135.501179000000
30
0.0
11
463.701624866013
21
135.501179000000
31
0.0
0
LINE
5
5b5
100
AcDbEntity
8
B-0
6
CONTINUOUS
62
6
100
AcDbLine
10
503.822919866014
20
135.501179000000
30
0.0
11
519.202282866014
21
135.501179000000
31
0.0
0
LINE
5
5b6
100
AcDbEntity
8
B-0
6
CONTINUOUS
62
6
100
AcDbLine
10
529.202282866014
20
135.501179000000
30
0.0
11
542.202282866014
21
135.501179000000
31
0.0
0
LINE
5
5b7
100
AcDbEntity
8
B-0
6
CONTINUOUS
62
6
100
AcDbLine
10
580.850464866013
20
135.501179000000
30
0.0
11
593.850464866013
21
135.501179000000
31
0.0
0
LINE
5
5b8
100
AcDbEntity
8
B-0
6
CONTINUOUS
62
6
100
AcDbLine
10
600.805630866013
20
135.501179000000
30
0.0
11
613.805630866013
21
135.501179000000
31
0.0
0
LINE
5
5b9
100
AcDbEntity
8
B-0
6
CONTINUOUS
62
6
100
AcDbLine
10
641.924751866013
20
135.501179000000
30
0.0
11
660.593224866014
21
135.501179000000
31
0.0
0
LINE
5
5ba
100
AcDbEntity
8
B-0
6
CONTINUOUS
62
6
100
AcDbLine
10
352.032964866013
20
137.501179000000
30
0.0
11
365.032964866013
21
137.501179000000
31
0.0
0
LINE
5
5bb
100
AcDbEntity
8
B-0
6
CONTINUOUS
62
6
100
AcDbLine
10
400.361172866013
20
137.501179000000
30
0.0
11
413.361172866013
21
137.501179000000
31
0.0
0
LINE
5
5bc
100
AcDbEntity
8
B-0
6
CONTINUOUS
62
6
100
AcDbLine
10
422.175998866014
20
137.501179000000
30
0.0
11
468.089725866013
21
137.501179000000
31
0.0
0
LINE
5
5bd
100
AcDbEntity
8
B-0
6
CONTINUOUS
62
6
100
AcDbLine
10
502.890304866013
20
137.501179000000
30
0.0
11
520.134897866013
21
137.501179000000
31
0.0
0
LINE
5
5be
100
AcDbEntity
8
B-0
6
CONTINUOUS
62
6
100
AcDbLine
10
530.134897866013
20
137.501179000000
30
0.0
11
543.134897866013
21
137.501179000000
31
0.0
0
LINE
5
5bf
100
AcDbEntity
8
B-0
6
CONTINUOUS
62
6
100
AcDbLine
10
579.917849866013
20
137.501179000000
30
0.0
11
592.917849866013
21
137.501179000000
31
0.0
0
LINE
5
5c0
100
AcDbEntity
8
B-0
6
CONTINUOUS
62
6
100
AcDbLine
10
600.805630866013
20
137.501179000000
30
0.0
11
613.805630866013
21
137.501179000000
31
0.0
0
LINE
5
5c1
100
AcDbEntity
8
B-0
6
CONTINUOUS
62
6
100
AcDbLine
10
640.675012866014
20
137.501179000000
30
0.0
11
660.593224866014
21
137.501179000000
31
0.0
0
LINE
5
5c2
100
AcDbEntity
8
B-0
6
CONTINUOUS
62
6
100
AcDbLine
10
352.965579866014
20
139.501179000000
30
0.0
11
365.965579866014
21
139.501179000000
31
0.0
0
LINE
5
5c3
100
AcDbEntity
8
B-0
6
CONTINUOUS
62
6
100
AcDbLine
10
399.428557866014
20
139.501179000000
30
0.0
11
412.428557866014
21
139.501179000000
31
0.0
0
LINE
5
5c4
100
AcDbEntity
8
B-0
6
CONTINUOUS
62
6
100
AcDbLine
10
422.175998866014
20
139.501179000000
30
0.0
11
471.032664866013
21
139.501179000000
31
0.0
0
LINE
5
5c5
100
AcDbEntity
8
B-0
6
CONTINUOUS
62
6
100
AcDbLine
10
501.957688866013
20
139.501179000000
30
0.0
11
521.067513866013
21
139.501179000000
31
0.0
0
LINE
5
5c6
100
AcDbEntity
8
B-0
6
CONTINUOUS
62
6
100
AcDbLine
10
531.067513866013
20
139.501179000000
30
0.0
11
544.067513866013
21
139.501179000000
31
0.0
0
LINE
5
5c7
100
AcDbEntity
8
B-0
6
CONTINUOUS
62
6
100
AcDbLine
10
578.985233866013
20
139.501179000000
30
0.0
11
591.985233866013
21
139.501179000000
31
0.0
0
LINE
5
5c8
100
AcDbEntity
8
B-0
6
CONTINUOUS
62
6
100
AcDbLine
10
600.805630866013
20
139.501179000000
30
0.0
11
613.805630866013
21
139.501179000000
31
0.0
0
LINE
5
5c9
100
AcDbEntity
8
B-0
6
CONTINUOUS
62
6
100
AcDbLine
10
639.425274866014
20
139.501179000000
30
0.0
11
660.593224866014
21
139.501179000000
31
0.0
0
LINE
5
5ca
100
AcDbEntity
8
B-0
6
CONTINUOUS
62
6
100
AcDbLine
10
353.898194866013
20
141.501179000000
30
0.0
11
366.898194866013
21
141.501179000000
31
0.0
0
LINE
5
5cb
100
AcDbEntity
8
B-0
6
CONTINUOUS
62
6
100
AcDbLine
10
398.495941866013
20
141.501179000000
30
0.0
11
411.495941866013
21
141.501179000000
31
0.0
0
LINE
5
5cc
100
AcDbEntity
8
B-0
6
CONTINUOUS
62
6
100
AcDbLine
10
422.175998866014
20
141.501179000000
30
0.0
11
473.095021866013
21
141.501179000000
31
0.0
0
LINE
5
5cd
100
AcDbEntity
8
B-0
6
CONTINUOUS
62
6
100
AcDbLine
10
501.025073866013
20
141.501179000000
30
0.0
11
522.000128866013
21
141.501179000000
31
0.0
0
LINE
5
5ce
100
AcDbEntity
8
B-0
6
CONTINUOUS
62
6
100
AcDbLine
10
532.000128866013
20
141.501179000000
30
0.0
11
545.000128866013
21
141.501179000000
31
0.0
0
LINE
5
5cf
100
AcDbEntity
8
B-0
6
CONTINUOUS
62
6
100
AcDbLine
10
578.052618866014
20
141.501179000000
30
0.0
11
591.052618866014
21
141.501179000000
31
0.0
0
LINE
5
5d0
100
AcDbEntity
8
B-0
6
CONTINUOUS
62
6
100
AcDbLine
10
600.805630866013
20
141.501179000000
30
0.0
11
613.805630866013
21
141.501179000000
31
0.0
0
LINE
5
5d1
100
AcDbEntity
8
B-0
6
CONTINUOUS
62
6
100
AcDbLine
10
638.175535866013
20
141.501179000000
30
0.0
11
660.593224866014
21
141.501179000000
31
0.0
0
LINE
5
5d2
100
AcDbEntity
8
B-0
6
CONTINUOUS
62
6
100
AcDbLine
10
354.830810866013
20
143.501179000000
30
0.0
11
367.830810866013
21
143.501179000000
31
0.0
0
LINE
5
5d3
100
AcDbEntity
8
B-0
6
CONTINUOUS
62
6
100
AcDbLine
10
397.563326866013
20
143.501179000000
30
0.0
11
410.563326866013
21
143.501179000000
31
0.0
0
LINE
5
5d4
100
AcDbEntity
8
B-0
6
CONTINUOUS
62
6
100
AcDbLine
10
422.175998866014
20
143.501179000000
30
0.0
11
435.175998866014
21
143.501179000000
31
0.0
0
LINE
5
5d5
100
AcDbEntity
8
B-0
6
CONTINUOUS
62
6
100
AcDbLine
10
456.174446866013
20
143.501179000000
30
0.0
11
474.487805866014
21
143.501179000000
31
0.0
0
LINE
5
5d6
100
AcDbEntity
8
B-0
6
CONTINUOUS
62
6
100
AcDbLine
10
500.092458866013
20
143.501179000000
30
0.0
11
522.932743866013
21
143.501179000000
31
0.0
0
LINE
5
5d7
100
AcDbEntity
8
B-0
6
CONTINUOUS
62
6
100
AcDbLine
10
532.932743866013
20
143.501179000000
30
0.0
11
545.932743866013
21
143.501179000000
31
0.0
0
LINE
5
5d8
100
AcDbEntity
8
B-0
6
CONTINUOUS
62
6
100
AcDbLine
10
577.120003866013
20
143.501179000000
30
0.0
11
590.120003866013
21
143.501179000000
31
0.0
0
LINE
5
5d9
100
AcDbEntity
8
B-0
6
CONTINUOUS
62
6
100
AcDbLine
10
600.805630866013
20
143.501179000000
30
0.0
11
613.805630866013
21
143.501179000000
31
0.0
0
LINE
5
5da
100
AcDbEntity
8
B-0
6
CONTINUOUS
62
6
100
AcDbLine
10
636.925796866013
20
143.501179000000
30
0.0
11
660.593224866014
21
143.501179000000
31
0.0
0
LINE
5
5db
100
AcDbEntity
8
B-0
6
CONTINUOUS
62
6
100
AcDbLine
10
355.763425866013
20
145.501179000000
30
0.0
11
368.763425866013
21
145.501179000000
31
0.0
0
LINE
5
5dc
100
AcDbEntity
8
B-0
6
CONTINUOUS
62
6
100
AcDbLine
10
396.630711866013
20
145.501179000000
30
0.0
11
409.630711866013
21
145.501179000000
31
0.0
0
LINE
5
5dd
100
AcDbEntity
8
B-0
6
CONTINUOUS
62
6
100
AcDbLine
10
422.175998866014
20
145.501179000000
30
0.0
11
435.175998866014
21
145.501179000000
31
0.0
0
LINE
5
5de
100
AcDbEntity
8
B-0
6
CONTINUOUS
62
6
100
AcDbLine
10
459.452784866013
20
145.501179000000
30
0.0
11
475.383563866013
21
145.501179000000
31
0.0
0
LINE
5
5df
100
AcDbEntity
8
B-0
6
CONTINUOUS
62
6
100
AcDbLine
10
499.159842866013
20
145.501179000000
30
0.0
11
523.865359866013
21
145.501179000000
31
0.0
0
LINE
5
5e0
100
AcDbEntity
8
B-0
6
CONTINUOUS
62
6
100
AcDbLine
10
533.865359866013
20
145.501179000000
30
0.0
11
546.865359866013
21
145.501179000000
31
0.0
0
LINE
5
5e1
100
AcDbEntity
8
B-0
6
CONTINUOUS
62
6
100
AcDbLine
10
576.187387866013
20
145.501179000000
30
0.0
11
589.187387866013
21
145.501179000000
31
0.0
0
LINE
5
5e2
100
AcDbEntity
8
B-0
6
CONTINUOUS
62
6
100
AcDbLine
10
600.805630866013
20
145.501179000000
30
0.0
11
613.805630866013
21
145.501179000000
31
0.0
0
LINE
5
5e3
100
AcDbEntity
8
B-0
6
CONTINUOUS
62
6
100
AcDbLine
10
635.676058866013
20
145.501179000000
30
0.0
11
648.647020866013
21
145.501179000000
31
0.0
0
LINE
5
5e4
100
AcDbEntity
8
B-0
6
CONTINUOUS
62
6
100
AcDbLine
10
649.593224866014
20
145.501179000000
30
0.0
11
660.593224866014
21
145.501179000000
31
0.0
0
LINE
5
5e5
100
AcDbEntity
8
B-0
6
CONTINUOUS
62
6
100
AcDbLine
10
356.696040866013
20
147.501179000000
30
0.0
11
408.698095866014
21
147.501179000000
31
0.0
0
LINE
5
5e6
100
AcDbEntity
8
B-0
6
CONTINUOUS
62
6
100
AcDbLine
10
422.175998866014
20
147.501179000000
30
0.0
11
435.175998866014
21
147.501179000000
31
0.0
0
LINE
5
5e7
100
AcDbEntity
8
B-0
6
CONTINUOUS
62
6
100
AcDbLine
10
461.783150866013
20
147.501179000000
30
0.0
11
476.046148866013
21
147.501179000000
31
0.0
0
LINE
5
5e8
100
AcDbEntity
8
B-0
6
CONTINUOUS
62
6
100
AcDbLine
10
498.227227866013
20
147.501179000000
30
0.0
11
511.227227866013
21
147.501179000000
31
0.0
0
LINE
5
5e9
100
AcDbEntity
8
B-0
6
CONTINUOUS
62
6
100
AcDbLine
10
511.797974866013
20
147.501179000000
30
0.0
11
524.797974866013
21
147.501179000000
31
0.0
0
LINE
5
5ea
100
AcDbEntity
8
B-0
6
CONTINUOUS
62
6
100
AcDbLine
10
534.797974866013
20
147.501179000000
30
0.0
11
588.254772866014
21
147.501179000000
31
0.0
0
LINE
5
5eb
100
AcDbEntity
8
B-0
6
CONTINUOUS
62
6
100
AcDbLine
10
600.805630866013
20
147.501179000000
30
0.0
11
613.805630866013
21
147.501179000000
31
0.0
0
LINE
5
5ec
100
AcDbEntity
8
B-0
6
CONTINUOUS
62
6
100
AcDbLine
10
634.426319866014
20
147.501179000000
30
0.0
11
647.397281866013
21
147.501179000000
31
0.0
0
LINE
5
5ed
100
AcDbEntity
8
B-0
6
CONTINUOUS
62
6
100
AcDbLine
10
649.593224866014
20
147.501179000000
30
0.0
11
660.593224866014
21
147.501179000000
31
0.0
0
LINE
5
5ee
100
AcDbEntity
8
B-0
6
CONTINUOUS
62
6
100
AcDbLine
10
357.628656866013
20
149.501179000000
30
0.0
11
407.765480866013
21
149.501179000000
31
0.0
0
LINE
5
5ef
100
AcDbEntity
8
B-0
6
CONTINUOUS
62
6
100
AcDbLine
10
422.175998866014
20
149.501179000000
30
0.0
11
435.175998866014
21
149.501179000000
31
0.0
0
LINE
5
5f0
100
AcDbEntity
8
B-0
6
CONTINUOUS
62
6
100
AcDbLine
10
463.158943866013
20
149.501179000000
30
0.0
11
476.587927866013
21
149.501179000000
31
0.0
0
LINE
5
5f1
100
AcDbEntity
8
B-0
6
CONTINUOUS
62
6
100
AcDbLine
10
497.294612866013
20
149.501179000000
30
0.0
11
510.294612866013
21
149.501179000000
31
0.0
0
LINE
5
5f2
100
AcDbEntity
8
B-0
6
CONTINUOUS
62
6
100
AcDbLine
10
512.730589866013
20
149.501179000000
30
0.0
11
525.730589866013
21
149.501179000000
31
0.0
0
LINE
5
5f3
100
AcDbEntity
8
B-0
6
CONTINUOUS
62
6
100
AcDbLine
10
535.730589866013
20
149.501179000000
30
0.0
11
587.322157866013
21
149.501179000000
31
0.0
0
LINE
5
5f4
100
AcDbEntity
8
B-0
6
CONTINUOUS
62
6
100
AcDbLine
10
600.805630866013
20
149.501179000000
30
0.0
11
613.805630866013
21
149.501179000000
31
0.0
0
LINE
5
5f5
100
AcDbEntity
8
B-0
6
CONTINUOUS
62
6
100
AcDbLine
10
633.176580866013
20
149.501179000000
30
0.0
11
646.147543866013
21
149.501179000000
31
0.0
0
LINE
5
5f6
100
AcDbEntity
8
B-0
6
CONTINUOUS
62
6
100
AcDbLine
10
649.593224866014
20
149.501179000000
30
0.0
11
660.593224866014
21
149.501179000000
31
0.0
0
LINE
5
5f7
100
AcDbEntity
8
B-0
6
CONTINUOUS
62
6
100
AcDbLine
10
358.561271866013
20
151.501179000000
30
0.0
11
406.832865866013
21
151.501179000000
31
0.0
0
LINE
5
5f8
100
AcDbEntity
8
B-0
6
CONTINUOUS
62
6
100
AcDbLine
10
422.175998866014
20
151.501179000000
30
0.0
11
435.175998866014
21
151.501179000000
31
0.0
0
LINE
5
5f9
100
AcDbEntity
8
B-0
6
CONTINUOUS
62
6
100
AcDbLine
10
464.028483866013
20
151.501179000000
30
0.0
11
477.059964866013
21
151.501179000000
31
0.0
0
LINE
5
5fa
100
AcDbEntity
8
B-0
6
CONTINUOUS
62
6
100
AcDbLine
10
496.361996866013
20
151.501179000000
30
0.0
11
509.361996866013
21
151.501179000000
31
0.0
0
LINE
5
5fb
100
AcDbEntity
8
B-0
6
CONTINUOUS
62
6
100
AcDbLine
10
513.663205866013
20
151.501179000000
30
0.0
11
526.663205866013
21
151.501179000000
31
0.0
0
LINE
5
5fc
100
AcDbEntity
8
B-0
6
CONTINUOUS
62
6
100
AcDbLine
10
536.663205866013
20
151.501179000000
30
0.0
11
586.389542866013
21
151.501179000000
31
0.0
0
LINE
5
5fd
100
AcDbEntity
8
B-0
6
CONTINUOUS
62
6
100
AcDbLine
10
600.805630866013
20
151.501179000000
30
0.0
11
613.805630866013
21
151.501179000000
31
0.0
0
LINE
5
5fe
100
AcDbEntity
8
B-0
6
CONTINUOUS
62
6
100
AcDbLine
10
631.926842866013
20
151.501179000000
30
0.0
11
644.897804866014
21
151.501179000000
31
0.0
0
LINE
5
5ff
100
AcDbEntity
8
B-0
6
CONTINUOUS
62
6
100
AcDbLine
10
649.593224866014
20
151.501179000000
30
0.0
11
660.593224866014
21
151.501179000000
31
0.0
0
LINE
5
600
100
AcDbEntity
8
B-0
6
CONTINUOUS
62
6
100
AcDbLine
10
359.493886866014
20
153.501179000000
30
0.0
11
405.900249866013
21
153.501179000000
31
0.0
0
LINE
5
601
100
AcDbEntity
8
B-0
6
CONTINUOUS
62
6
100
AcDbLine
10
422.175998866014
20
153.501179000000
30
0.0
11
435.175998866014
21
153.501179000000
31
0.0
0
LINE
5
602
100
AcDbEntity
8
B-0
6
CONTINUOUS
62
6
100
AcDbLine
10
464.571171866013
20
153.501179000000
30
0.0
11
477.445469866014
21
153.501179000000
31
0.0
0
LINE
5
603
100
AcDbEntity
8
B-0
6
CONTINUOUS
62
6
100
AcDbLine
10
495.429381866013
20
153.501179000000
30
0.0
11
508.429381866013
21
153.501179000000
31
0.0
0
LINE
5
604
100
AcDbEntity
8
B-0
6
CONTINUOUS
62
6
100
AcDbLine
10
514.595820866013
20
153.501179000000
30
0.0
11
527.595820866013
21
153.501179000000
31
0.0
0
LINE
5
605
100
AcDbEntity
8
B-0
6
CONTINUOUS
62
6
100
AcDbLine
10
537.595820866013
20
153.501179000000
30
0.0
11
585.456926866013
21
153.501179000000
31
0.0
0
LINE
5
606
100
AcDbEntity
8
B-0
6
CONTINUOUS
62
6
100
AcDbLine
10
600.805630866013
20
153.501179000000
30
0.0
11
613.805630866013
21
153.501179000000
31
0.0
0
LINE
5
607
100
AcDbEntity
8
B-0
6
CONTINUOUS
62
6
100
AcDbLine
10
630.677103866013
20
153.501179000000
30
0.0
11
643.648065866013
21
153.501179000000
31
0.0
0
LINE
5
608
100
AcDbEntity
8
B-0
6
CONTINUOUS
62
6
100
AcDbLine
10
649.593224866014
20
153.501179000000
30
0.0
11
660.593224866014
21
153.501179000000
31
0.0
0
LINE
5
609
100
AcDbEntity
8
B-0
6
CONTINUOUS
62
6
100
AcDbLine
10
360.426502866013
20
155.501179000000
30
0.0
11
404.967634866013
21
155.501179000000
31
0.0
0
LINE
5
60a
100
AcDbEntity
8
B-0
6
CONTINUOUS
62
6
100
AcDbLine
10
422.175998866014
20
155.501179000000
30
0.0
11
435.175998866014
21
155.501179000000
31
0.0
0
LINE
5
60b
100
AcDbEntity
8
B-0
6
CONTINUOUS
62
6
100
AcDbLine
10
464.900932866013
20
155.501179000000
30
0.0
11
477.748592866013
21
155.501179000000
31
0.0
0
LINE
5
60c
100
AcDbEntity
8
B-0
6
CONTINUOUS
62
6
100
AcDbLine
10
494.496766866014
20
155.501179000000
30
0.0
11
507.496766866014
21
155.501179000000
31
0.0
0
LINE
5
60d
100
AcDbEntity
8
B-0
6
CONTINUOUS
62
6
100
AcDbLine
10
515.528435866014
20
155.501179000000
30
0.0
11
528.528435866014
21
155.501179000000
31
0.0
0
LINE
5
60e
100
AcDbEntity
8
B-0
6
CONTINUOUS
62
6
100
AcDbLine
10
538.528435866014
20
155.501179000000
30
0.0
11
584.524311866013
21
155.501179000000
31
0.0
0
LINE
5
60f
100
AcDbEntity
8
B-0
6
CONTINUOUS
62
6
100
AcDbLine
10
600.805630866013
20
155.501179000000
30
0.0
11
613.805630866013
21
155.501179000000
31
0.0
0
LINE
5
610
100
AcDbEntity
8
B-0
6
CONTINUOUS
62
6
100
AcDbLine
10
629.427364866013
20
155.501179000000
30
0.0
11
642.398327866013
21
155.501179000000
31
0.0
0
LINE
5
611
100
AcDbEntity
8
B-0
6
CONTINUOUS
62
6
100
AcDbLine
10
649.593224866014
20
155.501179000000
30
0.0
11
660.593224866014
21
155.501179000000
31
0.0
0
LINE
5
612
100
AcDbEntity
8
B-0
6
CONTINUOUS
62
6
100
AcDbLine
10
361.359117866013
20
157.501179000000
30
0.0
11
374.359117866013
21
157.501179000000
31
0.0
0
LINE
5
613
100
AcDbEntity
8
B-0
6
CONTINUOUS
62
6
100
AcDbLine
10
391.035019866014
20
157.501179000000
30
0.0
11
404.035019866014
21
157.501179000000
31
0.0
0
LINE
5
614
100
AcDbEntity
8
B-0
6
CONTINUOUS
62
6
100
AcDbLine
10
422.175998866014
20
157.501179000000
30
0.0
11
435.175998866014
21
157.501179000000
31
0.0
0
LINE
5
615
100
AcDbEntity
8
B-0
6
CONTINUOUS
62
6
100
AcDbLine
10
465.070009866013
20
157.501179000000
30
0.0
11
477.970091866013
21
157.501179000000
31
0.0
0
LINE
5
616
100
AcDbEntity
8
B-0
6
CONTINUOUS
62
6
100
AcDbLine
10
493.564150866014
20
157.501179000000
30
0.0
11
506.564150866014
21
157.501179000000
31
0.0
0
LINE
5
617
100
AcDbEntity
8
B-0
6
CONTINUOUS
62
6
100
AcDbLine
10
516.461051866014
20
157.501179000000
30
0.0
11
529.461051866014
21
157.501179000000
31
0.0
0
LINE
5
618
100
AcDbEntity
8
B-0
6
CONTINUOUS
62
6
100
AcDbLine
10
539.461051866014
20
157.501179000000
30
0.0
11
552.461051866014
21
157.501179000000
31
0.0
0
LINE
5
619
100
AcDbEntity
8
B-0
6
CONTINUOUS
62
6
100
AcDbLine
10
570.591696866013
20
157.501179000000
30
0.0
11
583.591696866013
21
157.501179000000
31
0.0
0
LINE
5
61a
100
AcDbEntity
8
B-0
6
CONTINUOUS
62
6
100
AcDbLine
10
600.805630866013
20
157.501179000000
30
0.0
11
613.805630866013
21
157.501179000000
31
0.0
0
LINE
5
61b
100
AcDbEntity
8
B-0
6
CONTINUOUS
62
6
100
AcDbLine
10
628.177625866013
20
157.501179000000
30
0.0
11
641.148588866013
21
157.501179000000
31
0.0
0
LINE
5
61c
100
AcDbEntity
8
B-0
6
CONTINUOUS
62
6
100
AcDbLine
10
649.593224866014
20
157.501179000000
30
0.0
11
660.593224866014
21
157.501179000000
31
0.0
0
LINE
5
61d
100
AcDbEntity
8
B-0
6
CONTINUOUS
62
6
100
AcDbLine
10
362.291732866013
20
159.501179000000
30
0.0
11
375.291732866013
21
159.501179000000
31
0.0
0
LINE
5
61e
100
AcDbEntity
8
B-0
6
CONTINUOUS
62
6
100
AcDbLine
10
390.102403866013
20
159.501179000000
30
0.0
11
403.102403866013
21
159.501179000000
31
0.0
0
LINE
5
61f
100
AcDbEntity
8
B-0
6
CONTINUOUS
62
6
100
AcDbLine
10
422.175998866014
20
159.501179000000
30
0.0
11
435.175998866014
21
159.501179000000
31
0.0
0
LINE
5
620
100
AcDbEntity
8
B-0
6
CONTINUOUS
62
6
100
AcDbLine
10
465.145197866013
20
159.501179000000
30
0.0
11
478.108330866013
21
159.501179000000
31
0.0
0
LINE
5
621
100
AcDbEntity
8
B-0
6
CONTINUOUS
62
6
100
AcDbLine
10
492.631535866013
20
159.501179000000
30
0.0
11
505.631535866013
21
159.501179000000
31
0.0
0
LINE
5
622
100
AcDbEntity
8
B-0
6
CONTINUOUS
62
6
100
AcDbLine
10
517.393666866013
20
159.501179000000
30
0.0
11
530.393666866013
21
159.501179000000
31
0.0
0
LINE
5
623
100
AcDbEntity
8
B-0
6
CONTINUOUS
62
6
100
AcDbLine
10
540.393666866013
20
159.501179000000
30
0.0
11
553.393666866013
21
159.501179000000
31
0.0
0
LINE
5
624
100
AcDbEntity
8
B-0
6
CONTINUOUS
62
6
100
AcDbLine
10
569.659080866013
20
159.501179000000
30
0.0
11
582.659080866013
21
159.501179000000
31
0.0
0
LINE
5
625
100
AcDbEntity
8
B-0
6
CONTINUOUS
62
6
100
AcDbLine
10
600.805630866013
20
159.501179000000
30
0.0
11
613.805630866013
21
159.501179000000
31
0.0
0
LINE
5
626
100
AcDbEntity
8
B-0
6
CONTINUOUS
62
6
100
AcDbLine
10
626.927887866013
20
159.501179000000
30
0.0
11
639.898849866014
21
159.501179000000
31
0.0
0
LINE
5
627
100
AcDbEntity
8
B-0
6
CONTINUOUS
62
6
100
AcDbLine
10
649.593224866014
20
159.501179000000
30
0.0
11
660.593224866014
21
159.501179000000
31
0.0
0
LINE
5
628
100
AcDbEntity
8
B-0
6
CONTINUOUS
62
6
100
AcDbLine
10
363.224348866014
20
161.501179000000
30
0.0
11
376.224348866014
21
161.501179000000
31
0.0
0
LINE
5
629
100
AcDbEntity
8
B-0
6
CONTINUOUS
62
6
100
AcDbLine
10
389.169788866014
20
161.501179000000
30
0.0
11
402.169788866014
21
161.501179000000
31
0.0
0
LINE
5
62a
100
AcDbEntity
8
B-0
6
CONTINUOUS
62
6
100
AcDbLine
10
422.175998866014
20
161.501179000000
30
0.0
11
435.175998866014
21
161.501179000000
31
0.0
0
LINE
5
62b
100
AcDbEntity
8
B-0
6
CONTINUOUS
62
6
100
AcDbLine
10
465.174803866013
20
161.501179000000
30
0.0
11
478.172759866013
21
161.501179000000
31
0.0
0
LINE
5
62c
100
AcDbEntity
8
B-0
6
CONTINUOUS
62
6
100
AcDbLine
10
491.698920866013
20
161.501179000000
30
0.0
11
504.698920866013
21
161.501179000000
31
0.0
0
LINE
5
62d
100
AcDbEntity
8
B-0
6
CONTINUOUS
62
6
100
AcDbLine
10
518.326281866013
20
161.501179000000
30
0.0
11
531.326281866013
21
161.501179000000
31
0.0
0
LINE
5
62e
100
AcDbEntity
8
B-0
6
CONTINUOUS
62
6
100
AcDbLine
10
541.326281866013
20
161.501179000000
30
0.0
11
554.326281866013
21
161.501179000000
31
0.0
0
LINE
5
62f
100
AcDbEntity
8
B-0
6
CONTINUOUS
62
6
100
AcDbLine
10
568.726465866014
20
161.501179000000
30
0.0
11
581.726465866014
21
161.501179000000
31
0.0
0
LINE
5
630
100
AcDbEntity
8
B-0
6
CONTINUOUS
62
6
100
AcDbLine
10
600.805630866013
20
161.501179000000
30
0.0
11
613.805630866013
21
161.501179000000
31
0.0
0
LINE
5
631
100
AcDbEntity
8
B-0
6
CONTINUOUS
62
6
100
AcDbLine
10
625.678148866013
20
161.501179000000
30
0.0
11
638.649110866013
21
161.501179000000
31
0.0
0
LINE
5
632
100
AcDbEntity
8
B-0
6
CONTINUOUS
62
6
100
AcDbLine
10
649.593224866014
20
161.501179000000
30
0.0
11
660.593224866014
21
161.501179000000
31
0.0
0
LINE
5
633
100
AcDbEntity
8
B-0
6
CONTINUOUS
62
6
100
AcDbLine
10
364.156963866013
20
163.501179000000
30
0.0
11
377.156963866013
21
163.501179000000
31
0.0
0
LINE
5
634
100
AcDbEntity
8
B-0
6
CONTINUOUS
62
6
100
AcDbLine
10
388.237173866013
20
163.501179000000
30
0.0
11
401.237173866013
21
163.501179000000
31
0.0
0
LINE
5
635
100
AcDbEntity
8
B-0
6
CONTINUOUS
62
6
100
AcDbLine
10
422.175998866014
20
163.501179000000
30
0.0
11
435.175998866014
21
163.501179000000
31
0.0
0
LINE
5
636
100
AcDbEntity
8
B-0
6
CONTINUOUS
62
6
100
AcDbLine
10
465.158697866013
20
163.501179000000
30
0.0
11
478.132172866013
21
163.501179000000
31
0.0
0
LINE
5
637
100
AcDbEntity
8
B-0
6
CONTINUOUS
62
6
100
AcDbLine
10
490.766304866014
20
163.501179000000
30
0.0
11
503.766304866014
21
163.501179000000
31
0.0
0
LINE
5
638
100
AcDbEntity
8
B-0
6
CONTINUOUS
62
6
100
AcDbLine
10
519.258896866013
20
163.501179000000
30
0.0
11
532.258896866013
21
163.501179000000
31
0.0
0
LINE
5
639
100
AcDbEntity
8
B-0
6
CONTINUOUS
62
6
100
AcDbLine
10
542.258896866013
20
163.501179000000
30
0.0
11
555.258896866013
21
163.501179000000
31
0.0
0
LINE
5
63a
100
AcDbEntity
8
B-0
6
CONTINUOUS
62
6
100
AcDbLine
10
567.793850866013
20
163.501179000000
30
0.0
11
580.793850866013
21
163.501179000000
31
0.0
0
LINE
5
63b
100
AcDbEntity
8
B-0
6
CONTINUOUS
62
6
100
AcDbLine
10
600.805630866013
20
163.501179000000
30
0.0
11
613.805630866013
21
163.501179000000
31
0.0
0
LINE
5
63c
100
AcDbEntity
8
B-0
6
CONTINUOUS
62
6
100
AcDbLine
10
624.428409866013
20
163.501179000000
30
0.0
11
637.399372866013
21
163.501179000000
31
0.0
0
LINE
5
63d
100
AcDbEntity
8
B-0
6
CONTINUOUS
62
6
100
AcDbLine
10
649.593224866014
20
163.501179000000
30
0.0
11
660.593224866014
21
163.501179000000
31
0.0
0
LINE
5
63e
100
AcDbEntity
8
B-0
6
CONTINUOUS
62
6
100
AcDbLine
10
365.089578866013
20
165.501179000000
30
0.0
11
378.089578866013
21
165.501179000000
31
0.0
0
LINE
5
63f
100
AcDbEntity
8
B-0
6
CONTINUOUS
62
6
100
AcDbLine
10
387.304558866013
20
165.501179000000
30
0.0
11
400.304558866013
21
165.501179000000
31
0.0
0
LINE
5
640
100
AcDbEntity
8
B-0
6
CONTINUOUS
62
6
100
AcDbLine
10
422.175998866014
20
165.501179000000
30
0.0
11
435.175998866014
21
165.501179000000
31
0.0
0
LINE
5
641
100
AcDbEntity
8
B-0
6
CONTINUOUS
62
6
100
AcDbLine
10
465.098523866013
20
165.501179000000
30
0.0
11
478.015370866013
21
165.501179000000
31
0.0
0
LINE
5
642
100
AcDbEntity
8
B-0
6
CONTINUOUS
62
6
100
AcDbLine
10
489.833689866013
20
165.501179000000
30
0.0
11
502.833689866013
21
165.501179000000
31
0.0
0
LINE
5
643
100
AcDbEntity
8
B-0
6
CONTINUOUS
62
6
100
AcDbLine
10
520.191512866013
20
165.501179000000
30
0.0
11
533.191512866013
21
165.501179000000
31
0.0
0
LINE
5
644
100
AcDbEntity
8
B-0
6
CONTINUOUS
62
6
100
AcDbLine
10
543.191512866013
20
165.501179000000
30
0.0
11
556.191512866013
21
165.501179000000
31
0.0
0
LINE
5
645
100
AcDbEntity
8
B-0
6
CONTINUOUS
62
6
100
AcDbLine
10
566.861234866013
20
165.501179000000
30
0.0
11
579.861234866013
21
165.501179000000
31
0.0
0
LINE
5
646
100
AcDbEntity
8
B-0
6
CONTINUOUS
62
6
100
AcDbLine
10
600.805630866013
20
165.501179000000
30
0.0
11
613.805630866013
21
165.501179000000
31
0.0
0
LINE
5
647
100
AcDbEntity
8
B-0
6
CONTINUOUS
62
6
100
AcDbLine
10
623.178671866013
20
165.501179000000
30
0.0
11
636.149633866013
21
165.501179000000
31
0.0
0
LINE
5
648
100
AcDbEntity
8
B-0
6
CONTINUOUS
62
6
100
AcDbLine
10
649.593224866014
20
165.501179000000
30
0.0
11
660.593224866014
21
165.501179000000
31
0.0
0
LINE
5
649
100
AcDbEntity
8
B-0
6
CONTINUOUS
62
6
100
AcDbLine
10
366.022194866013
20
167.501179000000
30
0.0
11
379.022194866013
21
167.501179000000
31
0.0
0
LINE
5
64a
100
AcDbEntity
8
B-0
6
CONTINUOUS
62
6
100
AcDbLine
10
386.371942866013
20
167.501179000000
30
0.0
11
399.371942866013
21
167.501179000000
31
0.0
0
LINE
5
64b
100
AcDbEntity
8
B-0
6
CONTINUOUS
62
6
100
AcDbLine
10
422.175998866014
20
167.501179000000
30
0.0
11
435.175998866014
21
167.501179000000
31
0.0
0
LINE
5
64c
100
AcDbEntity
8
B-0
6
CONTINUOUS
62
6
100
AcDbLine
10
464.938866866013
20
167.501179000000
30
0.0
11
477.813552866013
21
167.501179000000
31
0.0
0
LINE
5
64d
100
AcDbEntity
8
B-0
6
CONTINUOUS
62
6
100
AcDbLine
10
488.901074866013
20
167.501179000000
30
0.0
11
501.901074866013
21
167.501179000000
31
0.0
0
LINE
5
64e
100
AcDbEntity
8
B-0
6
CONTINUOUS
62
6
100
AcDbLine
10
521.124127866013
20
167.501179000000
30
0.0
11
534.124127866013
21
167.501179000000
31
0.0
0
LINE
5
64f
100
AcDbEntity
8
B-0
6
CONTINUOUS
62
6
100
AcDbLine
10
544.124127866013
20
167.501179000000
30
0.0
11
557.124127866013
21
167.501179000000
31
0.0
0
LINE
5
650
100
AcDbEntity
8
B-0
6
CONTINUOUS
62
6
100
AcDbLine
10
565.928619866013
20
167.501179000000
30
0.0
11
578.928619866013
21
167.501179000000
31
0.0
0
LINE
5
651
100
AcDbEntity
8
B-0
6
CONTINUOUS
62
6
100
AcDbLine
10
600.805630866013
20
167.501179000000
30
0.0
11
613.805630866013
21
167.501179000000
31
0.0
0
LINE
5
652
100
AcDbEntity
8
B-0
6
CONTINUOUS
62
6
100
AcDbLine
10
621.928932866013
20
167.501179000000
30
0.0
11
634.899894866013
21
167.501179000000
31
0.0
0
LINE
5
653
100
AcDbEntity
8
B-0
6
CONTINUOUS
62
6
100
AcDbLine
10
649.593224866014
20
167.501179000000
30
0.0
11
660.593224866014
21
167.501179000000
31
0.0
0
LINE
5
654
100
AcDbEntity
8
B-0
6
CONTINUOUS
62
6
100
AcDbLine
10
366.954809866013
20
169.501179000000
30
0.0
11
379.954809866013
21
169.501179000000
31
0.0
0
LINE
5
655
100
AcDbEntity
8
B-0
6
CONTINUOUS
62
6
100
AcDbLine
10
385.439327866013
20
169.501179000000
30
0.0
11
398.439327866013
21
169.501179000000
31
0.0
0
LINE
5
656
100
AcDbEntity
8
B-0
6
CONTINUOUS
62
6
100
AcDbLine
10
422.175998866014
20
169.501179000000
30
0.0
11
435.175998866014
21
169.501179000000
31
0.0
0
LINE
5
657
100
AcDbEntity
8
B-0
6
CONTINUOUS
62
6
100
AcDbLine
10
464.647950866013
20
169.501179000000
30
0.0
11
477.519928866014
21
169.501179000000
31
0.0
0
LINE
5
658
100
AcDbEntity
8
B-0
6
CONTINUOUS
62
6
100
AcDbLine
10
487.968458866013
20
169.501179000000
30
0.0
11
500.968458866013
21
169.501179000000
31
0.0
0
LINE
5
659
100
AcDbEntity
8
B-0
6
CONTINUOUS
62
6
100
AcDbLine
10
522.056742866014
20
169.501179000000
30
0.0
11
535.056742866014
21
169.501179000000
31
0.0
0
LINE
5
65a
100
AcDbEntity
8
B-0
6
CONTINUOUS
62
6
100
AcDbLine
10
545.056742866014
20
169.501179000000
30
0.0
11
558.056742866014
21
169.501179000000
31
0.0
0
LINE
5
65b
100
AcDbEntity
8
B-0
6
CONTINUOUS
62
6
100
AcDbLine
10
564.996004866013
20
169.501179000000
30
0.0
11
577.996004866013
21
169.501179000000
31
0.0
0
LINE
5
65c
100
AcDbEntity
8
B-0
6
CONTINUOUS
62
6
100
AcDbLine
10
600.805630866013
20
169.501179000000
30
0.0
11
613.805630866013
21
169.501179000000
31
0.0
0
LINE
5
65d
100
AcDbEntity
8
B-0
6
CONTINUOUS
62
6
100
AcDbLine
10
620.679193866013
20
169.501179000000
30
0.0
11
633.650156866014
21
169.501179000000
31
0.0
0
LINE
5
65e
100
AcDbEntity
8
B-0
6
CONTINUOUS
62
6
100
AcDbLine
10
649.593224866014
20
169.501179000000
30
0.0
11
660.593224866014
21
169.501179000000
31
0.0
0
LINE
5
65f
100
AcDbEntity
8
B-0
6
CONTINUOUS
62
6
100
AcDbLine
10
367.887424866013
20
171.501179000000
30
0.0
11
380.887424866013
21
171.501179000000
31
0.0
0
LINE
5
660
100
AcDbEntity
8
B-0
6
CONTINUOUS
62
6
100
AcDbLine
10
384.506712866013
20
171.501179000000
30
0.0
11
397.506712866013
21
171.501179000000
31
0.0
0
LINE
5
661
100
AcDbEntity
8
B-0
6
CONTINUOUS
62
6
100
AcDbLine
10
422.175998866014
20
171.501179000000
30
0.0
11
435.175998866014
21
171.501179000000
31
0.0
0
LINE
5
662
100
AcDbEntity
8
B-0
6
CONTINUOUS
62
6
100
AcDbLine
10
464.163247866013
20
171.501179000000
30
0.0
11
477.146456866013
21
171.501179000000
31
0.0
0
LINE
5
663
100
AcDbEntity
8
B-0
6
CONTINUOUS
62
6
100
AcDbLine
10
487.035843866013
20
171.501179000000
30
0.0
11
500.035843866013
21
171.501179000000
31
0.0
0
LINE
5
664
100
AcDbEntity
8
B-0
6
CONTINUOUS
62
6
100
AcDbLine
10
522.989358866013
20
171.501179000000
30
0.0
11
535.989358866013
21
171.501179000000
31
0.0
0
LINE
5
665
100
AcDbEntity
8
B-0
6
CONTINUOUS
62
6
100
AcDbLine
10
545.989358866013
20
171.501179000000
30
0.0
11
558.989358866013
21
171.501179000000
31
0.0
0
LINE
5
666
100
AcDbEntity
8
B-0
6
CONTINUOUS
62
6
100
AcDbLine
10
564.063388866013
20
171.501179000000
30
0.0
11
577.063388866013
21
171.501179000000
31
0.0
0
LINE
5
667
100
AcDbEntity
8
B-0
6
CONTINUOUS
62
6
100
AcDbLine
10
600.805630866013
20
171.501179000000
30
0.0
11
613.805630866013
21
171.501179000000
31
0.0
0
LINE
5
668
100
AcDbEntity
8
B-0
6
CONTINUOUS
62
6
100
AcDbLine
10
619.429454866013
20
171.501179000000
30
0.0
11
632.400417866013
21
171.501179000000
31
0.0
0
LINE
5
669
100
AcDbEntity
8
B-0
6
CONTINUOUS
62
6
100
AcDbLine
10
649.593224866014
20
171.501179000000
30
0.0
11
660.593224866014
21
171.501179000000
31
0.0
0
LINE
5
66a
100
AcDbEntity
8
B-0
6
CONTINUOUS
62
6
100
AcDbLine
10
368.820040866013
20
173.501179000000
30
0.0
11
381.820040866013
21
173.501179000000
31
0.0
0
LINE
5
66b
100
AcDbEntity
8
B-0
6
CONTINUOUS
62
6
100
AcDbLine
10
383.574096866013
20
173.501179000000
30
0.0
11
396.574096866013
21
173.501179000000
31
0.0
0
LINE
5
66c
100
AcDbEntity
8
B-0
6
CONTINUOUS
62
6
100
AcDbLine
10
422.175998866014
20
173.501179000000
30
0.0
11
435.175998866014
21
173.501179000000
31
0.0
0
LINE
5
66d
100
AcDbEntity
8
B-0
6
CONTINUOUS
62
6
100
AcDbLine
10
463.379529866013
20
173.501179000000
30
0.0
11
476.694312866013
21
173.501179000000
31
0.0
0
LINE
5
66e
100
AcDbEntity
8
B-0
6
CONTINUOUS
62
6
100
AcDbLine
10
486.103228866013
20
173.501179000000
30
0.0
11
499.103228866013
21
173.501179000000
31
0.0
0
LINE
5
66f
100
AcDbEntity
8
B-0
6
CONTINUOUS
62
6
100
AcDbLine
10
523.921973866013
20
173.501179000000
30
0.0
11
536.921973866013
21
173.501179000000
31
0.0
0
LINE
5
670
100
AcDbEntity
8
B-0
6
CONTINUOUS
62
6
100
AcDbLine
10
546.921973866013
20
173.501179000000
30
0.0
11
559.921973866013
21
173.501179000000
31
0.0
0
LINE
5
671
100
AcDbEntity
8
B-0
6
CONTINUOUS
62
6
100
AcDbLine
10
563.130773866013
20
173.501179000000
30
0.0
11
576.130773866013
21
173.501179000000
31
0.0
0
LINE
5
672
100
AcDbEntity
8
B-0
6
CONTINUOUS
62
6
100
AcDbLine
10
600.805630866013
20
173.501179000000
30
0.0
11
613.805630866013
21
173.501179000000
31
0.0
0
LINE
5
673
100
AcDbEntity
8
B-0
6
CONTINUOUS
62
6
100
AcDbLine
10
618.179716866013
20
173.501179000000
30
0.0
11
631.150678866013
21
173.501179000000
31
0.0
0
LINE
5
674
100
AcDbEntity
8
B-0
6
CONTINUOUS
62
6
100
AcDbLine
10
649.593224866014
20
173.501179000000
30
0.0
11
660.593224866014
21
173.501179000000
31
0.0
0
LINE
5
675
100
AcDbEntity
8
B-0
6
CONTINUOUS
62
6
100
AcDbLine
10
369.752655866013
20
175.501179000000
30
0.0
11
395.641481866013
21
175.501179000000
31
0.0
0
LINE
5
676
100
AcDbEntity
8
B-0
6
CONTINUOUS
62
6
100
AcDbLine
10
422.175998866014
20
175.501179000000
30
0.0
11
435.175998866014
21
175.501179000000
31
0.0
0
LINE
5
677
100
AcDbEntity
8
B-0
6
CONTINUOUS
62
6
100
AcDbLine
10
462.175998866014
20
175.501179000000
30
0.0
11
476.175998866014
21
175.501179000000
31
0.0
0
LINE
5
678
100
AcDbEntity
8
B-0
6
CONTINUOUS
62
6
100
AcDbLine
10
485.170612866013
20
175.501179000000
30
0.0
11
498.170612866013
21
175.501179000000
31
0.0
0
LINE
5
679
100
AcDbEntity
8
B-0
6
CONTINUOUS
62
6
100
AcDbLine
10
524.854588866014
20
175.501179000000
30
0.0
11
537.854588866014
21
175.501179000000
31
0.0
0
LINE
5
67a
100
AcDbEntity
8
B-0
6
CONTINUOUS
62
6
100
AcDbLine
10
547.854588866014
20
175.501179000000
30
0.0
11
560.854588866014
21
175.501179000000
31
0.0
0
LINE
5
67b
100
AcDbEntity
8
B-0
6
CONTINUOUS
62
6
100
AcDbLine
10
562.198158866014
20
175.501179000000
30
0.0
11
575.198158866014
21
175.501179000000
31
0.0
0
LINE
5
67c
100
AcDbEntity
8
B-0
6
CONTINUOUS
62
6
100
AcDbLine
10
600.805630866013
20
175.501179000000
30
0.0
11
613.805630866013
21
175.501179000000
31
0.0
0
LINE
5
67d
100
AcDbEntity
8
B-0
6
CONTINUOUS
62
6
100
AcDbLine
10
616.929977866013
20
175.501179000000
30
0.0
11
629.900939866013
21
175.501179000000
31
0.0
0
LINE
5
67e
100
AcDbEntity
8
B-0
6
CONTINUOUS
62
6
100
AcDbLine
10
649.593224866014
20
175.501179000000
30
0.0
11
660.593224866014
21
175.501179000000
31
0.0
0
LINE
5
67f
100
AcDbEntity
8
B-0
6
CONTINUOUS
62
6
100
AcDbLine
10
370.685270866013
20
177.501179000000
30
0.0
11
394.708866866013
21
177.501179000000
31
0.0
0
LINE
5
680
100
AcDbEntity
8
B-0
6
CONTINUOUS
62
6
100
AcDbLine
10
422.175998866014
20
177.501179000000
30
0.0
11
435.175998866014
21
177.501179000000
31
0.0
0
LINE
5
681
100
AcDbEntity
8
B-0
6
CONTINUOUS
62
6
100
AcDbLine
10
460.051497866013
20
177.501179000000
30
0.0
11
475.547984866013
21
177.501179000000
31
0.0
0
LINE
5
682
100
AcDbEntity
8
B-0
6
CONTINUOUS
62
6
100
AcDbLine
10
484.237997866014
20
177.501179000000
30
0.0
11
497.237997866014
21
177.501179000000
31
0.0
0
LINE
5
683
100
AcDbEntity
8
B-0
6
CONTINUOUS
62
6
100
AcDbLine
10
525.787204866014
20
177.501179000000
30
0.0
11
538.787204866014
21
177.501179000000
31
0.0
0
LINE
5
684
100
AcDbEntity
8
B-0
6
CONTINUOUS
62
6
100
AcDbLine
10
548.787204866014
20
177.501179000000
30
0.0
11
574.265542866013
21
177.501179000000
31
0.0
0
LINE
5
685
100
AcDbEntity
8
B-0
6
CONTINUOUS
62
6
100
AcDbLine
10
600.805630866013
20
177.501179000000
30
0.0
11
613.805630866013
21
177.501179000000
31
0.0
0
LINE
5
686
100
AcDbEntity
8
B-0
6
CONTINUOUS
62
6
100
AcDbLine
10
615.680238866013
20
177.501179000000
30
0.0
11
628.651201866013
21
177.501179000000
31
0.0
0
LINE
5
687
100
AcDbEntity
8
B-0
6
CONTINUOUS
62
6
100
AcDbLine
10
649.593224866014
20
177.501179000000
30
0.0
11
660.593224866014
21
177.501179000000
31
0.0
0
LINE
5
688
100
AcDbEntity
8
B-0
6
CONTINUOUS
62
6
100
AcDbLine
10
371.617885866013
20
179.501179000000
30
0.0
11
393.776250866013
21
179.501179000000
31
0.0
0
LINE
5
689
100
AcDbEntity
8
B-0
6
CONTINUOUS
62
6
100
AcDbLine
10
422.175998866014
20
179.501179000000
30
0.0
11
435.175998866014
21
179.501179000000
31
0.0
0
LINE
5
68a
100
AcDbEntity
8
B-0
6
CONTINUOUS
62
6
100
AcDbLine
10
456.972653866013
20
179.501179000000
30
0.0
11
474.717368866013
21
179.501179000000
31
0.0
0
LINE
5
68b
100
AcDbEntity
8
B-0
6
CONTINUOUS
62
6
100
AcDbLine
10
483.305382866013
20
179.501179000000
30
0.0
11
496.305382866013
21
179.501179000000
31
0.0
0
LINE
5
68c
100
AcDbEntity
8
B-0
6
CONTINUOUS
62
6
100
AcDbLine
10
526.719819866013
20
179.501179000000
30
0.0
11
539.719819866013
21
179.501179000000
31
0.0
0
LINE
5
68d
100
AcDbEntity
8
B-0
6
CONTINUOUS
62
6
100
AcDbLine
10
549.719819866013
20
179.501179000000
30
0.0
11
573.332927866013
21
179.501179000000
31
0.0
0
LINE
5
68e
100
AcDbEntity
8
B-0
6
CONTINUOUS
62
6
100
AcDbLine
10
600.805630866013
20
179.501179000000
30
0.0
11
613.805630866013
21
179.501179000000
31
0.0
0
LINE
5
68f
100
AcDbEntity
8
B-0
6
CONTINUOUS
62
6
100
AcDbLine
10
614.430500866013
20
179.501179000000
30
0.0
11
627.401462866013
21
179.501179000000
31
0.0
0
LINE
5
690
100
AcDbEntity
8
B-0
6
CONTINUOUS
62
6
100
AcDbLine
10
649.593224866014
20
179.501179000000
30
0.0
11
660.593224866014
21
179.501179000000
31
0.0
0
LINE
5
691
100
AcDbEntity
8
B-0
6
CONTINUOUS
62
6
100
AcDbLine
10
372.550501866014
20
181.501179000000
30
0.0
11
392.843635866014
21
181.501179000000
31
0.0
0
LINE
5
692
100
AcDbEntity
8
B-0
6
CONTINUOUS
62
6
100
AcDbLine
10
422.175998866014
20
181.501179000000
30
0.0
11
473.486557866014
21
181.501179000000
31
0.0
0
LINE
5
693
100
AcDbEntity
8
B-0
6
CONTINUOUS
62
6
100
AcDbLine
10
482.372767866013
20
181.501179000000
30
0.0
11
495.372767866013
21
181.501179000000
31
0.0
0
LINE
5
694
100
AcDbEntity
8
B-0
6
CONTINUOUS
62
6
100
AcDbLine
10
527.652434866013
20
181.501179000000
30
0.0
11
540.652434866013
21
181.501179000000
31
0.0
0
LINE
5
695
100
AcDbEntity
8
B-0
6
CONTINUOUS
62
6
100
AcDbLine
10
550.652434866013
20
181.501179000000
30
0.0
11
572.400312866014
21
181.501179000000
31
0.0
0
LINE
5
696
100
AcDbEntity
8
B-0
6
CONTINUOUS
62
6
100
AcDbLine
10
600.805630866013
20
181.501179000000
30
0.0
11
626.151723866013
21
181.501179000000
31
0.0
0
LINE
5
697
100
AcDbEntity
8
B-0
6
CONTINUOUS
62
6
100
AcDbLine
10
649.593224866014
20
181.501179000000
30
0.0
11
660.593224866014
21
181.501179000000
31
0.0
0
LINE
5
698
100
AcDbEntity
8
B-0
6
CONTINUOUS
62
6
100
AcDbLine
10
373.483116866013
20
183.501179000000
30
0.0
11
391.911020866013
21
183.501179000000
31
0.0
0
LINE
5
699
100
AcDbEntity
8
B-0
6
CONTINUOUS
62
6
100
AcDbLine
10
422.175998866014
20
183.501179000000
30
0.0
11
471.594946866014
21
183.501179000000
31
0.0
0
LINE
5
69a
100
AcDbEntity
8
B-0
6
CONTINUOUS
62
6
100
AcDbLine
10
481.440151866013
20
183.501179000000
30
0.0
11
494.440151866013
21
183.501179000000
31
0.0
0
LINE
5
69b
100
AcDbEntity
8
B-0
6
CONTINUOUS
62
6
100
AcDbLine
10
528.585050866013
20
183.501179000000
30
0.0
11
541.585050866013
21
183.501179000000
31
0.0
0
LINE
5
69c
100
AcDbEntity
8
B-0
6
CONTINUOUS
62
6
100
AcDbLine
10
551.585050866013
20
183.501179000000
30
0.0
11
571.467696866014
21
183.501179000000
31
0.0
0
LINE
5
69d
100
AcDbEntity
8
B-0
6
CONTINUOUS
62
6
100
AcDbLine
10
600.805630866013
20
183.501179000000
30
0.0
11
624.901985866013
21
183.501179000000
31
0.0
0
LINE
5
69e
100
AcDbEntity
8
B-0
6
CONTINUOUS
62
6
100
AcDbLine
10
649.593224866014
20
183.501179000000
30
0.0
11
660.593224866014
21
183.501179000000
31
0.0
0
LINE
5
69f
100
AcDbEntity
8
B-0
6
CONTINUOUS
62
6
100
AcDbLine
10
374.415731866013
20
185.501179000000
30
0.0
11
390.978404866013
21
185.501179000000
31
0.0
0
LINE
5
6a0
100
AcDbEntity
8
B-0
6
CONTINUOUS
62
6
100
AcDbLine
10
422.175998866014
20
185.501179000000
30
0.0
11
468.817287866013
21
185.501179000000
31
0.0
0
LINE
5
6a1
100
AcDbEntity
8
B-0
6
CONTINUOUS
62
6
100
AcDbLine
10
480.507536866013
20
185.501179000000
30
0.0
11
493.507536866013
21
185.501179000000
31
0.0
0
LINE
5
6a2
100
AcDbEntity
8
B-0
6
CONTINUOUS
62
6
100
AcDbLine
10
529.517665866013
20
185.501179000000
30
0.0
11
542.517665866013
21
185.501179000000
31
0.0
0
LINE
5
6a3
100
AcDbEntity
8
B-0
6
CONTINUOUS
62
6
100
AcDbLine
10
552.517665866013
20
185.501179000000
30
0.0
11
570.535081866013
21
185.501179000000
31
0.0
0
LINE
5
6a4
100
AcDbEntity
8
B-0
6
CONTINUOUS
62
6
100
AcDbLine
10
600.805630866013
20
185.501179000000
30
0.0
11
623.652246866013
21
185.501179000000
31
0.0
0
LINE
5
6a5
100
AcDbEntity
8
B-0
6
CONTINUOUS
62
6
100
AcDbLine
10
649.593224866014
20
185.501179000000
30
0.0
11
660.593224866014
21
185.501179000000
31
0.0
0
LINE
5
6a6
100
AcDbEntity
8
B-0
6
CONTINUOUS
62
6
100
AcDbLine
10
375.348347866013
20
187.501179000000
30
0.0
11
390.045789866013
21
187.501179000000
31
0.0
0
LINE
5
6a7
100
AcDbEntity
8
B-0
6
CONTINUOUS
62
6
100
AcDbLine
10
422.175998866014
20
187.501179000000
30
0.0
11
464.806628866013
21
187.501179000000
31
0.0
0
LINE
5
6a8
100
AcDbEntity
8
B-0
6
CONTINUOUS
62
6
100
AcDbLine
10
479.574921866013
20
187.501179000000
30
0.0
11
492.574921866013
21
187.501179000000
31
0.0
0
LINE
5
6a9
100
AcDbEntity
8
B-0
6
CONTINUOUS
62
6
100
AcDbLine
10
530.450280866013
20
187.501179000000
30
0.0
11
543.450280866013
21
187.501179000000
31
0.0
0
LINE
5
6aa
100
AcDbEntity
8
B-0
6
CONTINUOUS
62
6
100
AcDbLine
10
553.450280866013
20
187.501179000000
30
0.0
11
569.602466866013
21
187.501179000000
31
0.0
0
LINE
5
6ab
100
AcDbEntity
8
B-0
6
CONTINUOUS
62
6
100
AcDbLine
10
600.805630866013
20
187.501179000000
30
0.0
11
622.402507866013
21
187.501179000000
31
0.0
0
LINE
5
6ac
100
AcDbEntity
8
B-0
6
CONTINUOUS
62
6
100
AcDbLine
10
649.593224866014
20
187.501179000000
30
0.0
11
660.593224866014
21
187.501179000000
31
0.0
0
LINE
5
6ad
100
AcDbEntity
8
B-0
6
CONTINUOUS
62
6
100
AcDbLine
10
376.280962866013
20
189.501179000000
30
0.0
11
389.113174866013
21
189.501179000000
31
0.0
0
LINE
5
6ae
100
AcDbEntity
8
B-0
6
CONTINUOUS
62
6
100
AcDbLine
10
422.175998866014
20
189.501179000000
30
0.0
11
458.922671866013
21
189.501179000000
31
0.0
0
LINE
5
6af
100
AcDbEntity
8
B-0
6
CONTINUOUS
62
6
100
AcDbLine
10
478.642305866013
20
189.501179000000
30
0.0
11
491.642305866013
21
189.501179000000
31
0.0
0
LINE
5
6b0
100
AcDbEntity
8
B-0
6
CONTINUOUS
62
6
100
AcDbLine
10
531.382896866013
20
189.501179000000
30
0.0
11
544.382896866013
21
189.501179000000
31
0.0
0
LINE
5
6b1
100
AcDbEntity
8
B-0
6
CONTINUOUS
62
6
100
AcDbLine
10
554.382896866013
20
189.501179000000
30
0.0
11
568.669851866013
21
189.501179000000
31
0.0
0
LINE
5
6b2
100
AcDbEntity
8
B-0
6
CONTINUOUS
62
6
100
AcDbLine
10
600.805630866013
20
189.501179000000
30
0.0
11
621.152769866013
21
189.501179000000
31
0.0
0
LINE
5
6b3
100
AcDbEntity
8
B-0
6
CONTINUOUS
62
6
100
AcDbLine
10
649.593224866014
20
189.501179000000
30
0.0
11
660.593224866014
21
189.501179000000
31
0.0
0
LINE
5
6b4
100
AcDbEntity
8
B-0
6
CONTINUOUS
62
6
100
AcDbLine
10
241.838370866013
20
134.190526000000
30
0.0
11
283.876868866013
21
134.190526000000
31
0.0
0
LINE
5
6b5
100
AcDbEntity
8
B-0
6
CONTINUOUS
62
6
100
AcDbLine
10
241.838370866013
20
135.190526000000
30
0.0
11
283.876868866013
21
135.190526000000
31
0.0
0
LINE
5
6b6
100
AcDbEntity
8
B-0
6
CONTINUOUS
62
6
100
AcDbLine
10
241.838370866013
20
136.190526000000
30
0.0
11
283.876868866013
21
136.190526000000
31
0.0
0
LINE
5
6b7
100
AcDbEntity
8
B-0
6
CONTINUOUS
62
6
100
AcDbLine
10
241.838370866013
20
137.190526000000
30
0.0
11
283.876868866013
21
137.190526000000
31
0.0
0
LINE
5
6b8
100
AcDbEntity
8
B-0
6
CONTINUOUS
62
6
100
AcDbLine
10
241.838370866013
20
138.190526000000
30
0.0
11
283.876868866013
21
138.190526000000
31
0.0
0
LINE
5
6b9
100
AcDbEntity
8
B-0
6
CONTINUOUS
62
6
100
AcDbLine
10
241.838370866013
20
139.190526000000
30
0.0
11
283.876868866013
21
139.190526000000
31
0.0
0
LINE
5
6ba
100
AcDbEntity
8
B-0
6
CONTINUOUS
62
6
100
AcDbLine
10
241.838370866013
20
140.190526000000
30
0.0
11
283.876868866013
21
140.190526000000
31
0.0
0
LINE
5
6bb
100
AcDbEntity
8
B-0
6
CONTINUOUS
62
6
100
AcDbLine
10
241.838370866013
20
141.190526000000
30
0.0
11
283.876868866013
21
141.190526000000
31
0.0
0
LINE
5
6bc
100
AcDbEntity
8
B-0
6
CONTINUOUS
62
6
100
AcDbLine
10
241.838370866013
20
142.190526000000
30
0.0
11
283.876868866013
21
142.190526000000
31
0.0
0
LINE
5
6bd
100
AcDbEntity
8
B-0
6
CONTINUOUS
62
6
100
AcDbLine
10
241.838370866013
20
143.190526000000
30
0.0
11
283.876868866013
21
143.190526000000
31
0.0
0
LINE
5
6be
100
AcDbEntity
8
B-0
6
CONTINUOUS
62
6
100
AcDbLine
10
241.838370866013
20
144.190526000000
30
0.0
11
283.876868866013
21
144.190526000000
31
0.0
0
LINE
5
6bf
100
AcDbEntity
8
B-0
6
CONTINUOUS
62
6
100
AcDbLine
10
241.838370866013
20
145.190526000000
30
0.0
11
283.876868866013
21
145.190526000000
31
0.0
0
LINE
5
6c0
100
AcDbEntity
8
B-0
6
CONTINUOUS
62
6
100
AcDbLine
10
241.838370866013
20
146.190526000000
30
0.0
11
283.876868866013
21
146.190526000000
31
0.0
0
LINE
5
6c1
100
AcDbEntity
8
B-0
6
CONTINUOUS
62
6
100
AcDbLine
10
241.838370866013
20
147.190526000000
30
0.0
11
283.876868866013
21
147.190526000000
31
0.0
0
LINE
5
6c2
100
AcDbEntity
8
B-0
6
CONTINUOUS
62
6
100
AcDbLine
10
241.838370866013
20
148.190526000000
30
0.0
11
283.876868866013
21
148.190526000000
31
0.0
0
LINE
5
6c3
100
AcDbEntity
8
B-0
6
CONTINUOUS
62
6
100
AcDbLine
10
241.838370866013
20
149.190526000000
30
0.0
11
283.876868866013
21
149.190526000000
31
0.0
0
LINE
5
6c4
100
AcDbEntity
8
B-0
6
CONTINUOUS
62
6
100
AcDbLine
10
241.838370866013
20
150.190526000000
30
0.0
11
283.876868866013
21
150.190526000000
31
0.0
0
LINE
5
6c5
100
AcDbEntity
8
B-0
6
CONTINUOUS
62
6
100
AcDbLine
10
241.838370866013
20
151.190526000000
30
0.0
11
283.876868866013
21
151.190526000000
31
0.0
0
LINE
5
6c6
100
AcDbEntity
8
B-0
6
CONTINUOUS
62
6
100
AcDbLine
10
241.838370866013
20
152.190526000000
30
0.0
11
283.876868866013
21
152.190526000000
31
0.0
0
LINE
5
6c7
100
AcDbEntity
8
B-0
6
CONTINUOUS
62
6
100
AcDbLine
10
241.838370866013
20
153.190526000000
30
0.0
11
283.876868866013
21
153.190526000000
31
0.0
0
LINE
5
6c8
100
AcDbEntity
8
B-0
6
CONTINUOUS
62
6
100
AcDbLine
10
241.838370866013
20
154.190526000000
30
0.0
11
283.876868866013
21
154.190526000000
31
0.0
0
LINE
5
6c9
100
AcDbEntity
8
B-0
6
CONTINUOUS
62
6
100
AcDbLine
10
241.838370866013
20
155.190526000000
30
0.0
11
283.876868866013
21
155.190526000000
31
0.0
0
LINE
5
6ca
100
AcDbEntity
8
B-0
6
CONTINUOUS
62
6
100
AcDbLine
10
241.838370866013
20
156.190526000000
30
0.0
11
283.876868866013
21
156.190526000000
31
0.0
0
LINE
5
6cb
100
AcDbEntity
8
B-0
6
CONTINUOUS
62
6
100
AcDbLine
10
241.838370866013
20
157.190526000000
30
0.0
11
283.876868866013
21
157.190526000000
31
0.0
0
LINE
5
6cc
100
AcDbEntity
8
B-0
6
CONTINUOUS
62
6
100
AcDbLine
10
241.838370866013
20
158.190526000000
30
0.0
11
283.876868866013
21
158.190526000000
31
0.0
0
LINE
5
6cd
100
AcDbEntity
8
B-0
6
CONTINUOUS
62
6
100
AcDbLine
10
241.838370866013
20
159.190526000000
30
0.0
11
283.876868866013
21
159.190526000000
31
0.0
0
LINE
5
6ce
100
AcDbEntity
8
B-0
6
CONTINUOUS
62
6
100
AcDbLine
10
241.838370866013
20
160.190526000000
30
0.0
11
283.876868866013
21
160.190526000000
31
0.0
0
LINE
5
6cf
100
AcDbEntity
8
B-0
6
CONTINUOUS
62
6
100
AcDbLine
10
241.838370866013
20
161.190526000000
30
0.0
11
283.876868866013
21
161.190526000000
31
0.0
0
LINE
5
6d0
100
AcDbEntity
8
B-0
6
CONTINUOUS
62
6
100
AcDbLine
10
241.838370866013
20
162.190526000000
30
0.0
11
283.876868866013
21
162.190526000000
31
0.0
0
LINE
5
6d1
100
AcDbEntity
8
B-0
6
CONTINUOUS
62
6
100
AcDbLine
10
241.838370866013
20
163.190526000000
30
0.0
11
283.876868866013
21
163.190526000000
31
0.0
0
LINE
5
6d2
100
AcDbEntity
8
B-0
6
CONTINUOUS
62
6
100
AcDbLine
10
241.838370866013
20
164.190526000000
30
0.0
11
283.876868866013
21
164.190526000000
31
0.0
0
LINE
5
6d3
100
AcDbEntity
8
B-0
6
CONTINUOUS
62
6
100
AcDbLine
10
241.838370866013
20
165.190526000000
30
0.0
11
283.876868866013
21
165.190526000000
31
0.0
0
LINE
5
6d4
100
AcDbEntity
8
B-0
6
CONTINUOUS
62
6
100
AcDbLine
10
241.838370866013
20
166.190526000000
30
0.0
11
283.876868866013
21
166.190526000000
31
0.0
0
LINE
5
6d5
100
AcDbEntity
8
B-0
6
CONTINUOUS
62
6
100
AcDbLine
10
241.838370866013
20
167.190526000000
30
0.0
11
283.876868866013
21
167.190526000000
31
0.0
0
LINE
5
6d6
100
AcDbEntity
8
B-0
6
CONTINUOUS
62
6
100
AcDbLine
10
241.838370866013
20
168.190526000000
30
0.0
11
283.876868866013
21
168.190526000000
31
0.0
0
LINE
5
6d7
100
AcDbEntity
8
B-0
6
CONTINUOUS
62
6
100
AcDbLine
10
241.838370866013
20
169.190526000000
30
0.0
11
283.876868866013
21
169.190526000000
31
0.0
0
LINE
5
6d8
100
AcDbEntity
8
B-0
6
CONTINUOUS
62
6
100
AcDbLine
10
241.838370866013
20
170.190526000000
30
0.0
11
283.876868866013
21
170.190526000000
31
0.0
0
LINE
5
6d9
100
AcDbEntity
8
B-0
6
CONTINUOUS
62
6
100
AcDbLine
10
241.838370866013
20
171.190526000000
30
0.0
11
283.876868866013
21
171.190526000000
31
0.0
0
LINE
5
6da
100
AcDbEntity
8
B-0
6
CONTINUOUS
62
6
100
AcDbLine
10
241.838370866013
20
172.190526000000
30
0.0
11
283.876868866013
21
172.190526000000
31
0.0
0
LINE
5
6db
100
AcDbEntity
8
B-0
6
CONTINUOUS
62
6
100
AcDbLine
10
241.838370866013
20
173.190526000000
30
0.0
11
283.876868866013
21
173.190526000000
31
0.0
0
LINE
5
6dc
100
AcDbEntity
8
B-0
6
CONTINUOUS
62
6
100
AcDbLine
10
241.838370866013
20
174.190526000000
30
0.0
11
283.876868866013
21
174.190526000000
31
0.0
0
LINE
5
6dd
100
AcDbEntity
8
B-0
6
CONTINUOUS
62
6
100
AcDbLine
10
241.838370866013
20
175.190526000000
30
0.0
11
283.876868866013
21
175.190526000000
31
0.0
0
LINE
5
6de
100
AcDbEntity
8
B-0
6
CONTINUOUS
62
6
100
AcDbLine
10
336.649995866013
20
222.190526000000
30
0.0
11
351.285573866013
21
222.190526000000
31
0.0
0
LINE
5
6df
100
AcDbEntity
8
B-0
6
CONTINUOUS
62
6
100
AcDbLine
10
333.927011866013
20
224.190526000000
30
0.0
11
354.008557866013
21
224.190526000000
31
0.0
0
LINE
5
6e0
100
AcDbEntity
8
B-0
6
CONTINUOUS
62
6
100
AcDbLine
10
332.132066866013
20
226.190526000000
30
0.0
11
355.803502866013
21
226.190526000000
31
0.0
0
LINE
5
6e1
100
AcDbEntity
8
B-0
6
CONTINUOUS
62
6
100
AcDbLine
10
330.877662866013
20
228.190526000000
30
0.0
11
357.057906866013
21
228.190526000000
31
0.0
0
LINE
5
6e2
100
AcDbEntity
8
B-0
6
CONTINUOUS
62
6
100
AcDbLine
10
330.017214866013
20
230.190526000000
30
0.0
11
357.918354866013
21
230.190526000000
31
0.0
0
LINE
5
6e3
100
AcDbEntity
8
B-0
6
CONTINUOUS
62
6
100
AcDbLine
10
329.480359866013
20
232.190526000000
30
0.0
11
358.455209866014
21
232.190526000000
31
0.0
0
LINE
5
6e4
100
AcDbEntity
8
B-0
6
CONTINUOUS
62
6
100
AcDbLine
10
329.231686866013
20
234.190526000000
30
0.0
11
358.703882866013
21
234.190526000000
31
0.0
0
LINE
5
6e5
100
AcDbEntity
8
B-0
6
CONTINUOUS
62
6
100
AcDbLine
10
329.256575866013
20
236.190526000000
30
0.0
11
358.678993866013
21
236.190526000000
31
0.0
0
LINE
5
6e6
100
AcDbEntity
8
B-0
6
CONTINUOUS
62
6
100
AcDbLine
10
329.556443866013
20
238.190526000000
30
0.0
11
358.379125866013
21
238.190526000000
31
0.0
0
LINE
5
6e7
100
AcDbEntity
8
B-0
6
CONTINUOUS
62
6
100
AcDbLine
10
330.149179866013
20
240.190526000000
30
0.0
11
357.786389866013
21
240.190526000000
31
0.0
0
LINE
5
6e8
100
AcDbEntity
8
B-0
6
CONTINUOUS
62
6
100
AcDbLine
10
331.075114866013
20
242.190526000000
30
0.0
11
356.860454866013
21
242.190526000000
31
0.0
0
LINE
5
6e9
100
AcDbEntity
8
B-0
6
CONTINUOUS
62
6
100
AcDbLine
10
332.414082866013
20
244.190526000000
30
0.0
11
355.521486866013
21
244.190526000000
31
0.0
0
LINE
5
6ea
100
AcDbEntity
8
B-0
6
CONTINUOUS
62
6
100
AcDbLine
10
334.336838866014
20
246.190526000000
30
0.0
11
353.598730866014
21
246.190526000000
31
0.0
0
LINE
5
6eb
100
AcDbEntity
8
B-0
6
CONTINUOUS
62
6
100
AcDbLine
10
337.332861866013
20
248.190526000000
30
0.0
11
350.602707866013
21
248.190526000000
31
0.0
0
LINE
5
6ec
100
AcDbEntity
8
B-0
6
CONTINUOUS
62
6
100
AcDbLine
10
357.949905866013
20
230.282895000000
30
0.0
11
357.949905866013
21
239.731703000000
31
0.0
0
LINE
5
6ed
100
AcDbEntity
8
B-0
6
CONTINUOUS
62
6
100
AcDbLine
10
355.949905866013
20
226.390544000000
30
0.0
11
355.949905866013
21
243.624054000000
31
0.0
0
LINE
5
6ee
100
AcDbEntity
8
B-0
6
CONTINUOUS
62
6
100
AcDbLine
10
353.949905866013
20
224.136377000000
30
0.0
11
353.949905866013
21
245.878222000000
31
0.0
0
LINE
5
6ef
100
AcDbEntity
8
B-0
6
CONTINUOUS
62
6
100
AcDbLine
10
351.949905866013
20
222.593378000000
30
0.0
11
351.949905866013
21
247.421220000000
31
0.0
0
LINE
5
6f0
100
AcDbEntity
8
B-0
6
CONTINUOUS
62
6
100
AcDbLine
10
349.949905866013
20
221.515304000000
30
0.0
11
349.949905866013
21
248.499294000000
31
0.0
0
LINE
5
6f1
100
AcDbEntity
8
B-0
6
CONTINUOUS
62
6
100
AcDbLine
10
347.949905866013
20
220.795951000000
30
0.0
11
347.949905866013
21
249.218647000000
31
0.0
0
LINE
5
6f2
100
AcDbEntity
8
B-0
6
CONTINUOUS
62
6
100
AcDbLine
10
345.949905866013
20
220.382290000000
30
0.0
11
345.949905866013
21
249.632308000000
31
0.0
0
LINE
5
6f3
100
AcDbEntity
8
B-0
6
CONTINUOUS
62
6
100
AcDbLine
10
343.949905866013
20
220.248594000000
30
0.0
11
343.949905866013
21
249.766004000000
31
0.0
0
LINE
5
6f4
100
AcDbEntity
8
B-0
6
CONTINUOUS
62
6
100
AcDbLine
10
282.949905866013
20
133.984897000000
30
0.0
11
282.949905866013
21
176.082589000000
31
0.0
0
LINE
5
6f5
100
AcDbEntity
8
B-0
6
CONTINUOUS
62
6
100
AcDbLine
10
281.949905866013
20
133.984897000000
30
0.0
11
281.949905866013
21
176.082589000000
31
0.0
0
LINE
5
6f6
100
AcDbEntity
8
B-0
6
CONTINUOUS
62
6
100
AcDbLine
10
280.949905866013
20
133.984897000000
30
0.0
11
280.949905866013
21
176.082589000000
31
0.0
0
LINE
5
6f7
100
AcDbEntity
8
B-0
6
CONTINUOUS
62
6
100
AcDbLine
10
279.949905866013
20
133.984897000000
30
0.0
11
279.949905866013
21
176.082589000000
31
0.0
0
LINE
5
6f8
100
AcDbEntity
8
B-0
6
CONTINUOUS
62
6
100
AcDbLine
10
278.949905866013
20
133.984897000000
30
0.0
11
278.949905866013
21
176.082589000000
31
0.0
0
LINE
5
6f9
100
AcDbEntity
8
B-0
6
CONTINUOUS
62
6
100
AcDbLine
10
277.949905866013
20
133.984897000000
30
0.0
11
277.949905866013
21
176.082589000000
31
0.0
0
LINE
5
6fa
100
AcDbEntity
8
B-0
6
CONTINUOUS
62
6
100
AcDbLine
10
276.949905866013
20
133.984897000000
30
0.0
11
276.949905866013
21
176.082589000000
31
0.0
0
LINE
5
6fb
100
AcDbEntity
8
B-0
6
CONTINUOUS
62
6
100
AcDbLine
10
275.949905866013
20
133.984897000000
30
0.0
11
275.949905866013
21
176.082589000000
31
0.0
0
LINE
5
6fc
100
AcDbEntity
8
B-0
6
CONTINUOUS
62
6
100
AcDbLine
10
274.949905866013
20
133.984897000000
30
0.0
11
274.949905866013
21
176.082589000000
31
0.0
0
LINE
5
6fd
100
AcDbEntity
8
B-0
6
CONTINUOUS
62
6
100
AcDbLine
10
273.949905866013
20
133.984897000000
30
0.0
11
273.949905866013
21
176.082589000000
31
0.0
0
LINE
5
6fe
100
AcDbEntity
8
B-0
6
CONTINUOUS
62
6
100
AcDbLine
10
272.949905866013
20
133.984897000000
30
0.0
11
272.949905866013
21
176.082589000000
31
0.0
0
LINE
5
6ff
100
AcDbEntity
8
B-0
6
CONTINUOUS
62
6
100
AcDbLine
10
271.949905866013
20
133.984897000000
30
0.0
11
271.949905866013
21
176.082589000000
31
0.0
0
LINE
5
700
100
AcDbEntity
8
B-0
6
CONTINUOUS
62
6
100
AcDbLine
10
270.949905866013
20
133.984897000000
30
0.0
11
270.949905866013
21
176.082589000000
31
0.0
0
LINE
5
701
100
AcDbEntity
8
B-0
6
CONTINUOUS
62
6
100
AcDbLine
10
269.949905866013
20
133.984897000000
30
0.0
11
269.949905866013
21
176.082589000000
31
0.0
0
LINE
5
702
100
AcDbEntity
8
B-0
6
CONTINUOUS
62
6
100
AcDbLine
10
268.949905866013
20
133.984897000000
30
0.0
11
268.949905866013
21
176.082589000000
31
0.0
0
LINE
5
703
100
AcDbEntity
8
B-0
6
CONTINUOUS
62
6
100
AcDbLine
10
267.949905866013
20
133.984897000000
30
0.0
11
267.949905866013
21
176.082589000000
31
0.0
0
LINE
5
704
100
AcDbEntity
8
B-0
6
CONTINUOUS
62
6
100
AcDbLine
10
266.949905866013
20
133.984897000000
30
0.0
11
266.949905866013
21
176.082589000000
31
0.0
0
LINE
5
705
100
AcDbEntity
8
B-0
6
CONTINUOUS
62
6
100
AcDbLine
10
265.949905866013
20
133.984897000000
30
0.0
11
265.949905866013
21
176.082589000000
31
0.0
0
LINE
5
706
100
AcDbEntity
8
B-0
6
CONTINUOUS
62
6
100
AcDbLine
10
264.949905866013
20
133.984897000000
30
0.0
11
264.949905866013
21
176.082589000000
31
0.0
0
LINE
5
707
100
AcDbEntity
8
B-0
6
CONTINUOUS
62
6
100
AcDbLine
10
263.949905866013
20
133.984897000000
30
0.0
11
263.949905866013
21
176.082589000000
31
0.0
0
LINE
5
708
100
AcDbEntity
8
B-0
6
CONTINUOUS
62
6
100
AcDbLine
10
262.949905866013
20
133.984897000000
30
0.0
11
262.949905866013
21
176.082589000000
31
0.0
0
LINE
5
709
100
AcDbEntity
8
B-0
6
CONTINUOUS
62
6
100
AcDbLine
10
261.949905866013
20
133.984897000000
30
0.0
11
261.949905866013
21
176.082589000000
31
0.0
0
LINE
5
70a
100
AcDbEntity
8
B-0
6
CONTINUOUS
62
6
100
AcDbLine
10
260.949905866013
20
133.984897000000
30
0.0
11
260.949905866013
21
176.082589000000
31
0.0
0
LINE
5
70b
100
AcDbEntity
8
B-0
6
CONTINUOUS
62
6
100
AcDbLine
10
259.949905866013
20
133.984897000000
30
0.0
11
259.949905866013
21
176.082589000000
31
0.0
0
LINE
5
70c
100
AcDbEntity
8
B-0
6
CONTINUOUS
62
6
100
AcDbLine
10
258.949905866013
20
133.984897000000
30
0.0
11
258.949905866013
21
176.082589000000
31
0.0
0
LINE
5
70d
100
AcDbEntity
8
B-0
6
CONTINUOUS
62
6
100
AcDbLine
10
257.949905866013
20
133.984897000000
30
0.0
11
257.949905866013
21
176.082589000000
31
0.0
0
LINE
5
70e
100
AcDbEntity
8
B-0
6
CONTINUOUS
62
6
100
AcDbLine
10
256.949905866013
20
133.984897000000
30
0.0
11
256.949905866013
21
176.082589000000
31
0.0
0
LINE
5
70f
100
AcDbEntity
8
B-0
6
CONTINUOUS
62
6
100
AcDbLine
10
255.949905866013
20
133.984897000000
30
0.0
11
255.949905866013
21
176.082589000000
31
0.0
0
LINE
5
710
100
AcDbEntity
8
B-0
6
CONTINUOUS
62
6
100
AcDbLine
10
254.949905866013
20
133.984897000000
30
0.0
11
254.949905866013
21
176.082589000000
31
0.0
0
LINE
5
711
100
AcDbEntity
8
B-0
6
CONTINUOUS
62
6
100
AcDbLine
10
253.949905866013
20
133.984897000000
30
0.0
11
253.949905866013
21
176.082589000000
31
0.0
0
LINE
5
712
100
AcDbEntity
8
B-0
6
CONTINUOUS
62
6
100
AcDbLine
10
252.949905866013
20
133.984897000000
30
0.0
11
252.949905866013
21
176.082589000000
31
0.0
0
LINE
5
713
100
AcDbEntity
8
B-0
6
CONTINUOUS
62
6
100
AcDbLine
10
251.949905866013
20
133.984897000000
30
0.0
11
251.949905866013
21
176.082589000000
31
0.0
0
LINE
5
714
100
AcDbEntity
8
B-0
6
CONTINUOUS
62
6
100
AcDbLine
10
250.949905866013
20
133.984897000000
30
0.0
11
250.949905866013
21
176.082589000000
31
0.0
0
LINE
5
715
100
AcDbEntity
8
B-0
6
CONTINUOUS
62
6
100
AcDbLine
10
249.949905866013
20
133.984897000000
30
0.0
11
249.949905866013
21
176.082589000000
31
0.0
0
LINE
5
716
100
AcDbEntity
8
B-0
6
CONTINUOUS
62
6
100
AcDbLine
10
248.949905866013
20
133.984897000000
30
0.0
11
248.949905866013
21
176.082589000000
31
0.0
0
LINE
5
717
100
AcDbEntity
8
B-0
6
CONTINUOUS
62
6
100
AcDbLine
10
247.949905866013
20
133.984897000000
30
0.0
11
247.949905866013
21
176.082589000000
31
0.0
0
LINE
5
718
100
AcDbEntity
8
B-0
6
CONTINUOUS
62
6
100
AcDbLine
10
246.949905866013
20
133.984897000000
30
0.0
11
246.949905866013
21
176.082589000000
31
0.0
0
LINE
5
719
100
AcDbEntity
8
B-0
6
CONTINUOUS
62
6
100
AcDbLine
10
245.949905866013
20
133.984897000000
30
0.0
11
245.949905866013
21
176.082589000000
31
0.0
0
LINE
5
71a
100
AcDbEntity
8
B-0
6
CONTINUOUS
62
6
100
AcDbLine
10
244.949905866013
20
133.984897000000
30
0.0
11
244.949905866013
21
176.082589000000
31
0.0
0
LINE
5
71b
100
AcDbEntity
8
B-0
6
CONTINUOUS
62
6
100
AcDbLine
10
243.949905866013
20
133.984897000000
30
0.0
11
243.949905866013
21
176.082589000000
31
0.0
0
LINE
5
71c
100
AcDbEntity
8
B-0
6
CONTINUOUS
62
6
100
AcDbLine
10
242.949905866013
20
133.984897000000
30
0.0
11
242.949905866013
21
176.082589000000
31
0.0
0
LINE
5
71d
100
AcDbEntity
8
B-0
6
CONTINUOUS
62
6
100
AcDbLine
10
241.949905866013
20
133.984897000000
30
0.0
11
241.949905866013
21
176.082589000000
31
0.0
0
LINE
5
71e
100
AcDbEntity
8
B-0
6
CONTINUOUS
62
6
100
AcDbLine
10
264.947380866013
20
206.853923000000
30
0.0
11
208.045797866013
21
132.765738000000
31
0.0
0
LINE
5
71f
100
AcDbEntity
8
B-0
6
CONTINUOUS
62
6
100
AcDbLine
10
208.045797866013
20
132.765738000000
30
0.0
11
202.471764866013
21
130.443225000000
31
0.0
0
LINE
5
720
100
AcDbEntity
8
B-0
6
CONTINUOUS
62
6
100
AcDbLine
10
202.471764866013
20
130.443225000000
30
0.0
11
197.362234866014
21
128.585214000000
31
0.0
0
LINE
5
721
100
AcDbEntity
8
B-0
6
CONTINUOUS
62
6
100
AcDbLine
10
197.362234866014
20
128.585214000000
30
0.0
11
194.575217866013
21
131.139979000000
31
0.0
0
LINE
5
722
100
AcDbEntity
8
B-0
6
CONTINUOUS
62
6
100
AcDbLine
10
194.575217866013
20
131.139979000000
30
0.0
11
192.252704866013
21
134.391498000000
31
0.0
0
LINE
5
723
100
AcDbEntity
8
B-0
6
CONTINUOUS
62
6
100
AcDbLine
10
192.252704866013
20
134.391498000000
30
0.0
11
190.394693866014
21
140.662285000000
31
0.0
0
LINE
5
724
100
AcDbEntity
8
B-0
6
CONTINUOUS
62
6
100
AcDbLine
10
190.394693866014
20
140.662285000000
30
0.0
11
192.252704866013
21
146.468569000000
31
0.0
0
LINE
5
725
100
AcDbEntity
8
B-0
6
CONTINUOUS
62
6
100
AcDbLine
10
192.252704866013
20
146.468569000000
30
0.0
11
199.220245866013
21
156.455377000000
31
0.0
0
LINE
5
726
100
AcDbEntity
8
B-0
6
CONTINUOUS
62
6
100
AcDbLine
10
199.220245866013
20
156.455377000000
30
0.0
11
251.709053866013
21
227.524294000000
31
0.0
0
LINE
5
727
100
AcDbEntity
8
B-0
6
CONTINUOUS
62
6
100
AcDbLine
10
251.709053866013
20
227.524294000000
30
0.0
11
251.709053866013
21
232.633824000000
31
0.0
0
LINE
5
728
100
AcDbEntity
8
B-0
6
CONTINUOUS
62
6
100
AcDbLine
10
251.709053866013
20
232.633824000000
30
0.0
11
253.102561866014
21
235.885343000000
31
0.0
0
LINE
5
729
100
AcDbEntity
8
B-0
6
CONTINUOUS
62
6
100
AcDbLine
10
253.102561866014
20
235.885343000000
30
0.0
11
256.818583866013
21
240.065868000000
31
0.0
0
LINE
5
72a
100
AcDbEntity
8
B-0
6
CONTINUOUS
62
6
100
AcDbLine
10
256.818583866013
20
240.065868000000
30
0.0
11
257.979840866013
21
241.227125000000
31
0.0
0
LINE
5
72b
100
AcDbEntity
8
B-0
6
CONTINUOUS
62
6
100
AcDbLine
10
257.979840866013
20
241.227125000000
30
0.0
11
260.070102866013
21
244.246392000000
31
0.0
0
LINE
5
72c
100
AcDbEntity
8
B-0
6
CONTINUOUS
62
6
100
AcDbLine
10
260.070102866013
20
244.246392000000
30
0.0
11
263.553872866013
21
244.710895000000
31
0.0
0
LINE
5
72d
100
AcDbEntity
8
B-0
6
CONTINUOUS
62
6
100
AcDbLine
10
263.553872866013
20
244.710895000000
30
0.0
11
269.592408866013
21
245.872152000000
31
0.0
0
LINE
5
72e
100
AcDbEntity
8
B-0
6
CONTINUOUS
62
6
100
AcDbLine
10
269.592408866013
20
245.872152000000
30
0.0
11
271.914921866013
21
245.639901000000
31
0.0
0
LINE
5
72f
100
AcDbEntity
8
B-0
6
CONTINUOUS
62
6
100
AcDbLine
10
271.914921866013
20
245.639901000000
30
0.0
11
276.792200866013
21
244.014141000000
31
0.0
0
LINE
5
730
100
AcDbEntity
8
B-0
6
CONTINUOUS
62
6
100
AcDbLine
10
276.792200866013
20
244.014141000000
30
0.0
11
278.650211866013
21
241.691628000000
31
0.0
0
LINE
5
731
100
AcDbEntity
8
B-0
6
CONTINUOUS
62
6
100
AcDbLine
10
278.650211866013
20
241.691628000000
30
0.0
11
283.759741866013
21
234.956338000000
31
0.0
0
LINE
5
732
100
AcDbEntity
8
B-0
6
CONTINUOUS
62
6
100
AcDbLine
10
283.759741866013
20
234.956338000000
30
0.0
11
299.552833866014
21
208.711934000000
31
0.0
0
LINE
5
733
100
AcDbEntity
8
B-0
6
CONTINUOUS
62
6
100
AcDbLine
10
310.741462866013
20
189.810507000000
30
0.0
11
333.220178866013
21
151.006963000000
31
0.0
0
LINE
5
734
100
AcDbEntity
8
B-0
6
CONTINUOUS
62
6
100
AcDbLine
10
333.220178866013
20
151.006963000000
30
0.0
11
335.375721866013
21
145.464140000000
31
0.0
0
LINE
5
735
100
AcDbEntity
8
B-0
6
CONTINUOUS
62
6
100
AcDbLine
10
335.375721866013
20
145.464140000000
30
0.0
11
334.451917866013
21
142.692729000000
31
0.0
0
LINE
5
736
100
AcDbEntity
8
B-0
6
CONTINUOUS
62
6
100
AcDbLine
10
334.451917866013
20
142.692729000000
30
0.0
11
331.680505866013
21
138.843546000000
31
0.0
0
LINE
5
737
100
AcDbEntity
8
B-0
6
CONTINUOUS
62
6
100
AcDbLine
10
331.680505866013
20
138.843546000000
30
0.0
11
320.902794866013
21
135.610232000000
31
0.0
0
LINE
5
738
100
AcDbEntity
8
B-0
6
CONTINUOUS
62
6
100
AcDbLine
10
320.902794866013
20
135.610232000000
30
0.0
11
314.436167866013
21
133.300723000000
31
0.0
0
LINE
5
739
100
AcDbEntity
8
B-0
6
CONTINUOUS
62
6
100
AcDbLine
10
314.436167866013
20
133.300723000000
30
0.0
11
308.739376866013
21
135.610232000000
31
0.0
0
LINE
5
73a
100
AcDbEntity
8
B-0
6
CONTINUOUS
62
6
100
AcDbLine
10
308.739376866013
20
135.610232000000
30
0.0
11
299.963240866013
21
145.002238000000
31
0.0
0
LINE
5
73b
100
AcDbEntity
8
B-0
6
CONTINUOUS
62
6
100
AcDbLine
10
299.963240866013
20
145.002238000000
30
0.0
11
299.655305866013
21
150.083159000000
31
0.0
0
LINE
5
73c
100
AcDbEntity
8
B-0
6
CONTINUOUS
62
6
100
AcDbLine
10
299.655305866013
20
150.083159000000
30
0.0
11
264.947380866013
21
206.853923000000
31
0.0
0
LINE
5
73d
100
AcDbEntity
8
B-0
6
CONTINUOUS
62
6
100
AcDbLine
10
330.599976866013
20
138.519387000000
30
0.0
11
333.625459866013
21
141.544870000000
31
0.0
0
LINE
5
73e
100
AcDbEntity
8
B-0
6
CONTINUOUS
62
6
100
AcDbLine
10
326.559365866013
20
137.307204000000
30
0.0
11
335.191083866014
21
145.938922000000
31
0.0
0
LINE
5
73f
100
AcDbEntity
8
B-0
6
CONTINUOUS
62
6
100
AcDbLine
10
322.518755866013
20
136.095021000000
30
0.0
11
334.399124866013
21
147.975389000000
31
0.0
0
LINE
5
740
100
AcDbEntity
8
B-0
6
CONTINUOUS
62
6
100
AcDbLine
10
318.262621866013
20
134.667313000000
30
0.0
11
333.607164866013
21
150.011857000000
31
0.0
0
LINE
5
741
100
AcDbEntity
8
B-0
6
CONTINUOUS
62
6
100
AcDbLine
10
314.173919866013
20
133.407039000000
30
0.0
11
332.689654866013
21
151.922773000000
31
0.0
0
LINE
5
742
100
AcDbEntity
8
B-0
6
CONTINUOUS
62
6
100
AcDbLine
10
312.161385866013
20
134.222932000000
30
0.0
11
331.652169866013
21
153.713716000000
31
0.0
0
LINE
5
743
100
AcDbEntity
8
B-0
6
CONTINUOUS
62
6
100
AcDbLine
10
310.148850866013
20
135.038824000000
30
0.0
11
330.614684866013
21
155.504658000000
31
0.0
0
LINE
5
744
100
AcDbEntity
8
B-0
6
CONTINUOUS
62
6
100
AcDbLine
10
308.329969866013
20
136.048370000000
30
0.0
11
329.577199866013
21
157.295600000000
31
0.0
0
LINE
5
745
100
AcDbEntity
8
B-0
6
CONTINUOUS
62
6
100
AcDbLine
10
306.963695866014
20
137.510523000000
30
0.0
11
328.539714866013
21
159.086543000000
31
0.0
0
LINE
5
746
100
AcDbEntity
8
B-0
6
CONTINUOUS
62
6
100
AcDbLine
10
305.597421866013
20
138.972676000000
30
0.0
11
327.502230866013
21
160.877485000000
31
0.0
0
LINE
5
747
100
AcDbEntity
8
B-0
6
CONTINUOUS
62
6
100
AcDbLine
10
304.231146866013
20
140.434829000000
30
0.0
11
326.464745866013
21
162.668428000000
31
0.0
0
LINE
5
748
100
AcDbEntity
8
B-0
6
CONTINUOUS
62
6
100
AcDbLine
10
302.864872866013
20
141.896982000000
30
0.0
11
325.427260866013
21
164.459370000000
31
0.0
0
LINE
5
749
100
AcDbEntity
8
B-0
6
CONTINUOUS
62
6
100
AcDbLine
10
301.498598866013
20
143.359135000000
30
0.0
11
324.389775866013
21
166.250312000000
31
0.0
0
LINE
5
74a
100
AcDbEntity
8
B-0
6
CONTINUOUS
62
6
100
AcDbLine
10
300.132324866014
20
144.821288000000
30
0.0
11
323.352291866014
21
168.041255000000
31
0.0
0
LINE
5
74b
100
AcDbEntity
8
B-0
6
CONTINUOUS
62
6
100
AcDbLine
10
299.821617866013
20
147.339008000000
30
0.0
11
322.314806866013
21
169.832197000000
31
0.0
0
LINE
5
74c
100
AcDbEntity
8
B-0
6
CONTINUOUS
62
6
100
AcDbLine
10
299.659993866013
20
150.005811000000
30
0.0
11
321.277321866013
21
171.623139000000
31
0.0
0
LINE
5
74d
100
AcDbEntity
8
B-0
6
CONTINUOUS
62
6
100
AcDbLine
10
298.613297866013
20
151.787542000000
30
0.0
11
320.239836866014
21
173.414082000000
31
0.0
0
LINE
5
74e
100
AcDbEntity
8
B-0
6
CONTINUOUS
62
6
100
AcDbLine
10
297.540164866013
20
153.542836000000
30
0.0
11
319.202351866013
21
175.205024000000
31
0.0
0
LINE
5
74f
100
AcDbEntity
8
B-0
6
CONTINUOUS
62
6
100
AcDbLine
10
296.467030866013
20
155.298130000000
30
0.0
11
318.164867866013
21
176.995966000000
31
0.0
0
LINE
5
750
100
AcDbEntity
8
B-0
6
CONTINUOUS
62
6
100
AcDbLine
10
295.393897866013
20
157.053423000000
30
0.0
11
317.127382866013
21
178.786909000000
31
0.0
0
LINE
5
751
100
AcDbEntity
8
B-0
6
CONTINUOUS
62
6
100
AcDbLine
10
294.320763866014
20
158.808717000000
30
0.0
11
316.089897866013
21
180.577851000000
31
0.0
0
LINE
5
752
100
AcDbEntity
8
B-0
6
CONTINUOUS
62
6
100
AcDbLine
10
293.247630866013
20
160.564011000000
30
0.0
11
315.052412866013
21
182.368793000000
31
0.0
0
LINE
5
753
100
AcDbEntity
8
B-0
6
CONTINUOUS
62
6
100
AcDbLine
10
292.174497866013
20
162.319305000000
30
0.0
11
314.014928866013
21
184.159736000000
31
0.0
0
LINE
5
754
100
AcDbEntity
8
B-0
6
CONTINUOUS
62
6
100
AcDbLine
10
291.101363866013
20
164.074598000000
30
0.0
11
312.977443866013
21
185.950678000000
31
0.0
0
LINE
5
755
100
AcDbEntity
8
B-0
6
CONTINUOUS
62
6
100
AcDbLine
10
290.028230866013
20
165.829892000000
30
0.0
11
311.939958866013
21
187.741620000000
31
0.0
0
LINE
5
756
100
AcDbEntity
8
B-0
6
CONTINUOUS
62
6
100
AcDbLine
10
288.955096866013
20
167.585186000000
30
0.0
11
310.902473866013
21
189.532563000000
31
0.0
0
LINE
5
757
100
AcDbEntity
8
B-0
6
CONTINUOUS
62
6
100
AcDbLine
10
287.881963866013
20
169.340480000000
30
0.0
11
308.351990866013
21
189.810507000000
31
0.0
0
LINE
5
758
100
AcDbEntity
8
B-0
6
CONTINUOUS
62
6
100
AcDbLine
10
286.808830866013
20
171.095773000000
30
0.0
11
305.523563866014
21
189.810507000000
31
0.0
0
LINE
5
759
100
AcDbEntity
8
B-0
6
CONTINUOUS
62
6
100
AcDbLine
10
285.735696866014
20
172.851067000000
30
0.0
11
302.695136866013
21
189.810507000000
31
0.0
0
LINE
5
75a
100
AcDbEntity
8
B-0
6
CONTINUOUS
62
6
100
AcDbLine
10
284.662563866013
20
174.606361000000
30
0.0
11
299.866709866013
21
189.810507000000
31
0.0
0
LINE
5
75b
100
AcDbEntity
8
B-0
6
CONTINUOUS
62
6
100
AcDbLine
10
283.589429866013
20
176.361654000000
30
0.0
11
297.038282866013
21
189.810507000000
31
0.0
0
LINE
5
75c
100
AcDbEntity
8
B-0
6
CONTINUOUS
62
6
100
AcDbLine
10
282.516296866013
20
178.116948000000
30
0.0
11
294.209855866013
21
189.810507000000
31
0.0
0
LINE
5
75d
100
AcDbEntity
8
B-0
6
CONTINUOUS
62
6
100
AcDbLine
10
281.443163866013
20
179.872242000000
30
0.0
11
291.381428866013
21
189.810507000000
31
0.0
0
LINE
5
75e
100
AcDbEntity
8
B-0
6
CONTINUOUS
62
6
100
AcDbLine
10
280.370029866014
20
181.627536000000
30
0.0
11
288.759055866013
21
190.016562000000
31
0.0
0
LINE
5
75f
100
AcDbEntity
8
B-0
6
CONTINUOUS
62
6
100
AcDbLine
10
279.296896866013
20
183.382829000000
30
0.0
11
292.622759866013
21
196.708692000000
31
0.0
0
LINE
5
760
100
AcDbEntity
8
B-0
6
CONTINUOUS
62
6
100
AcDbLine
10
278.223762866013
20
185.138123000000
30
0.0
11
296.486462866013
21
203.400823000000
31
0.0
0
LINE
5
761
100
AcDbEntity
8
B-0
6
CONTINUOUS
62
6
100
AcDbLine
10
277.150629866013
20
186.893417000000
30
0.0
11
299.333548866013
21
209.076335000000
31
0.0
0
LINE
5
762
100
AcDbEntity
8
B-0
6
CONTINUOUS
62
6
100
AcDbLine
10
276.077496866013
20
188.648711000000
30
0.0
11
298.270934866013
21
210.842149000000
31
0.0
0
LINE
5
763
100
AcDbEntity
8
B-0
6
CONTINUOUS
62
6
100
AcDbLine
10
275.004362866013
20
190.404004000000
30
0.0
11
297.208321866013
21
212.607963000000
31
0.0
0
LINE
5
764
100
AcDbEntity
8
B-0
6
CONTINUOUS
62
6
100
AcDbLine
10
273.931229866013
20
192.159298000000
30
0.0
11
296.145707866013
21
214.373776000000
31
0.0
0
LINE
5
765
100
AcDbEntity
8
B-0
6
CONTINUOUS
62
6
100
AcDbLine
10
272.858095866013
20
193.914592000000
30
0.0
11
295.083094866013
21
216.139590000000
31
0.0
0
LINE
5
766
100
AcDbEntity
8
B-0
6
CONTINUOUS
62
6
100
AcDbLine
10
271.784962866014
20
195.669886000000
30
0.0
11
294.020480866013
21
217.905404000000
31
0.0
0
LINE
5
767
100
AcDbEntity
8
B-0
6
CONTINUOUS
62
6
100
AcDbLine
10
204.628524866013
20
131.341875000000
30
0.0
11
214.645596866013
21
141.358946000000
31
0.0
0
LINE
5
768
100
AcDbEntity
8
B-0
6
CONTINUOUS
62
6
100
AcDbLine
10
270.711829866013
20
197.425179000000
30
0.0
11
292.957867866013
21
219.671217000000
31
0.0
0
LINE
5
769
100
AcDbEntity
8
B-0
6
CONTINUOUS
62
6
100
AcDbLine
10
200.004123866014
20
129.545901000000
30
0.0
11
224.009983866014
21
153.551761000000
31
0.0
0
LINE
5
76a
100
AcDbEntity
8
B-0
6
CONTINUOUS
62
6
100
AcDbLine
10
269.638695866013
20
199.180473000000
30
0.0
11
291.895253866013
21
221.437031000000
31
0.0
0
LINE
5
76b
100
AcDbEntity
8
B-0
6
CONTINUOUS
62
6
100
AcDbLine
10
196.763682866013
20
129.133887000000
30
0.0
11
233.374370866013
21
165.744575000000
31
0.0
0
LINE
5
76c
100
AcDbEntity
8
B-0
6
CONTINUOUS
62
6
100
AcDbLine
10
268.565562866013
20
200.935767000000
30
0.0
11
290.832640866013
21
223.202844000000
31
0.0
0
LINE
5
76d
100
AcDbEntity
8
B-0
6
CONTINUOUS
62
6
100
AcDbLine
10
195.287981866013
20
130.486613000000
30
0.0
11
242.738757866013
21
177.937389000000
31
0.0
0
LINE
5
76e
100
AcDbEntity
8
B-0
6
CONTINUOUS
62
6
100
AcDbLine
10
267.492428866013
20
202.691060000000
30
0.0
11
289.770026866014
21
224.968658000000
31
0.0
0
LINE
5
76f
100
AcDbEntity
8
B-0
6
CONTINUOUS
62
6
100
AcDbLine
10
193.965927866013
20
131.992986000000
30
0.0
11
252.103144866014
21
190.130203000000
31
0.0
0
LINE
5
770
100
AcDbEntity
8
B-0
6
CONTINUOUS
62
6
100
AcDbLine
10
266.419295866014
20
204.446354000000
30
0.0
11
288.707413866013
21
226.734472000000
31
0.0
0
LINE
5
771
100
AcDbEntity
8
B-0
6
CONTINUOUS
62
6
100
AcDbLine
10
192.787415866013
20
133.642902000000
30
0.0
11
261.467531866013
21
202.323018000000
31
0.0
0
LINE
5
772
100
AcDbEntity
8
B-0
6
CONTINUOUS
62
6
100
AcDbLine
10
265.346162866013
20
206.201648000000
30
0.0
11
287.644799866014
21
228.500285000000
31
0.0
0
LINE
5
773
100
AcDbEntity
8
B-0
6
CONTINUOUS
62
6
100
AcDbLine
10
191.899534866013
20
135.583447000000
30
0.0
11
286.582186866013
21
230.266099000000
31
0.0
0
LINE
5
774
100
AcDbEntity
8
B-0
6
CONTINUOUS
62
6
100
AcDbLine
10
191.253036866013
20
137.765377000000
30
0.0
11
285.519572866014
21
232.031913000000
31
0.0
0
LINE
5
775
100
AcDbEntity
8
B-0
6
CONTINUOUS
62
6
100
AcDbLine
10
190.606538866013
20
139.947306000000
30
0.0
11
284.456959866013
21
233.797726000000
31
0.0
0
LINE
5
776
100
AcDbEntity
8
B-0
6
CONTINUOUS
62
6
100
AcDbLine
10
191.289565866013
20
143.458760000000
30
0.0
11
283.340189866013
21
235.509384000000
31
0.0
0
LINE
5
777
100
AcDbEntity
8
B-0
6
CONTINUOUS
62
6
100
AcDbLine
10
194.056758866014
20
149.054380000000
30
0.0
11
282.120083866013
21
237.117705000000
31
0.0
0
LINE
5
778
100
AcDbEntity
8
B-0
6
CONTINUOUS
62
6
100
AcDbLine
10
200.889583866013
20
158.715632000000
30
0.0
11
280.899977866013
21
238.726026000000
31
0.0
0
LINE
5
779
100
AcDbEntity
8
B-0
6
CONTINUOUS
62
6
100
AcDbLine
10
208.879890866014
20
169.534366000000
30
0.0
11
279.679871866013
21
240.334348000000
31
0.0
0
LINE
5
77a
100
AcDbEntity
8
B-0
6
CONTINUOUS
62
6
100
AcDbLine
10
216.870197866014
20
180.353100000000
30
0.0
11
278.453995866013
21
241.936898000000
31
0.0
0
LINE
5
77b
100
AcDbEntity
8
B-0
6
CONTINUOUS
62
6
100
AcDbLine
10
224.860503866013
20
191.171834000000
30
0.0
11
277.196916866013
21
243.508246000000
31
0.0
0
LINE
5
77c
100
AcDbEntity
8
B-0
6
CONTINUOUS
62
6
100
AcDbLine
10
232.850810866013
20
201.990567000000
30
0.0
11
275.353838866013
21
244.493595000000
31
0.0
0
LINE
5
77d
100
AcDbEntity
8
B-0
6
CONTINUOUS
62
6
100
AcDbLine
10
240.841117866013
20
212.809301000000
30
0.0
11
273.232517866014
21
245.200702000000
31
0.0
0
LINE
5
77e
100
AcDbEntity
8
B-0
6
CONTINUOUS
62
6
100
AcDbLine
10
248.831423866013
20
223.628035000000
30
0.0
11
270.940710866013
21
245.737322000000
31
0.0
0
LINE
5
77f
100
AcDbEntity
8
B-0
6
CONTINUOUS
62
6
100
AcDbLine
10
251.709053866013
20
229.334092000000
30
0.0
11
267.926805866013
21
245.551844000000
31
0.0
0
LINE
5
780
100
AcDbEntity
8
B-0
6
CONTINUOUS
62
6
100
AcDbLine
10
251.709053866013
20
232.162519000000
30
0.0
11
264.424943866013
21
244.878409000000
31
0.0
0
LINE
5
781
100
AcDbEntity
8
B-0
6
CONTINUOUS
62
6
100
AcDbLine
10
258.057707866013
20
241.339600000000
30
0.0
11
261.102099866014
21
244.383992000000
31
0.0
0
LINE
5
782
100
AcDbEntity
8
B-0
6
CONTINUOUS
62
6
100
AcDbLine
10
192.172632866013
20
134.661741000000
30
0.0
11
198.012646866013
21
128.821727000000
31
0.0
0
LINE
5
783
100
AcDbEntity
8
B-0
6
CONTINUOUS
62
6
100
AcDbLine
10
190.981715866013
20
138.681085000000
30
0.0
11
200.086826866013
21
129.575974000000
31
0.0
0
LINE
5
784
100
AcDbEntity
8
B-0
6
CONTINUOUS
62
6
100
AcDbLine
10
190.742390866013
20
141.748838000000
30
0.0
11
202.161006866013
21
130.330222000000
31
0.0
0
LINE
5
785
100
AcDbEntity
8
B-0
6
CONTINUOUS
62
6
100
AcDbLine
10
191.428069866013
20
143.891585000000
30
0.0
11
204.169175866013
21
131.150479000000
31
0.0
0
LINE
5
786
100
AcDbEntity
8
B-0
6
CONTINUOUS
62
6
100
AcDbLine
10
192.113748866013
20
146.034333000000
30
0.0
11
206.165712866013
21
131.982370000000
31
0.0
0
LINE
5
787
100
AcDbEntity
8
B-0
6
CONTINUOUS
62
6
100
AcDbLine
10
193.179513866013
20
147.796996000000
30
0.0
11
208.117461866013
21
132.859048000000
31
0.0
0
LINE
5
788
100
AcDbEntity
8
B-0
6
CONTINUOUS
62
6
100
AcDbLine
10
194.341881866013
20
149.463055000000
30
0.0
11
209.346121866013
21
134.458814000000
31
0.0
0
LINE
5
789
100
AcDbEntity
8
B-0
6
CONTINUOUS
62
6
100
AcDbLine
10
195.504248866014
20
151.129115000000
30
0.0
11
210.574782866013
21
136.058581000000
31
0.0
0
LINE
5
78a
100
AcDbEntity
8
B-0
6
CONTINUOUS
62
6
100
AcDbLine
10
196.666615866013
20
152.795175000000
30
0.0
11
211.803443866013
21
137.658347000000
31
0.0
0
LINE
5
78b
100
AcDbEntity
8
B-0
6
CONTINUOUS
62
6
100
AcDbLine
10
197.828982866013
20
154.461235000000
30
0.0
11
213.032104866013
21
139.258114000000
31
0.0
0
LINE
5
78c
100
AcDbEntity
8
B-0
6
CONTINUOUS
62
6
100
AcDbLine
10
198.991350866013
20
156.127295000000
30
0.0
11
214.260764866013
21
140.857880000000
31
0.0
0
LINE
5
78d
100
AcDbEntity
8
B-0
6
CONTINUOUS
62
6
100
AcDbLine
10
200.185184866013
20
157.761888000000
30
0.0
11
215.489425866013
21
142.457646000000
31
0.0
0
LINE
5
78e
100
AcDbEntity
8
B-0
6
CONTINUOUS
62
6
100
AcDbLine
10
201.386734866014
20
159.388765000000
30
0.0
11
216.718086866013
21
144.057413000000
31
0.0
0
LINE
5
78f
100
AcDbEntity
8
B-0
6
CONTINUOUS
62
6
100
AcDbLine
10
202.588284866014
20
161.015642000000
30
0.0
11
217.946746866013
21
145.657179000000
31
0.0
0
LINE
5
790
100
AcDbEntity
8
B-0
6
CONTINUOUS
62
6
100
AcDbLine
10
203.789833866013
20
162.642520000000
30
0.0
11
219.175407866014
21
147.256946000000
31
0.0
0
LINE
5
791
100
AcDbEntity
8
B-0
6
CONTINUOUS
62
6
100
AcDbLine
10
204.991383866013
20
164.269397000000
30
0.0
11
220.404068866013
21
148.856712000000
31
0.0
0
LINE
5
792
100
AcDbEntity
8
B-0
6
CONTINUOUS
62
6
100
AcDbLine
10
206.192933866013
20
165.896274000000
30
0.0
11
221.632729866013
21
150.456479000000
31
0.0
0
LINE
5
793
100
AcDbEntity
8
B-0
6
CONTINUOUS
62
6
100
AcDbLine
10
207.394483866013
20
167.523151000000
30
0.0
11
222.861389866014
21
152.056245000000
31
0.0
0
LINE
5
794
100
AcDbEntity
8
B-0
6
CONTINUOUS
62
6
100
AcDbLine
10
208.596033866013
20
169.150029000000
30
0.0
11
224.090050866013
21
153.656011000000
31
0.0
0
LINE
5
795
100
AcDbEntity
8
B-0
6
CONTINUOUS
62
6
100
AcDbLine
10
209.797583866013
20
170.776906000000
30
0.0
11
225.318711866013
21
155.255778000000
31
0.0
0
LINE
5
796
100
AcDbEntity
8
B-0
6
CONTINUOUS
62
6
100
AcDbLine
10
210.999133866013
20
172.403783000000
30
0.0
11
226.547372866013
21
156.855544000000
31
0.0
0
LINE
5
797
100
AcDbEntity
8
B-0
6
CONTINUOUS
62
6
100
AcDbLine
10
212.200682866013
20
174.030660000000
30
0.0
11
227.776032866013
21
158.455311000000
31
0.0
0
LINE
5
798
100
AcDbEntity
8
B-0
6
CONTINUOUS
62
6
100
AcDbLine
10
213.402232866013
20
175.657538000000
30
0.0
11
229.004693866013
21
160.055077000000
31
0.0
0
LINE
5
799
100
AcDbEntity
8
B-0
6
CONTINUOUS
62
6
100
AcDbLine
10
214.603782866013
20
177.284415000000
30
0.0
11
230.233354866013
21
161.654843000000
31
0.0
0
LINE
5
79a
100
AcDbEntity
8
B-0
6
CONTINUOUS
62
6
100
AcDbLine
10
215.805332866013
20
178.911292000000
30
0.0
11
231.462014866014
21
163.254610000000
31
0.0
0
LINE
5
79b
100
AcDbEntity
8
B-0
6
CONTINUOUS
62
6
100
AcDbLine
10
217.006882866013
20
180.538169000000
30
0.0
11
232.690675866013
21
164.854376000000
31
0.0
0
LINE
5
79c
100
AcDbEntity
8
B-0
6
CONTINUOUS
62
6
100
AcDbLine
10
218.208432866013
20
182.165047000000
30
0.0
11
233.919336866013
21
166.454143000000
31
0.0
0
LINE
5
79d
100
AcDbEntity
8
B-0
6
CONTINUOUS
62
6
100
AcDbLine
10
219.409982866013
20
183.791924000000
30
0.0
11
235.147997866013
21
168.053909000000
31
0.0
0
LINE
5
79e
100
AcDbEntity
8
B-0
6
CONTINUOUS
62
6
100
AcDbLine
10
220.611532866013
20
185.418801000000
30
0.0
11
236.376657866013
21
169.653675000000
31
0.0
0
LINE
5
79f
100
AcDbEntity
8
B-0
6
CONTINUOUS
62
6
100
AcDbLine
10
221.813081866013
20
187.045678000000
30
0.0
11
237.605318866013
21
171.253442000000
31
0.0
0
LINE
5
7a0
100
AcDbEntity
8
B-0
6
CONTINUOUS
62
6
100
AcDbLine
10
223.014631866013
20
188.672556000000
30
0.0
11
238.833979866013
21
172.853208000000
31
0.0
0
LINE
5
7a1
100
AcDbEntity
8
B-0
6
CONTINUOUS
62
6
100
AcDbLine
10
224.216181866013
20
190.299433000000
30
0.0
11
240.062639866013
21
174.452975000000
31
0.0
0
LINE
5
7a2
100
AcDbEntity
8
B-0
6
CONTINUOUS
62
6
100
AcDbLine
10
225.417731866013
20
191.926310000000
30
0.0
11
241.291300866013
21
176.052741000000
31
0.0
0
LINE
5
7a3
100
AcDbEntity
8
B-0
6
CONTINUOUS
62
6
100
AcDbLine
10
226.619281866013
20
193.553187000000
30
0.0
11
242.519961866013
21
177.652507000000
31
0.0
0
LINE
5
7a4
100
AcDbEntity
8
B-0
6
CONTINUOUS
62
6
100
AcDbLine
10
227.820831866013
20
195.180065000000
30
0.0
11
243.748622866013
21
179.252274000000
31
0.0
0
LINE
5
7a5
100
AcDbEntity
8
B-0
6
CONTINUOUS
62
6
100
AcDbLine
10
229.022381866013
20
196.806942000000
30
0.0
11
244.977282866013
21
180.852040000000
31
0.0
0
LINE
5
7a6
100
AcDbEntity
8
B-0
6
CONTINUOUS
62
6
100
AcDbLine
10
230.223931866013
20
198.433819000000
30
0.0
11
246.205943866013
21
182.451807000000
31
0.0
0
LINE
5
7a7
100
AcDbEntity
8
B-0
6
CONTINUOUS
62
6
100
AcDbLine
10
231.425480866013
20
200.060696000000
30
0.0
11
247.434604866013
21
184.051573000000
31
0.0
0
LINE
5
7a8
100
AcDbEntity
8
B-0
6
CONTINUOUS
62
6
100
AcDbLine
10
232.627030866013
20
201.687574000000
30
0.0
11
248.663264866013
21
185.651339000000
31
0.0
0
LINE
5
7a9
100
AcDbEntity
8
B-0
6
CONTINUOUS
62
6
100
AcDbLine
10
233.828580866013
20
203.314451000000
30
0.0
11
249.891925866013
21
187.251106000000
31
0.0
0
LINE
5
7aa
100
AcDbEntity
8
B-0
6
CONTINUOUS
62
6
100
AcDbLine
10
235.030130866013
20
204.941328000000
30
0.0
11
251.120586866013
21
188.850872000000
31
0.0
0
LINE
5
7ab
100
AcDbEntity
8
B-0
6
CONTINUOUS
62
6
100
AcDbLine
10
236.231680866013
20
206.568205000000
30
0.0
11
252.349247866013
21
190.450639000000
31
0.0
0
LINE
5
7ac
100
AcDbEntity
8
B-0
6
CONTINUOUS
62
6
100
AcDbLine
10
237.433230866013
20
208.195083000000
30
0.0
11
253.577907866013
21
192.050405000000
31
0.0
0
LINE
5
7ad
100
AcDbEntity
8
B-0
6
CONTINUOUS
62
6
100
AcDbLine
10
299.920476866013
20
145.707836000000
30
0.0
11
310.889924866013
21
134.738389000000
31
0.0
0
LINE
5
7ae
100
AcDbEntity
8
B-0
6
CONTINUOUS
62
6
100
AcDbLine
10
238.634780866013
20
209.821960000000
30
0.0
11
254.806568866013
21
193.650171000000
31
0.0
0
LINE
5
7af
100
AcDbEntity
8
B-0
6
CONTINUOUS
62
6
100
AcDbLine
10
299.737997866014
20
148.718743000000
30
0.0
11
314.966583866013
21
133.490157000000
31
0.0
0
LINE
5
7b0
100
AcDbEntity
8
B-0
6
CONTINUOUS
62
6
100
AcDbLine
10
239.836329866013
20
211.448837000000
30
0.0
11
256.035229866013
21
195.249938000000
31
0.0
0
LINE
5
7b1
100
AcDbEntity
8
B-0
6
CONTINUOUS
62
6
100
AcDbLine
10
297.222126866013
20
154.063040000000
30
0.0
11
317.050687866013
21
134.234480000000
31
0.0
0
LINE
5
7b2
100
AcDbEntity
8
B-0
6
CONTINUOUS
62
6
100
AcDbLine
10
241.037879866013
20
213.075714000000
30
0.0
11
257.263889866013
21
196.849704000000
31
0.0
0
LINE
5
7b3
100
AcDbEntity
8
B-0
6
CONTINUOUS
62
6
100
AcDbLine
10
292.772616866014
20
161.340978000000
30
0.0
11
319.134791866013
21
134.978803000000
31
0.0
0
LINE
5
7b4
100
AcDbEntity
8
B-0
6
CONTINUOUS
62
6
100
AcDbLine
10
242.239429866014
20
214.702592000000
30
0.0
11
258.492550866013
21
198.449471000000
31
0.0
0
LINE
5
7b5
100
AcDbEntity
8
B-0
6
CONTINUOUS
62
6
100
AcDbLine
10
288.323105866013
20
168.618916000000
30
0.0
11
321.232790866013
21
135.709231000000
31
0.0
0
LINE
5
7b6
100
AcDbEntity
8
B-0
6
CONTINUOUS
62
6
100
AcDbLine
10
243.440979866013
20
216.329469000000
30
0.0
11
259.721211866013
21
200.049237000000
31
0.0
0
LINE
5
7b7
100
AcDbEntity
8
B-0
6
CONTINUOUS
62
6
100
AcDbLine
10
283.873595866013
20
175.896853000000
30
0.0
11
323.408503866013
21
136.361945000000
31
0.0
0
LINE
5
7b8
100
AcDbEntity
8
B-0
6
CONTINUOUS
62
6
100
AcDbLine
10
244.642529866014
20
217.956346000000
30
0.0
11
260.949872866013
21
201.649003000000
31
0.0
0
LINE
5
7b9
100
AcDbEntity
8
B-0
6
CONTINUOUS
62
6
100
AcDbLine
10
279.424084866013
20
183.174791000000
30
0.0
11
325.584216866014
21
137.014659000000
31
0.0
0
LINE
5
7ba
100
AcDbEntity
8
B-0
6
CONTINUOUS
62
6
100
AcDbLine
10
245.844079866013
20
219.583223000000
30
0.0
11
262.178532866013
21
203.248770000000
31
0.0
0
LINE
5
7bb
100
AcDbEntity
8
B-0
6
CONTINUOUS
62
6
100
AcDbLine
10
274.974574866013
20
190.452728000000
30
0.0
11
327.759929866013
21
137.667373000000
31
0.0
0
LINE
5
7bc
100
AcDbEntity
8
B-0
6
CONTINUOUS
62
6
100
AcDbLine
10
247.045629866014
20
221.210101000000
30
0.0
11
263.407193866013
21
204.848536000000
31
0.0
0
LINE
5
7bd
100
AcDbEntity
8
B-0
6
CONTINUOUS
62
6
100
AcDbLine
10
270.525063866013
20
197.730666000000
30
0.0
11
329.935642866014
21
138.320087000000
31
0.0
0
LINE
5
7be
100
AcDbEntity
8
B-0
6
CONTINUOUS
62
6
100
AcDbLine
10
248.247179866013
20
222.836978000000
30
0.0
11
264.635854866013
21
206.448303000000
31
0.0
0
LINE
5
7bf
100
AcDbEntity
8
B-0
6
CONTINUOUS
62
6
100
AcDbLine
10
266.075553866013
20
205.008604000000
30
0.0
11
331.914968866013
21
139.169189000000
31
0.0
0
LINE
5
7c0
100
AcDbEntity
8
B-0
6
CONTINUOUS
62
6
100
AcDbLine
10
249.448728866013
20
224.463855000000
30
0.0
11
333.098961866014
21
140.813623000000
31
0.0
0
LINE
5
7c1
100
AcDbEntity
8
B-0
6
CONTINUOUS
62
6
100
AcDbLine
10
250.650278866013
20
226.090732000000
30
0.0
11
334.282953866013
21
142.458057000000
31
0.0
0
LINE
5
7c2
100
AcDbEntity
8
B-0
6
CONTINUOUS
62
6
100
AcDbLine
10
251.709053866013
20
227.860385000000
30
0.0
11
289.049614866013
21
190.519824000000
31
0.0
0
LINE
5
7c3
100
AcDbEntity
8
B-0
6
CONTINUOUS
62
6
100
AcDbLine
10
289.758931866013
20
189.810507000000
30
0.0
11
335.058115866013
21
144.511323000000
31
0.0
0
LINE
5
7c4
100
AcDbEntity
8
B-0
6
CONTINUOUS
62
6
100
AcDbLine
10
251.709053866013
20
230.688812000000
30
0.0
11
290.084890866013
21
192.312975000000
31
0.0
0
LINE
5
7c5
100
AcDbEntity
8
B-0
6
CONTINUOUS
62
6
100
AcDbLine
10
292.587358866013
20
189.810507000000
30
0.0
11
334.384263866014
21
148.013602000000
31
0.0
0
LINE
5
7c6
100
AcDbEntity
8
B-0
6
CONTINUOUS
62
6
100
AcDbLine
10
251.974077866013
20
233.252215000000
30
0.0
11
291.120166866014
21
194.106126000000
31
0.0
0
LINE
5
7c7
100
AcDbEntity
8
B-0
6
CONTINUOUS
62
6
100
AcDbLine
10
295.415785866013
20
189.810507000000
30
0.0
11
331.844383866013
21
153.381909000000
31
0.0
0
LINE
5
7c8
100
AcDbEntity
8
B-0
6
CONTINUOUS
62
6
100
AcDbLine
10
252.822605866013
20
235.232114000000
30
0.0
11
292.155442866013
21
195.899277000000
31
0.0
0
LINE
5
7c9
100
AcDbEntity
8
B-0
6
CONTINUOUS
62
6
100
AcDbLine
10
298.244212866013
20
189.810507000000
30
0.0
11
327.949737866013
21
160.104982000000
31
0.0
0
LINE
5
7ca
100
AcDbEntity
8
B-0
6
CONTINUOUS
62
6
100
AcDbLine
10
253.994440866013
20
236.888707000000
30
0.0
11
293.190719866014
21
197.692428000000
31
0.0
0
LINE
5
7cb
100
AcDbEntity
8
B-0
6
CONTINUOUS
62
6
100
AcDbLine
10
301.072640866013
20
189.810507000000
30
0.0
11
324.055092866013
21
166.828054000000
31
0.0
0
LINE
5
7cc
100
AcDbEntity
8
B-0
6
CONTINUOUS
62
6
100
AcDbLine
10
255.325464866013
20
238.386109000000
30
0.0
11
294.225995866013
21
199.485579000000
31
0.0
0
LINE
5
7cd
100
AcDbEntity
8
B-0
6
CONTINUOUS
62
6
100
AcDbLine
10
303.901067866013
20
189.810507000000
30
0.0
11
320.160446866013
21
173.551127000000
31
0.0
0
LINE
5
7ce
100
AcDbEntity
8
B-0
6
CONTINUOUS
62
6
100
AcDbLine
10
256.656489866013
20
239.883512000000
30
0.0
11
295.261271866013
21
201.278730000000
31
0.0
0
LINE
5
7cf
100
AcDbEntity
8
B-0
6
CONTINUOUS
62
6
100
AcDbLine
10
306.729494866014
20
189.810507000000
30
0.0
11
316.265801866013
21
180.274200000000
31
0.0
0
LINE
5
7d0
100
AcDbEntity
8
B-0
6
CONTINUOUS
62
6
100
AcDbLine
10
258.045893866013
20
241.322535000000
30
0.0
11
296.296547866014
21
203.071881000000
31
0.0
0
LINE
5
7d1
100
AcDbEntity
8
B-0
6
CONTINUOUS
62
6
100
AcDbLine
10
309.557921866013
20
189.810507000000
30
0.0
11
312.371156866014
21
186.997272000000
31
0.0
0
LINE
5
7d2
100
AcDbEntity
8
B-0
6
CONTINUOUS
62
6
100
AcDbLine
10
259.202977866014
20
242.993878000000
30
0.0
11
297.331823866013
21
204.865032000000
31
0.0
0
LINE
5
7d3
100
AcDbEntity
8
B-0
6
CONTINUOUS
62
6
100
AcDbLine
10
260.695503866014
20
244.329779000000
30
0.0
11
298.367100866013
21
206.658182000000
31
0.0
0
LINE
5
7d4
100
AcDbEntity
8
B-0
6
CONTINUOUS
62
6
100
AcDbLine
10
263.191174866013
20
244.662535000000
30
0.0
11
299.402376866013
21
208.451333000000
31
0.0
0
LINE
5
7d5
100
AcDbEntity
8
B-0
6
CONTINUOUS
62
6
100
AcDbLine
10
265.581343866013
20
245.100793000000
30
0.0
11
295.899921866014
21
214.782216000000
31
0.0
0
LINE
5
7d6
100
AcDbEntity
8
B-0
6
CONTINUOUS
62
6
100
AcDbLine
10
267.953572866013
20
245.556991000000
30
0.0
11
291.625853866013
21
221.884710000000
31
0.0
0
LINE
5
7d7
100
AcDbEntity
8
B-0
6
CONTINUOUS
62
6
100
AcDbLine
10
270.563997866014
20
245.774993000000
30
0.0
11
287.351785866013
21
228.987205000000
31
0.0
0
LINE
5
7d8
100
AcDbEntity
8
B-0
6
CONTINUOUS
62
6
100
AcDbLine
10
274.333815866013
20
244.833603000000
30
0.0
11
282.341247866013
21
236.826170000000
31
0.0
0
LINE
5
7d9
100
AcDbEntity
8
B-0
6
CONTINUOUS
62
6
100
AcDbLine
10
341.949905866013
20
220.387181000000
30
0.0
11
341.949905866013
21
249.627417000000
31
0.0
0
LINE
5
7da
100
AcDbEntity
8
B-0
6
CONTINUOUS
62
6
100
AcDbLine
10
339.949905866013
20
220.806019000000
30
0.0
11
339.949905866013
21
249.208579000000
31
0.0
0
LINE
5
7db
100
AcDbEntity
8
B-0
6
CONTINUOUS
62
6
100
AcDbLine
10
337.949905866013
20
221.531216000000
30
0.0
11
337.949905866013
21
248.483382000000
31
0.0
0
LINE
5
7dc
100
AcDbEntity
8
B-0
6
CONTINUOUS
62
6
100
AcDbLine
10
335.949905866013
20
222.616443000000
30
0.0
11
335.949905866013
21
247.398155000000
31
0.0
0
LINE
5
7dd
100
AcDbEntity
8
B-0
6
CONTINUOUS
62
6
100
AcDbLine
10
333.949905866013
20
224.169320000000
30
0.0
11
333.949905866013
21
245.845278000000
31
0.0
0
LINE
5
7de
100
AcDbEntity
8
B-0
6
CONTINUOUS
62
6
100
AcDbLine
10
331.949905866013
20
226.440487000000
30
0.0
11
331.949905866013
21
243.574111000000
31
0.0
0
LINE
5
7df
100
AcDbEntity
8
B-0
6
CONTINUOUS
62
6
100
AcDbLine
10
329.949905866013
20
230.390075000000
30
0.0
11
329.949905866013
21
239.624523000000
31
0.0
0
LINE
5
7e0
100
AcDbEntity
8
B-0
6
CONTINUOUS
62
6
100
AcDbLine
10
288.859494866013
20
190.190526000000
30
0.0
11
331.420685866013
21
190.190526000000
31
0.0
0
LINE
5
7e1
100
AcDbEntity
8
B-0
6
CONTINUOUS
62
6
100
AcDbLine
10
290.014194866013
20
192.190526000000
30
0.0
11
330.265985866013
21
192.190526000000
31
0.0
0
LINE
5
7e2
100
AcDbEntity
8
B-0
6
CONTINUOUS
62
6
100
AcDbLine
10
291.168895866013
20
194.190526000000
30
0.0
11
329.111284866013
21
194.190526000000
31
0.0
0
LINE
5
7e3
100
AcDbEntity
8
B-0
6
CONTINUOUS
62
6
100
AcDbLine
10
292.323595866013
20
196.190526000000
30
0.0
11
327.956583866013
21
196.190526000000
31
0.0
0
LINE
5
7e4
100
AcDbEntity
8
B-0
6
CONTINUOUS
62
6
100
AcDbLine
10
293.478296866013
20
198.190526000000
30
0.0
11
326.801883866013
21
198.190526000000
31
0.0
0
LINE
5
7e5
100
AcDbEntity
8
B-0
6
CONTINUOUS
62
6
100
AcDbLine
10
294.632997866014
20
200.190526000000
30
0.0
11
325.647182866014
21
200.190526000000
31
0.0
0
LINE
5
7e6
100
AcDbEntity
8
B-0
6
CONTINUOUS
62
6
100
AcDbLine
10
295.787697866013
20
202.190526000000
30
0.0
11
324.492482866013
21
202.190526000000
31
0.0
0
LINE
5
7e7
100
AcDbEntity
8
B-0
6
CONTINUOUS
62
6
100
AcDbLine
10
296.942398866013
20
204.190526000000
30
0.0
11
323.337781866014
21
204.190526000000
31
0.0
0
LINE
5
7e8
100
AcDbEntity
8
B-0
6
CONTINUOUS
62
6
100
AcDbLine
10
298.097098866014
20
206.190526000000
30
0.0
11
322.183081866013
21
206.190526000000
31
0.0
0
LINE
5
7e9
100
AcDbEntity
8
B-0
6
CONTINUOUS
62
6
100
AcDbLine
10
299.251799866013
20
208.190526000000
30
0.0
11
321.028380866014
21
208.190526000000
31
0.0
0
LINE
5
7ea
100
AcDbEntity
8
B-0
6
CONTINUOUS
62
6
100
AcDbLine
10
300.406499866014
20
210.190526000000
30
0.0
11
319.873680866014
21
210.190526000000
31
0.0
0
LINE
5
7eb
100
AcDbEntity
8
B-0
6
CONTINUOUS
62
6
100
AcDbLine
10
301.561200866013
20
212.190526000000
30
0.0
11
318.718979866013
21
212.190526000000
31
0.0
0
LINE
5
7ec
100
AcDbEntity
8
B-0
6
CONTINUOUS
62
6
100
AcDbLine
10
302.715900866014
20
214.190526000000
30
0.0
11
317.564279866014
21
214.190526000000
31
0.0
0
LINE
5
7ed
100
AcDbEntity
8
B-0
6
CONTINUOUS
62
6
100
AcDbLine
10
303.870601866013
20
216.190526000000
30
0.0
11
316.409578866013
21
216.190526000000
31
0.0
0
LINE
5
7ee
100
AcDbEntity
8
B-0
6
CONTINUOUS
62
6
100
AcDbLine
10
305.025301866013
20
218.190526000000
30
0.0
11
315.254878866014
21
218.190526000000
31
0.0
0
LINE
5
7ef
100
AcDbEntity
8
B-0
6
CONTINUOUS
62
6
100
AcDbLine
10
306.180002866013
20
220.190526000000
30
0.0
11
314.100177866013
21
220.190526000000
31
0.0
0
LINE
5
7f0
100
AcDbEntity
8
B-0
6
CONTINUOUS
62
6
100
AcDbLine
10
307.334702866013
20
222.190526000000
30
0.0
11
312.945476866013
21
222.190526000000
31
0.0
0
LINE
5
7f1
100
AcDbEntity
8
B-0
6
CONTINUOUS
62
6
100
AcDbLine
10
308.489403866013
20
224.190526000000
30
0.0
11
311.790776866013
21
224.190526000000
31
0.0
0
LINE
5
7f2
100
AcDbEntity
8
B-0
6
CONTINUOUS
62
6
100
AcDbLine
10
309.644104866013
20
226.190526000000
30
0.0
11
310.636075866013
21
226.190526000000
31
0.0
0
LINE
5
7f3
100
AcDbEntity
8
B-0
6
CONTINUOUS
62
6
100
AcDbLine
10
329.949905866013
20
189.810507000000
30
0.0
11
329.949905866013
21
192.737992000000
31
0.0
0
LINE
5
7f4
100
AcDbEntity
8
B-0
6
CONTINUOUS
62
6
100
AcDbLine
10
327.949905866013
20
189.810507000000
30
0.0
11
327.949905866013
21
196.202094000000
31
0.0
0
LINE
5
7f5
100
AcDbEntity
8
B-0
6
CONTINUOUS
62
6
100
AcDbLine
10
325.949905866013
20
189.810507000000
30
0.0
11
325.949905866013
21
199.666196000000
31
0.0
0
LINE
5
7f6
100
AcDbEntity
8
B-0
6
CONTINUOUS
62
6
100
AcDbLine
10
323.949905866013
20
189.810507000000
30
0.0
11
323.949905866013
21
203.130297000000
31
0.0
0
LINE
5
7f7
100
AcDbEntity
8
B-0
6
CONTINUOUS
62
6
100
AcDbLine
10
321.949905866013
20
189.810507000000
30
0.0
11
321.949905866013
21
206.594399000000
31
0.0
0
LINE
5
7f8
100
AcDbEntity
8
B-0
6
CONTINUOUS
62
6
100
AcDbLine
10
319.949905866013
20
189.810507000000
30
0.0
11
319.949905866013
21
210.058500000000
31
0.0
0
LINE
5
7f9
100
AcDbEntity
8
B-0
6
CONTINUOUS
62
6
100
AcDbLine
10
317.949905866013
20
189.810507000000
30
0.0
11
317.949905866013
21
213.522602000000
31
0.0
0
LINE
5
7fa
100
AcDbEntity
8
B-0
6
CONTINUOUS
62
6
100
AcDbLine
10
315.949905866013
20
189.810507000000
30
0.0
11
315.949905866013
21
216.986704000000
31
0.0
0
LINE
5
7fb
100
AcDbEntity
8
B-0
6
CONTINUOUS
62
6
100
AcDbLine
10
313.949905866013
20
189.810507000000
30
0.0
11
313.949905866013
21
220.450805000000
31
0.0
0
LINE
5
7fc
100
AcDbEntity
8
B-0
6
CONTINUOUS
62
6
100
AcDbLine
10
311.949905866013
20
189.810507000000
30
0.0
11
311.949905866013
21
223.914907000000
31
0.0
0
LINE
5
7fd
100
AcDbEntity
8
B-0
6
CONTINUOUS
62
6
100
AcDbLine
10
309.949905866013
20
189.810507000000
30
0.0
11
309.949905866013
21
226.720190000000
31
0.0
0
LINE
5
7fe
100
AcDbEntity
8
B-0
6
CONTINUOUS
62
6
100
AcDbLine
10
307.949905866013
20
189.810507000000
30
0.0
11
307.949905866013
21
223.256088000000
31
0.0
0
LINE
5
7ff
100
AcDbEntity
8
B-0
6
CONTINUOUS
62
6
100
AcDbLine
10
305.949905866013
20
189.810507000000
30
0.0
11
305.949905866013
21
219.791987000000
31
0.0
0
LINE
5
800
100
AcDbEntity
8
B-0
6
CONTINUOUS
62
6
100
AcDbLine
10
303.949905866013
20
189.810507000000
30
0.0
11
303.949905866013
21
216.327885000000
31
0.0
0
LINE
5
801
100
AcDbEntity
8
B-0
6
CONTINUOUS
62
6
100
AcDbLine
10
301.949905866013
20
189.810507000000
30
0.0
11
301.949905866013
21
212.863784000000
31
0.0
0
LINE
5
802
100
AcDbEntity
8
B-0
6
CONTINUOUS
62
6
100
AcDbLine
10
299.949905866013
20
189.810507000000
30
0.0
11
299.949905866013
21
209.399682000000
31
0.0
0
LINE
5
803
100
AcDbEntity
8
B-0
6
CONTINUOUS
62
6
100
AcDbLine
10
297.949905866013
20
189.810507000000
30
0.0
11
297.949905866013
21
205.935580000000
31
0.0
0
LINE
5
804
100
AcDbEntity
8
B-0
6
CONTINUOUS
62
6
100
AcDbLine
10
295.949905866013
20
189.810507000000
30
0.0
11
295.949905866013
21
202.471479000000
31
0.0
0
LINE
5
805
100
AcDbEntity
8
B-0
6
CONTINUOUS
62
6
100
AcDbLine
10
293.949905866013
20
189.810507000000
30
0.0
11
293.949905866013
21
199.007377000000
31
0.0
0
LINE
5
806
100
AcDbEntity
8
B-0
6
CONTINUOUS
62
6
100
AcDbLine
10
291.949905866013
20
189.810507000000
30
0.0
11
291.949905866013
21
195.543275000000
31
0.0
0
LINE
5
807
100
AcDbEntity
8
B-0
6
CONTINUOUS
62
6
100
AcDbLine
10
289.949905866013
20
189.810507000000
30
0.0
11
289.949905866013
21
192.079174000000
31
0.0
0
LINE
5
808
100
AcDbEntity
8
C-0
6
CONTINUOUS
62
6
100
AcDbLine
10
1599.959528866013
20
211.675609000000
30
0.0
11
1599.959528866013
21
99.175609000000
31
0.0
0
LINE
5
809
100
AcDbEntity
8
C-0
6
CONTINUOUS
62
6
100
AcDbLine
10
1749.959528866013
20
211.675609000000
30
0.0
11
1749.959528866013
21
99.175609000000
31
0.0
0
LINE
5
80a
100
AcDbEntity
8
C-0
6
CONTINUOUS
62
6
100
AcDbLine
10
2049.959528866013
20
181.675609000000
30
0.0
11
1399.959528866013
21
181.675609000000
31
0.0
0
LINE
5
80b
100
AcDbEntity
8
C-0
6
CONTINUOUS
62
6
100
AcDbLine
10
1849.959528866013
20
279.175609000000
30
0.0
11
1849.959528866013
21
99.175609000000
31
0.0
0
LINE
5
80c
100
AcDbEntity
8
C-0
6
CONTINUOUS
62
6
100
AcDbLine
10
1949.959528866013
20
279.175609000000
30
0.0
11
1949.959528866013
21
99.175609000000
31
0.0
0
LINE
5
80d
100
AcDbEntity
8
C-0
6
CONTINUOUS
62
6
100
AcDbLine
10
2049.959528866013
20
245.425609000000
30
0.0
11
1949.959528866013
21
245.425609000000
31
0.0
0
LINE
5
80e
100
AcDbEntity
8
C-0
6
CONTINUOUS
62
6
100
AcDbLine
10
2049.959528866013
20
211.675609000000
30
0.0
11
1399.959528866013
21
211.675609000000
31
0.0
0
CIRCLE
5
80f
100
AcDbEntity
8
3-0
6
CONTINUOUS
62
2
100
AcDbCircle
10
1874.959528866013
20
245.425609000000
30
0.0
40
20.000000000000
0
CIRCLE
5
810
100
AcDbEntity
8
3-0
6
CONTINUOUS
62
2
100
AcDbCircle
10
1874.959528866013
20
245.425609000000
30
0.0
40
10.000000000000
0
LINE
5
811
100
AcDbEntity
8
E-0
6
CENTER2
62
16
100
AcDbLine
10
1874.959528866013
20
270.425609000000
30
0.0
11
1874.959528866013
21
220.425609000000
31
0.0
0
LINE
5
812
100
AcDbEntity
8
3-0
6
CONTINUOUS
62
2
100
AcDbLine
10
1904.959528866013
20
255.425609000000
30
0.0
11
1939.959528866013
21
265.425609000000
31
0.0
0
LINE
5
813
100
AcDbEntity
8
3-0
6
CONTINUOUS
62
2
100
AcDbLine
10
1939.959528866013
20
265.425609000000
30
0.0
11
1939.959528866013
21
225.425609000000
31
0.0
0
LINE
5
814
100
AcDbEntity
8
3-0
6
CONTINUOUS
62
2
100
AcDbLine
10
1904.959528866013
20
235.425609000000
30
0.0
11
1939.959528866013
21
225.425609000000
31
0.0
0
LINE
5
815
100
AcDbEntity
8
3-0
6
CONTINUOUS
62
2
100
AcDbLine
10
1904.959528866013
20
255.425609000000
30
0.0
11
1904.959528866013
21
235.425609000000
31
0.0
0
LINE
5
816
100
AcDbEntity
8
E-0
6
CENTER2
62
16
100
AcDbLine
10
1849.959528866013
20
245.425609000000
30
0.0
11
1944.959528866013
21
245.425609000000
31
0.0
0
LINE
5
817
100
AcDbEntity
8
C-0
6
CONTINUOUS
62
6
100
AcDbLine
10
1399.959528866013
20
189.175609000000
30
0.0
11
725.493959866013
21
189.175609000000
31
0.0
0
LINE
5
818
100
AcDbEntity
8
C-0
6
CONTINUOUS
62
6
100
AcDbLine
10
725.493959866013
20
99.175609000000
30
0.0
11
725.493959866013
21
279.175609000000
31
0.0
0
TEXT
5
819
100
AcDbEntity
8
F-0
62
4
100
AcDbText
10
735.494
20
252.477
30
0.0
40
25.600
1
品番
41
1.000
50
0.000
100
AcDbText
0
TEXT
5
81a
100
AcDbEntity
8
F-0
62
4
100
AcDbText
10
735.494
20
162.516
30
0.0
40
25.600
1
名称
41
1.000
50
0.000
100
AcDbText
0
TEXT
5
81b
100
AcDbEntity
8
F-0
62
4
100
AcDbText
10
1878.367
20
183.593
30
0.0
40
25.600
1
検図
41
1.000
50
0.000
100
AcDbText
0
LINE
5
81c
100
AcDbEntity
8
C-0
6
CONTINUOUS
62
6
100
AcDbLine
10
125.493959866013
20
279.175609000000
30
0.0
11
125.493959866013
21
99.175609000000
31
0.0
0
TEXT
5
81d
100
AcDbEntity
8
F-0
62
4
100
AcDbText
10
1978.626
20
249.741
30
0.0
40
25.600
1
単位
41
1.000
50
0.000
100
AcDbText
0
TEXT
5
81e
100
AcDbEntity
8
F-0
62
4
100
AcDbText
10
1971.388
20
219.324
30
0.0
40
25.600
1
mm
41
1.000
50
0.000
100
AcDbText
0
TEXT
5
81f
100
AcDbEntity
8
F-0
62
4
100
AcDbText
10
1612.483
20
127.866
30
0.0
40
25.600
1
S=1：10
41
1.000
50
0.000
100
AcDbText
0
TEXT
5
820
100
AcDbEntity
8
F-0
62
4
100
AcDbText
10
1431.864
20
127.866
30
0.0
40
25.600
1
11.05.16
41
1.000
50
0.000
100
AcDbText
0
TEXT
5
821
100
AcDbEntity
8
F-0
62
4
100
AcDbText
10
1779.293
20
127.866
30
0.0
40
25.600
1
竹内
41
1.000
50
0.000
100
AcDbText
0
TEXT
5
822
100
AcDbEntity
8
F-0
62
4
100
AcDbText
10
1477.293
20
184.116
30
0.0
40
25.600
1
日付
41
1.000
50
0.000
100
AcDbText
0
TEXT
5
823
100
AcDbEntity
8
F-0
62
4
100
AcDbText
10
1629.245
20
184.116
30
0.0
40
25.600
1
SCALE
41
1.000
50
0.000
100
AcDbText
0
TEXT
5
824
100
AcDbEntity
8
F-0
62
4
100
AcDbText
10
1779.293
20
184.116
30
0.0
40
25.600
1
製図
41
1.000
50
0.000
100
AcDbText
0
LINE
5
825
100
AcDbEntity
8
F-0
6
CONTINUOUS
62
4
100
AcDbLine
10
585.364834866013
20
1866.380271000000
30
0.0
11
785.364834866013
21
1866.380271000000
31
0.0
0
LINE
5
826
100
AcDbEntity
8
F-0
6
CONTINUOUS
62
4
100
AcDbLine
10
785.364834866013
20
1866.380271000000
30
0.0
11
785.364834866013
21
1916.380271000000
31
0.0
0
LINE
5
827
100
AcDbEntity
8
F-0
6
CONTINUOUS
62
4
100
AcDbLine
10
785.364834866013
20
1916.380271000000
30
0.0
11
585.364834866013
21
1916.380271000000
31
0.0
0
LINE
5
828
100
AcDbEntity
8
F-0
6
CONTINUOUS
62
4
100
AcDbLine
10
585.364834866013
20
1916.380271000000
30
0.0
11
585.364834866013
21
1866.380271000000
31
0.0
0
TEXT
5
829
100
AcDbEntity
8
F-0
62
4
100
AcDbText
10
635.365
20
1872.540
30
0.0
40
38.400
1
平面図
41
1.000
50
0.000
100
AcDbText
0
LINE
5
82a
100
AcDbEntity
8
F-0
6
CONTINUOUS
62
4
100
AcDbLine
10
585.364834866013
20
897.475486000000
30
0.0
11
785.364834866013
21
897.475486000000
31
0.0
0
LINE
5
82b
100
AcDbEntity
8
F-0
6
CONTINUOUS
62
4
100
AcDbLine
10
785.364834866013
20
897.475486000000
30
0.0
11
785.364834866013
21
947.475486000000
31
0.0
0
LINE
5
82c
100
AcDbEntity
8
F-0
6
CONTINUOUS
62
4
100
AcDbLine
10
785.364834866013
20
947.475486000000
30
0.0
11
585.364834866013
21
947.475486000000
31
0.0
0
LINE
5
82d
100
AcDbEntity
8
F-0
6
CONTINUOUS
62
4
100
AcDbLine
10
585.364834866013
20
947.475486000000
30
0.0
11
585.364834866013
21
897.475486000000
31
0.0
0
TEXT
5
82e
100
AcDbEntity
8
F-0
62
4
100
AcDbText
10
635.365
20
903.635
30
0.0
40
38.400
1
立面図
41
1.000
50
0.000
100
AcDbText
0
LINE
5
82f
100
AcDbEntity
8
F-0
6
CONTINUOUS
62
4
100
AcDbLine
10
1445.162804866014
20
897.475486000000
30
0.0
11
1645.162804866014
21
897.475486000000
31
0.0
0
LINE
5
830
100
AcDbEntity
8
F-0
6
CONTINUOUS
62
4
100
AcDbLine
10
1645.162804866014
20
897.475486000000
30
0.0
11
1645.162804866014
21
947.475486000000
31
0.0
0
LINE
5
831
100
AcDbEntity
8
F-0
6
CONTINUOUS
62
4
100
AcDbLine
10
1645.162804866014
20
947.475486000000
30
0.0
11
1445.162804866014
21
947.475486000000
31
0.0
0
LINE
5
832
100
AcDbEntity
8
F-0
6
CONTINUOUS
62
4
100
AcDbLine
10
1445.162804866014
20
947.475486000000
30
0.0
11
1445.162804866014
21
897.475486000000
31
0.0
0
TEXT
5
833
100
AcDbEntity
8
F-0
62
4
100
AcDbText
10
1495.163
20
903.635
30
0.0
40
38.400
1
立面図
41
1.000
50
0.000
100
AcDbText
0
TEXT
5
834
100
AcDbEntity
8
F-0
62
4
100
AcDbText
10
164.253
20
398.942
30
0.0
40
25.600
1
タイプ：置き型
41
1.000
50
0.000
100
AcDbText
0
TEXT
5
835
100
AcDbEntity
8
F-0
62
4
100
AcDbText
10
164.597
20
342.237
30
0.0
40
25.600
1
深さ：130mm
41
1.000
50
0.000
100
AcDbText
0
LINE
5
836
100
AcDbEntity
8
E-0
6
CENTER2
62
16
100
AcDbLine
10
685.364834866013
20
1091.259127000000
30
0.0
11
685.364834866013
21
1486.297127000000
31
0.0
0
LINE
5
837
100
AcDbEntity
8
F-0
6
CONTINUOUS
62
4
100
AcDbLine
10
1371.645200866014
20
1866.380271000000
30
0.0
11
1718.680408866013
21
1866.380271000000
31
0.0
0
LINE
5
838
100
AcDbEntity
8
F-0
6
CONTINUOUS
62
4
100
AcDbLine
10
1718.680408866013
20
1866.380271000000
30
0.0
11
1718.680408866013
21
1916.380271000000
31
0.0
0
LINE
5
839
100
AcDbEntity
8
F-0
6
CONTINUOUS
62
4
100
AcDbLine
10
1718.680408866013
20
1916.380271000000
30
0.0
11
1371.645200866014
21
1916.380271000000
31
0.0
0
LINE
5
83a
100
AcDbEntity
8
F-0
6
CONTINUOUS
62
4
100
AcDbLine
10
1371.645200866014
20
1916.380271000000
30
0.0
11
1371.645200866014
21
1866.380271000000
31
0.0
0
TEXT
5
83b
100
AcDbEntity
8
F-0
62
4
100
AcDbText
10
1385.113
20
1872.540
30
0.0
40
38.400
1
カウンター開口寸法
41
1.000
50
0.000
100
AcDbText
0
TEXT
5
83c
100
AcDbEntity
8
F-0
62
4
100
AcDbText
10
164.667
20
318.137
30
0.0
40
25.600
1
オーバーフロー：無（固定排水栓RP-147.555.5+スペーサーRP-47.000.0をご使用下さい。蛇口付属排水栓はご使用できません。）
41
1.000
50
0.000
100
AcDbText
0
LINE
5
83d
100
AcDbEntity
8
E-0
6
CENTER2
62
16
100
AcDbLine
10
1545.162804866014
20
2541.754248000000
30
0.0
11
1545.162804866014
21
2041.754248000000
31
0.0
0
LINE
5
83e
100
AcDbEntity
8
E-0
6
CENTER2
62
16
100
AcDbLine
10
1295.162804866014
20
2291.754248000000
30
0.0
11
1795.162804866014
21
2291.754248000000
31
0.0
0
CIRCLE
5
83f
100
AcDbEntity
8
2-0
6
CONTINUOUS
62
5
100
AcDbCircle
10
1545.162804866014
20
2291.754248000000
30
0.0
40
60.000000000000
0
LINE
5
840
100
AcDbEntity
8
D-0
6
CONTINUOUS
62
0
100
AcDbLine
10
1472.773162133987
20
2247.203831000000
30
0.0
11
1451.482091133987
21
2234.100767000000
31
0.0
0
LINE
5
841
100
AcDbEntity
8
D-0
6
CONTINUOUS
62
0
100
AcDbLine
10
1617.552447133987
20
2336.304665000000
30
0.0
11
1749.798357133987
21
2417.692143000000
31
0.0
0
LINE
5
842
100
AcDbEntity
8
D-0
6
CONTINUOUS
62
0
100
AcDbLine
10
1494.064233133987
20
2260.306895000000
30
0.0
11
1596.261376133987
21
2323.201601000000
31
0.0
0
LINE
5
843
100
AcDbEntity
8
D-0
6
BYLAYER
62
0
100
AcDbLine
10
1469.262209425632
20
2252.908751982795
30
0.0
11
1494.064233602308
21
2260.306894544627
31
0.0
0
LINE
5
844
100
AcDbEntity
8
D-0
6
BYLAYER
62
0
100
AcDbLine
10
1494.064233602308
20
2260.306894544627
30
0.0
11
1476.284115127349
21
2241.498909441431
31
0.0
0
LINE
5
845
100
AcDbEntity
8
D-0
6
BYLAYER
62
0
100
AcDbLine
10
1494.064233602308
20
2260.306894544627
30
0.0
11
1472.773162276490
21
2247.203830712113
31
0.0
0
LINE
5
846
100
AcDbEntity
8
D-0
6
BYLAYER
62
0
100
AcDbLine
10
1621.063400142945
20
2330.599743502599
30
0.0
11
1596.261375966345
21
2323.201600940513
31
0.0
0
LINE
5
847
100
AcDbEntity
8
D-0
6
BYLAYER
62
0
100
AcDbLine
10
1596.261375966345
20
2323.201600940513
30
0.0
11
1614.041494441112
21
2342.009586043890
31
0.0
0
LINE
5
848
100
AcDbEntity
8
D-0
6
BYLAYER
62
0
100
AcDbLine
10
1596.261375966345
20
2323.201600940513
30
0.0
11
1617.552447292029
21
2336.304664773244
31
0.0
0
TEXT
5
849
100
AcDbEntity
8
D-0
62
0
100
AcDbText
10
1668.481
20
2371.522
30
0.0
40
32.000
1
φ120
41
1.000
50
31.609
100
AcDbText
0
LINE
5
84a
100
AcDbEntity
8
2-0
6
CONTINUOUS
62
5
100
AcDbLine
10
490.364834953111
20
2086.754247742570
30
0.0
11
880.364834953112
21
2086.754247742570
31
0.0
0
ARC
5
84b
100
AcDbEntity
8
2-0
6
CONTINUOUS
62
5
100
AcDbCircle
10
880.364834866013
20
2091.754248000000
30
0.0
40
5.000000000000
100
AcDbArc
50
270.000000000000
51
359.999999999708
0
LINE
5
84c
100
AcDbEntity
8
2-0
6
CONTINUOUS
62
5
100
AcDbLine
10
885.364834953112
20
2091.754247742570
30
0.0
11
885.364834953111
21
2491.754247742570
31
0.0
0
ARC
5
84d
100
AcDbEntity
8
2-0
6
CONTINUOUS
62
5
100
AcDbCircle
10
880.364834866013
20
2491.754248000000
30
0.0
40
5.000000000000
100
AcDbArc
50
360.000000000292
51
450.000000000000
0
LINE
5
84e
100
AcDbEntity
8
2-0
6
CONTINUOUS
62
5
100
AcDbLine
10
880.364834953111
20
2496.754247742570
30
0.0
11
490.364834953112
21
2496.754247742570
31
0.0
0
ARC
5
84f
100
AcDbEntity
8
2-0
6
CONTINUOUS
62
5
100
AcDbCircle
10
490.364834866013
20
2491.754248000000
30
0.0
40
5.000000000000
100
AcDbArc
50
450.000000000000
51
539.999999999708
0
LINE
5
850
100
AcDbEntity
8
2-0
6
CONTINUOUS
62
5
100
AcDbLine
10
485.364834953112
20
2491.754247742570
30
0.0
11
485.364834953111
21
2091.754247742570
31
0.0
0
ARC
5
851
100
AcDbEntity
8
2-0
6
CONTINUOUS
62
5
100
AcDbCircle
10
490.364834866013
20
2091.754248000000
30
0.0
40
5.000000000000
100
AcDbArc
50
180.000000000292
51
270.000000000000
0
LINE
5
852
100
AcDbEntity
8
E-0
6
CENTER2
62
16
100
AcDbLine
10
685.364834866013
20
2521.754248000000
30
0.0
11
685.364834866013
21
2061.754248000000
31
0.0
0
LINE
5
853
100
AcDbEntity
8
2-0
6
DOT
62
5
100
AcDbLine
10
820.364834866013
20
2426.754248000000
30
0.0
11
820.364834866013
21
2156.754248000000
31
0.0
0
LINE
5
854
100
AcDbEntity
8
2-0
6
DOT
62
5
100
AcDbLine
10
550.364834866013
20
2426.754248000000
30
0.0
11
550.364834866013
21
2156.754248000000
31
0.0
0
ARC
5
855
100
AcDbEntity
8
2-0
6
CONTINUOUS
62
5
100
AcDbCircle
10
815.364834866013
20
2426.754248000000
30
0.0
40
5.000000000000
100
AcDbArc
50
0.000000000000
51
90.000000000000
0
ARC
5
856
100
AcDbEntity
8
2-0
6
DOT
62
5
100
AcDbCircle
10
555.364834866013
20
2426.754248000000
30
0.0
40
5.000000000000
100
AcDbArc
50
90.000000000000
51
180.000000000000
0
LINE
5
857
100
AcDbEntity
8
2-0
6
CONTINUOUS
62
5
100
AcDbLine
10
865.364834866013
20
2471.754248000000
30
0.0
11
865.364834866013
21
2111.754248000000
31
0.0
0
ARC
5
858
100
AcDbEntity
8
2-0
6
CONTINUOUS
62
5
100
AcDbCircle
10
860.364834866013
20
2471.754248000000
30
0.0
40
5.000000000000
100
AcDbArc
50
0.000000000000
51
90.000000000000
0
ARC
5
859
100
AcDbEntity
8
2-0
6
CONTINUOUS
62
5
100
AcDbCircle
10
860.364834866013
20
2111.754248000000
30
0.0
40
5.000000000000
100
AcDbArc
50
270.000000000000
51
0.000000000000
0
LINE
5
85a
100
AcDbEntity
8
2-0
6
CONTINUOUS
62
5
100
AcDbLine
10
505.364834866013
20
2471.754248000000
30
0.0
11
505.364834866013
21
2111.754248000000
31
0.0
0
LINE
5
85b
100
AcDbEntity
8
E-0
6
CENTER2
62
16
100
AcDbLine
10
460.364834866013
20
2291.754248000000
30
0.0
11
910.364834866013
21
2291.754248000000
31
0.0
0
LINE
5
85c
100
AcDbEntity
8
2-0
6
DOT
62
5
100
AcDbLine
10
555.364834866013
20
2151.754248000000
30
0.0
11
815.364834866013
21
2151.754248000000
31
0.0
0
ARC
5
85d
100
AcDbEntity
8
2-0
6
DOT
62
5
100
AcDbCircle
10
555.364834866013
20
2156.754248000000
30
0.0
40
5.000000000000
100
AcDbArc
50
180.000000000000
51
270.000000000000
0
ARC
5
85e
100
AcDbEntity
8
2-0
6
DOT
62
5
100
AcDbCircle
10
815.364834866013
20
2156.754248000000
30
0.0
40
5.000000000000
100
AcDbArc
50
270.000000000000
51
0.000000000000
0
LINE
5
85f
100
AcDbEntity
8
2-0
6
DOT
62
5
100
AcDbLine
10
555.364834866013
20
2431.754248000000
30
0.0
11
815.364834866013
21
2431.754248000000
31
0.0
0
LINE
5
860
100
AcDbEntity
8
2-0
6
CONTINUOUS
62
5
100
AcDbLine
10
510.364834866013
20
2106.754248000000
30
0.0
11
860.364834866013
21
2106.754248000000
31
0.0
0
ARC
5
861
100
AcDbEntity
8
2-0
6
CONTINUOUS
62
5
100
AcDbCircle
10
510.364834866013
20
2111.754248000000
30
0.0
40
5.000000000000
100
AcDbArc
50
180.000000000000
51
270.000000000000
0
LINE
5
862
100
AcDbEntity
8
2-0
6
CONTINUOUS
62
5
100
AcDbLine
10
510.364834866013
20
2476.754248000000
30
0.0
11
860.364834866013
21
2476.754248000000
31
0.0
0
ARC
5
863
100
AcDbEntity
8
2-0
6
CONTINUOUS
62
5
100
AcDbCircle
10
510.364834866013
20
2471.754248000000
30
0.0
40
5.000000000000
100
AcDbArc
50
90.000000000000
51
180.000000000000
0
CIRCLE
5
864
100
AcDbEntity
8
2-0
6
CONTINUOUS
62
5
100
AcDbCircle
10
685.364834866013
20
2291.754248000000
30
0.0
40
22.500000000000
0
CIRCLE
5
865
100
AcDbEntity
8
2-0
6
CONTINUOUS
62
5
100
AcDbCircle
10
685.364834866013
20
2291.754248000000
30
0.0
40
35.000000000000
0
LINE
5
866
100
AcDbEntity
8
D-0
6
CONTINUOUS
62
0
100
AcDbLine
10
645.147755133987
20
2266.479032000000
30
0.0
11
623.980871133987
21
2253.176287000000
31
0.0
0
LINE
5
867
100
AcDbEntity
8
D-0
6
CONTINUOUS
62
0
100
AcDbLine
10
725.581914133987
20
2317.029463000000
30
0.0
11
817.103489133987
21
2374.547999000000
31
0.0
0
LINE
5
868
100
AcDbEntity
8
D-0
6
CONTINUOUS
62
0
100
AcDbLine
10
666.314639133987
20
2279.781777000000
30
0.0
11
704.415030133987
21
2303.726718000000
31
0.0
0
LINE
5
869
100
AcDbEntity
8
D-0
6
BYLAYER
62
0
100
AcDbLine
10
641.583298255232
20
2272.150677634084
30
0.0
11
666.314639410439
21
2279.781777246223
31
0.0
0
LINE
5
86a
100
AcDbEntity
8
D-0
6
BYLAYER
62
0
100
AcDbLine
10
666.314639410439
20
2279.781777246223
30
0.0
11
648.712212693088
21
2260.807386866401
31
0.0
0
LINE
5
86b
100
AcDbEntity
8
D-0
6
BYLAYER
62
0
100
AcDbLine
10
666.314639410439
20
2279.781777246223
30
0.0
11
645.147755474160
21
2266.479032250243
31
0.0
0
LINE
5
86c
100
AcDbEntity
8
D-0
6
BYLAYER
62
0
100
AcDbLine
10
729.146371650914
20
2311.357817851309
30
0.0
11
704.415030495785
21
2303.726718238918
31
0.0
0
LINE
5
86d
100
AcDbEntity
8
D-0
6
BYLAYER
62
0
100
AcDbLine
10
704.415030495785
20
2303.726718238918
30
0.0
11
722.017457212942
21
2322.701108618920
31
0.0
0
LINE
5
86e
100
AcDbEntity
8
D-0
6
BYLAYER
62
0
100
AcDbLine
10
704.415030495785
20
2303.726718238918
30
0.0
11
725.581914431928
21
2317.029463235114
31
0.0
0
TEXT
5
86f
100
AcDbEntity
8
D-0
62
0
100
AcDbText
10
753.077
20
2338.207
30
0.0
40
32.000
1
φ45
41
1.000
50
32.148
100
AcDbText
0
LINE
5
870
100
AcDbEntity
8
2-0
6
CONTINUOUS
62
5
100
AcDbLine
10
485.364834953112
20
1211.470503573209
30
0.0
11
885.364834953112
21
1211.470503573209
31
0.0
0
LINE
5
871
100
AcDbEntity
8
2-0
6
CONTINUOUS
62
5
100
AcDbLine
10
885.364834953112
20
1211.470503573209
30
0.0
11
885.364834953112
21
1356.470503573209
31
0.0
0
LINE
5
872
100
AcDbEntity
8
2-0
6
CONTINUOUS
62
5
100
AcDbLine
10
885.364834953112
20
1356.470503573209
30
0.0
11
485.364834953112
21
1356.470503573209
31
0.0
0
LINE
5
873
100
AcDbEntity
8
2-0
6
CONTINUOUS
62
5
100
AcDbLine
10
485.364834953112
20
1356.470503573209
30
0.0
11
485.364834953112
21
1211.470503573209
31
0.0
0
LINE
5
874
100
AcDbEntity
8
D-0
6
CONTINUOUS
62
0
100
AcDbLine
10
470.364835133987
20
2496.754248000000
30
0.0
11
324.651809133987
21
2496.754248000000
31
0.0
0
LINE
5
875
100
AcDbEntity
8
D-0
6
CONTINUOUS
62
0
100
AcDbLine
10
470.364835133987
20
2086.754248000000
30
0.0
11
324.651809133987
21
2086.754248000000
31
0.0
0
TEXT
5
876
100
AcDbEntity
8
D-0
62
0
100
AcDbText
10
321.352
20
2267.754
30
0.0
40
32.000
1
410
41
1.000
50
90.000
100
AcDbText
0
LINE
5
877
100
AcDbEntity
8
D-0
6
CONTINUOUS
62
0
100
AcDbLine
10
324.651809203179
20
2086.754247742570
30
0.0
11
324.651809203179
21
2496.754247742570
31
0.0
0
POINT
5
878
100
AcDbEntity
8
D-0
62
0
100
AcDbPoint
10
324.651809203179
20
2086.754247742570
30
0.0
0
POINT
5
879
100
AcDbEntity
8
D-0
62
0
100
AcDbPoint
10
324.651809203179
20
2496.754247742570
30
0.0
0
LINE
5
87a
100
AcDbEntity
8
D-0
6
CONTINUOUS
62
0
100
AcDbLine
10
485.364835133987
20
2511.754248000000
30
0.0
11
485.364835133987
21
2649.439772000000
31
0.0
0
LINE
5
87b
100
AcDbEntity
8
D-0
6
CONTINUOUS
62
0
100
AcDbLine
10
885.364835133987
20
2511.754248000000
30
0.0
11
885.364835133987
21
2649.439772000000
31
0.0
0
TEXT
5
87c
100
AcDbEntity
8
D-0
62
0
100
AcDbText
10
661.365
20
2652.740
30
0.0
40
32.000
1
400
41
1.000
50
0.000
100
AcDbText
0
LINE
5
87d
100
AcDbEntity
8
D-0
6
CONTINUOUS
62
0
100
AcDbLine
10
885.364834953111
20
2649.439772017305
30
0.0
11
485.364834953112
21
2649.439772017305
31
0.0
0
POINT
5
87e
100
AcDbEntity
8
D-0
62
0
100
AcDbPoint
10
885.364834953111
20
2649.439772017305
30
0.0
0
POINT
5
87f
100
AcDbEntity
8
D-0
62
0
100
AcDbPoint
10
485.364834953112
20
2649.439772017305
30
0.0
0
LINE
5
880
100
AcDbEntity
8
D-0
6
CONTINUOUS
62
0
100
AcDbLine
10
490.364835133987
20
2476.754248000000
30
0.0
11
375.295996133987
21
2476.754248000000
31
0.0
0
LINE
5
881
100
AcDbEntity
8
D-0
6
CONTINUOUS
62
0
100
AcDbLine
10
490.364835133987
20
2106.754248000000
30
0.0
11
375.295996133987
21
2106.754248000000
31
0.0
0
TEXT
5
882
100
AcDbEntity
8
D-0
62
0
100
AcDbText
10
371.996
20
2267.754
30
0.0
40
32.000
1
370
41
1.000
50
90.000
100
AcDbText
0
LINE
5
883
100
AcDbEntity
8
D-0
6
CONTINUOUS
62
0
100
AcDbLine
10
375.295996221505
20
2106.754247742570
30
0.0
11
375.295996221505
21
2476.754247742570
31
0.0
0
POINT
5
884
100
AcDbEntity
8
D-0
62
0
100
AcDbPoint
10
375.295996221505
20
2106.754247742570
30
0.0
0
POINT
5
885
100
AcDbEntity
8
D-0
62
0
100
AcDbPoint
10
375.295996221505
20
2476.754247742570
30
0.0
0
LINE
5
886
100
AcDbEntity
8
D-0
6
CONTINUOUS
62
0
100
AcDbLine
10
505.364835133987
20
2491.754248000000
30
0.0
11
505.364835133987
21
2586.106729000000
31
0.0
0
LINE
5
887
100
AcDbEntity
8
D-0
6
CONTINUOUS
62
0
100
AcDbLine
10
865.364835133987
20
2491.754248000000
30
0.0
11
865.364835133987
21
2586.106729000000
31
0.0
0
TEXT
5
888
100
AcDbEntity
8
D-0
62
0
100
AcDbText
10
661.365
20
2589.407
30
0.0
40
32.000
1
360
41
1.000
50
0.000
100
AcDbText
0
LINE
5
889
100
AcDbEntity
8
D-0
6
CONTINUOUS
62
0
100
AcDbLine
10
865.364834953112
20
2586.106729485572
30
0.0
11
505.364834953112
21
2586.106729485572
31
0.0
0
POINT
5
88a
100
AcDbEntity
8
D-0
62
0
100
AcDbPoint
10
865.364834953112
20
2586.106729485572
30
0.0
0
POINT
5
88b
100
AcDbEntity
8
D-0
62
0
100
AcDbPoint
10
505.364834953112
20
2586.106729485572
30
0.0
0
LINE
5
88c
100
AcDbEntity
8
2-0
6
DOT
62
5
100
AcDbLine
10
506.829300866013
20
2475.289782000000
30
0.0
11
551.829300866013
21
2430.289782000000
31
0.0
0
LINE
5
88d
100
AcDbEntity
8
2-0
6
DOT
62
5
100
AcDbLine
10
863.900368866014
20
2475.289782000000
30
0.0
11
818.900368866014
21
2430.289782000000
31
0.0
0
LINE
5
88e
100
AcDbEntity
8
2-0
6
DOT
62
5
100
AcDbLine
10
506.829300866013
20
2108.218714000000
30
0.0
11
551.829300866013
21
2153.218714000000
31
0.0
0
LINE
5
88f
100
AcDbEntity
8
2-0
6
DOT
62
5
100
AcDbLine
10
863.900368866014
20
2108.218714000000
30
0.0
11
818.900368866014
21
2153.218714000000
31
0.0
0
LINE
5
890
100
AcDbEntity
8
E-0
6
CENTER2
62
16
100
AcDbLine
10
1545.162804866014
20
1091.259127000000
30
0.0
11
1545.162804866014
21
1486.297127000000
31
0.0
0
LINE
5
891
100
AcDbEntity
8
2-0
6
CONTINUOUS
62
5
100
AcDbLine
10
1340.162804784327
20
1211.470503573209
30
0.0
11
1750.162804784327
21
1211.470503573209
31
0.0
0
LINE
5
892
100
AcDbEntity
8
2-0
6
CONTINUOUS
62
5
100
AcDbLine
10
1750.162804784327
20
1211.470503573209
30
0.0
11
1750.162804784327
21
1356.470503573209
31
0.0
0
LINE
5
893
100
AcDbEntity
8
2-0
6
CONTINUOUS
62
5
100
AcDbLine
10
1750.162804784327
20
1356.470503573209
30
0.0
11
1340.162804784327
21
1356.470503573209
31
0.0
0
LINE
5
894
100
AcDbEntity
8
2-0
6
CONTINUOUS
62
5
100
AcDbLine
10
1340.162804784327
20
1356.470503573209
30
0.0
11
1340.162804784327
21
1211.470503573209
31
0.0
0
LINE
5
895
100
AcDbEntity
8
D-0
6
CONTINUOUS
62
0
100
AcDbLine
10
485.364835133987
20
1376.470504000000
30
0.0
11
485.364835133987
21
1536.137664000000
31
0.0
0
LINE
5
896
100
AcDbEntity
8
D-0
6
CONTINUOUS
62
0
100
AcDbLine
10
885.364835133987
20
1376.470504000000
30
0.0
11
885.364835133987
21
1536.137664000000
31
0.0
0
TEXT
5
897
100
AcDbEntity
8
D-0
62
0
100
AcDbText
10
661.365
20
1539.438
30
0.0
40
32.000
1
400
41
1.000
50
0.000
100
AcDbText
0
LINE
5
898
100
AcDbEntity
8
D-0
6
CONTINUOUS
62
0
100
AcDbLine
10
885.364834953112
20
1536.137664123218
30
0.0
11
485.364834953112
21
1536.137664123218
31
0.0
0
POINT
5
899
100
AcDbEntity
8
D-0
62
0
100
AcDbPoint
10
885.364834953112
20
1536.137664123218
30
0.0
0
POINT
5
89a
100
AcDbEntity
8
D-0
62
0
100
AcDbPoint
10
485.364834953112
20
1536.137664123218
30
0.0
0
LINE
5
89b
100
AcDbEntity
8
D-0
6
CONTINUOUS
62
0
100
AcDbLine
10
905.364835133987
20
1356.470504000000
30
0.0
11
989.306840133987
21
1356.470504000000
31
0.0
0
LINE
5
89c
100
AcDbEntity
8
D-0
6
CONTINUOUS
62
0
100
AcDbLine
10
905.364835133987
20
1211.470504000000
30
0.0
11
989.306840133987
21
1211.470504000000
31
0.0
0
TEXT
5
89d
100
AcDbEntity
8
D-0
62
0
100
AcDbText
10
986.007
20
1259.971
30
0.0
40
32.000
1
145
41
1.000
50
90.000
100
AcDbText
0
LINE
5
89e
100
AcDbEntity
8
D-0
6
CONTINUOUS
62
0
100
AcDbLine
10
989.306840407890
20
1211.470503573209
30
0.0
11
989.306840407890
21
1356.470503573209
31
0.0
0
POINT
5
89f
100
AcDbEntity
8
D-0
62
0
100
AcDbPoint
10
989.306840407890
20
1211.470503573209
30
0.0
0
POINT
5
8a0
100
AcDbEntity
8
D-0
62
0
100
AcDbPoint
10
989.306840407890
20
1356.470503573209
30
0.0
0
LINE
5
8a1
100
AcDbEntity
8
D-0
6
CONTINUOUS
62
0
100
AcDbLine
10
1340.162805133987
20
1376.470504000000
30
0.0
11
1340.162805133987
21
1537.376475000000
31
0.0
0
LINE
5
8a2
100
AcDbEntity
8
D-0
6
CONTINUOUS
62
0
100
AcDbLine
10
1750.162805133987
20
1376.470504000000
30
0.0
11
1750.162805133987
21
1537.376475000000
31
0.0
0
TEXT
5
8a3
100
AcDbEntity
8
D-0
62
0
100
AcDbText
10
1521.163
20
1540.676
30
0.0
40
32.000
1
410
41
1.000
50
0.000
100
AcDbText
0
LINE
5
8a4
100
AcDbEntity
8
D-0
6
CONTINUOUS
62
0
100
AcDbLine
10
1750.162804784327
20
1537.376474558358
30
0.0
11
1340.162804784327
21
1537.376474558358
31
0.0
0
POINT
5
8a5
100
AcDbEntity
8
D-0
62
0
100
AcDbPoint
10
1750.162804784327
20
1537.376474558358
30
0.0
0
POINT
5
8a6
100
AcDbEntity
8
D-0
62
0
100
AcDbPoint
10
1340.162804784327
20
1537.376474558358
30
0.0
0
LINE
5
8a7
100
AcDbEntity
8
D-0
6
CONTINUOUS
62
0
100
AcDbLine
10
1770.162805133987
20
1356.470504000000
30
0.0
11
1854.104810133987
21
1356.470504000000
31
0.0
0
LINE
5
8a8
100
AcDbEntity
8
D-0
6
CONTINUOUS
62
0
100
AcDbLine
10
1770.162805133987
20
1211.470504000000
30
0.0
11
1854.104810133987
21
1211.470504000000
31
0.0
0
TEXT
5
8a9
100
AcDbEntity
8
D-0
62
0
100
AcDbText
10
1850.805
20
1259.971
30
0.0
40
32.000
1
145
41
1.000
50
90.000
100
AcDbText
0
LINE
5
8aa
100
AcDbEntity
8
D-0
6
CONTINUOUS
62
0
100
AcDbLine
10
1854.104810239105
20
1211.470503573209
30
0.0
11
1854.104810239105
21
1356.470503573209
31
0.0
0
POINT
5
8ab
100
AcDbEntity
8
D-0
62
0
100
AcDbPoint
10
1854.104810239105
20
1211.470503573209
30
0.0
0
POINT
5
8ac
100
AcDbEntity
8
D-0
62
0
100
AcDbPoint
10
1854.104810239105
20
1356.470503573209
30
0.0
0
TEXT
5
8ad
100
AcDbEntity
8
F-0
62
4
100
AcDbText
10
165.316
20
291.648
30
0.0
40
25.600
1
焼成による寸法誤差が生じることがありますので予めご了承下さい。
41
1.000
50
0.000
100
AcDbText
0
TEXT
5
8ae
100
AcDbEntity
8
F-0
62
4
100
AcDbText
10
934.155
20
119.056
30
0.0
40
51.200
1
TANK400
41
1.000
50
0.000
100
AcDbText
0
TEXT
5
8af
100
AcDbEntity
8
F-0
62
4
100
AcDbText
10
873.203
20
209.056
30
0.0
40
51.200
1
GIW-01901F
41
1.000
50
0.000
100
AcDbText
0
TEXT
5
8b0
100
AcDbEntity
8
F-0
62
4
100
AcDbText
10
164.861
20
373.185
30
0.0
40
25.600
1
重量：12Kg
41
1.000
50
0.000
100
AcDbText
0
ENDSEC
0
EOF
