  0
SECTION
  2
HEADER
  9
$ACADVER
  1
AC1009
  9
$INSBASE
 10
0
 20
0
 30
0
  9
$EXTMIN
 10
0
 20
0
  9
$EXTMAX
 10
1188
 20
840
  9
$LIMMIN
 10
0
 20
0
  9
$LIMMAX
 10
1188
 20
840
  9
$LTSCALE
 40
4
  0
ENDSEC
  0
SECTION
  2
TABLES
  0
TABLE
  2
LTYPE
 70
     9
  0
LTYPE
  2
CONTINUOUS
 70
    64
  3
実線
 72
    65
 73
     0
 40
0.0
  0
LTYPE
  2
DASHED1
 70
    64
  3
--  --  --  --  --  --  --  --  
 72
    65
 73
     2
 40
2.5
 49
1.25
 49
-1.25
  0
LTYPE
  2
DASHED2
 70
    64
  3
----    ----    ----    ----    
 72
    65
 73
     2
 40
5.0
 49
2.5
 49
-2.5
  0
LTYPE
  2
DASHED3
 70
    64
  3
------  ------  ------  ------  
 72
    65
 73
     2
 40
5.0
 49
3.75
 49
-1.25
  0
LTYPE
  2
CENTER1
 70
    64
  3
----- - ----- - ----- - ----- - 
 72
    65
 73
     4
 40
10.0
 49
6.25
 49
-1.25
 49
1.25
 49
-1.25
  0
LTYPE
  2
CENTER2
 70
    64
  3
----------  --  ----------  --  
 72
    65
 73
     4
 40
20.0
 49
12.5
 49
-2.5
 49
2.5
 49
-2.5
  0
LTYPE
  2
PHANTOM1
 70
    64
  3
--- - - --- - - --- - - --- - - 
 72
    65
 73
     6
 40
10.0
 49
3.25
 49
-1.25
 49
1.25
 49
-1.25
 49
1.25
 49
-1.25
  0
LTYPE
  2
PHANTOM2
 70
    64
  3
--------  -  -  --------  -  -  
 72
    65
 73
     6
 40
20.0
 49
10.0
 49
-2.5
 49
1.25
 49
-2.5
 49
1.25
 49
-2.5
  0
LTYPE
  2
DOT
 70
    64
  3
-   -   -   -   -   -   -   -   
 72
    65
 73
     2
 40
2.5
 49
0.625
 49
-1.875
  0
LTYPE
  2
DUMMY
 70
    64
  3
ダミー
 72
    65
 73
     0
 40
0.0
  0
LTYPE
  2
RAND1
 70
    64
  3
ランダム線1
 72
    65
 73
     4
 40
10.0
 49
1.0
 49
-2.0
 49
3.0
 49
-4.0
  0
LTYPE
  2
RAND2
 70
    64
  3
ランダム線2
 72
    65
 73
     4
 40
14.0
 49
2.0
 49
-3.0
 49
4.0
 49
-5.0
  0
LTYPE
  2
RAND3
 70
    64
  3
ランダム線3
 72
    65
 73
     4
 40
18.0
 49
3.0
 49
-4.0
 49
5.0
 49
-6.0
  0
LTYPE
  2
RAND4
 70
    64
  3
ランダム線4
 72
    65
 73
     4
 40
22.0
 49
4.0
 49
-5.0
 49
6.0
 49
-7.0
  0
LTYPE
  2
RAND5
 70
    64
  3
ランダム線5
 72
    65
 73
     4
 40
26.0
 49
5.0
 49
-6.0
 49
7.0
 49
-8.0
  0
LTYPE
  2
LONG1
 70
    64
  3
----------  --  ----------  --  
 72
    65
 73
     4
 40
40.0
 49
32.5
 49
-2.5
 49
2.5
 49
-2.5
  0
LTYPE
  2
LONG2
 70
    64
  3
--------  -  -  --------  -  -  
 72
    65
 73
     6
 40
40.0
 49
30.0
 49
-2.5
 49
1.25
 49
-2.5
 49
1.25
 49
-2.5
  0
LTYPE
  2
LONG3
 70
    64
  3
+++++++++++++++..+++++++++++++++
 72
    65
 73
     2
 40
40.0
 49
37.5
 49
-2.5
  0
LTYPE
  2
LONG4
 70
    64
  3
+++++++++++++++..+++++++++++++++
 72
    65
 73
     2
 40
80.0
 49
75.0
 49
-5.0
  0
LTYPE
  2
LONG5
 70
    64
  3
----------  --  ----------  --  
 72
    65
 73
     4
 40
60.0
 49
37.5
 49
-7.5
 49
7.5
 49
-7.5
  0
LTYPE
  2
dashed
 70
   64
  3
-------   -------------   ------
 72
   65
 73
    2
 40
7.5
 49
6
 49
-1.5
  0
LTYPE
  2
dashed_spaced
 70
   64
  3
----        --------        ----
 72
   65
 73
    2
 40
12
 49
6
 49
-6
  0
LTYPE
  2
long_dashed_dotted
 70
   64
  3
------------- --- --------------
 72
   65
 73
    4
 40
15.25
 49
12
 49
-1.5
 49
0.25
 49
-1.5
  0
LTYPE
  2
long_dashed_double-dotted
 70
   64
  3
----------- --- --- ------------
 72
   65
 73
    6
 40
17
 49
12
 49
-1.5
 49
0.25
 49
-1.5
 49
0.25
 49
-1.5
  0
LTYPE
  2
long_dashed_triplicate-dotted
 70
   64
  3
--------- --- --- --- ----------
 72
   65
 73
    8
 40
18.75
 49
12
 49
-1.5
 49
0.25
 49
-1.5
 49
0.25
 49
-1.5
 49
0.25
 49
-1.5
  0
LTYPE
  2
dotted
 70
   64
  3
   -       -       -       -    
 72
   65
 73
    2
 40
1.75
 49
0.25
 49
-1.5
  0
LTYPE
  2
chain
 70
   64
  3
-------------- -- --------------
 72
   65
 73
    4
 40
18.5
 49
12
 49
-1.5
 49
3.5
 49
-1.5
  0
LTYPE
  2
chain_double_dash
 70
   64
  3
------------ -- -- -------------
 72
   65
 73
    6
 40
23.5
 49
12
 49
-1.5
 49
3.5
 49
-1.5
 49
3.5
 49
-1.5
  0
LTYPE
  2
dashed_dotted
 70
   64
  3
-----------     -     ----------
 72
   65
 73
    4
 40
9.25
 49
6
 49
-1.5
 49
0.25
 49
-1.5
  0
LTYPE
  2
double-dashed_dotted
 70
   64
  3
------   -----------   -   -----
 72
   65
 73
    6
 40
16.75
 49
6
 49
-1.5
 49
6
 49
-1.5
 49
0.25
 49
-1.5
  0
LTYPE
  2
dashed_double-dotted
 70
   64
  3
---------    -    -    ---------
 72
   65
 73
    6
 40
11
 49
6
 49
-1.5
 49
0.25
 49
-1.5
 49
0.25
 49
-1.5
  0
LTYPE
  2
double-dashed_double-dotted
 70
   64
  3
-----   ---------   -   -   ----
 72
   65
 73
    8
 40
18.5
 49
6
 49
-1.5
 49
6
 49
-1.5
 49
0.25
 49
-1.5
 49
0.25
 49
-1.5
  0
LTYPE
  2
dashed_triplicate-dotted
 70
   64
  3
-------    -    -    -    ------
 72
   65
 73
    8
 40
12.75
 49
6
 49
-1.5
 49
0.25
 49
-1.5
 49
0.25
 49
-1.5
 49
0.25
 49
-1.5
  0
LTYPE
  2
double-dashed_triplicate-dotted
 70
   64
  3
-----  ---------  -  -  -  -----
 72
   65
 73
   10
 40
20.25
 49
6
 49
-1.5
 49
6
 49
-1.5
 49
0.25
 49
-1.5
 49
0.25
 49
-1.5
 49
0.25
 49
-1.5
  0
LTYPE
  2
undefined
 70
   64
  3
--------------------------------
 72
   65
 73
    0
 40
0
  0
ENDTAB
  0
TABLE
  2
STYLE
  5
3
100
AcDbSymbolTable
 70
     1
  0
STYLE
  5
10
100
AcDbSymbolTableRecord
100
AcDbTextStyleTableRecord
  2
STANDARD
 70
     0
 40
0.0
 41
1.0
 50
0.0
 71
     0
 42
0.2
  3
txt
  4
bigfont.shx
  0
STYLE
  5
26
100
AcDbSymbolTableRecord
100
AcDbTextStyleTableRecord
  2
TATEGAKI
 70
    68
 40
0.0
 41
1.0
 50
0.0
 71
     0
 42
1.0
  3
txt
  4
bigfont.shx
  0
ENDTAB
  0
TABLE
  2
LAYER
 70
    2
  0
LAYER
  2
_0-0_
 70
   64
 62
    7
  6
CONTINUOUS
  0
LAYER
  2
ADD_LINE
 70
   64
 62
    7
  6
CONTINUOUS
  0
ENDTAB
  0
ENDSEC
  0
SECTION
  2
BLOCKS
  0
BLOCK
  2
-000-_D0
 70
   64
 10
0
 20
0
 30
0
  0
TEXT
  8
_0-0_
 62
    7
 10
1113.2117167268
 20
281.81340789400002
 40
8
 41
1
 50
12.596679721900101
  1
10°
  0
LINE
  8
_0-0_
  6
CONTINUOUS
 62
    2
 10
1102.5931156692
 20
368.05944117000001
 11
1102.5931156692
 21
293.62176719280001
  0
LINE
  8
_0-0_
  6
CONTINUOUS
 62
    2
 10
1102.9404120244001
 20
368.08982566399999
 11
1115.8663784604
 21
294.78302721519998
  0
ARC
  8
_0-0_
  6
CONTINUOUS
 62
    2
 10
1102.5931156692
 20
370.05944117000001
 40
72.437673977200006
 50
269.20903341640002
 51
270
  0
ARC
  8
_0-0_
  6
CONTINUOUS
 62
    2
 10
1102.5931156692
 20
370.05944117000001
 40
72.437673977200006
 50
280
 51
282.59667972189999
  0
SOLID
  8
_0-0_
  6
CONTINUOUS
 62
    2
 10
1102.5931156692
 20
297.62176719280001
 11
1094.5280409567999
 21
296.66543572239999
 12
1094.6825780692
 22
299.4611678768
 13
1094.6825780692
 23
299.4611678768
  0
SOLID
  8
_0-0_
  6
CONTINUOUS
 62
    2
 10
1115.1717857496001
 20
298.72225822719997
 11
1122.6427359320001
 21
301.90736472039998
 12
1123.2803990724001
 22
299.1809411072
 13
1123.2803990724001
 23
299.1809411072
  0
ENDBLK
  0
BLOCK
  2
-001-_D1
 70
   64
 10
0
 20
0
 30
0
  0
TEXT
  8
_0-0_
 62
    7
 10
972.12616681320003
 20
577.53776269640002
 40
8
 41
1
 50
0
  1
80
  0
LINE
  8
_0-0_
  6
CONTINUOUS
 62
    2
 10
1025.3349462608001
 20
540.53003735959999
 11
1025.3349462608001
 21
579.53776269640002
  0
LINE
  8
_0-0_
  6
CONTINUOUS
 62
    2
 10
955.02294626080004
 20
550.35783175799997
 11
955.02294626080004
 21
579.53776269640002
  0
LINE
  8
_0-0_
  6
CONTINUOUS
 62
    2
 10
1025.3349462608001
 20
575.53776269640002
 11
990.17894626079999
 21
575.53776269640002
  0
LINE
  8
_0-0_
  6
CONTINUOUS
 62
    2
 10
955.02294626080004
 20
575.53776269640002
 11
990.17894626079999
 21
575.53776269640002
  0
SOLID
  8
_0-0_
  6
CONTINUOUS
 62
    2
 10
1017.3349462608001
 20
574.13776269640005
 11
1025.3349462608001
 21
575.53776269640002
 12
1017.3349462608001
 22
576.9377626964
 13
1017.3349462608001
 23
576.9377626964
  0
SOLID
  8
_0-0_
  6
CONTINUOUS
 62
    2
 10
963.02294626080004
 20
576.9377626964
 11
955.02294626080004
 21
575.53776269640002
 12
963.02294626080004
 22
574.13776269640005
 13
963.02294626080004
 23
574.13776269640005
  0
ENDBLK
  0
BLOCK
  2
-002-_D2
 70
   64
 10
0
 20
0
 30
0
  0
TEXT
  8
_0-0_
 62
    7
 10
678.09859453720003
 20
247.256428672
 40
8
 41
1
 50
90
  1
183
  0
LINE
  8
_0-0_
  6
CONTINUOUS
 62
    2
 10
623.96280688640002
 20
337.44525592799999
 11
684.09859453720003
 21
337.44525592799999
  0
LINE
  8
_0-0_
  6
CONTINUOUS
 62
    2
 10
547.40280688639996
 20
176.053255928
 11
684.09859453720003
 21
176.053255928
  0
LINE
  8
_0-0_
  6
CONTINUOUS
 62
    2
 10
680.09859453720003
 20
337.44525592799999
 11
680.09859453720003
 21
256.74925592800003
  0
LINE
  8
_0-0_
  6
CONTINUOUS
 62
    2
 10
680.09859453720003
 20
176.053255928
 11
680.09859453720003
 21
256.74925592800003
  0
SOLID
  8
_0-0_
  6
CONTINUOUS
 62
    2
 10
681.49859453720001
 20
329.44525592799999
 11
680.09859453720003
 21
337.44525592799999
 12
678.69859453720005
 22
329.44525592799999
 13
678.69859453720005
 23
329.44525592799999
  0
SOLID
  8
_0-0_
  6
CONTINUOUS
 62
    2
 10
678.69859453720005
 20
184.053255928
 11
680.09859453720003
 21
176.053255928
 12
681.49859453720001
 22
184.053255928
 13
681.49859453720001
 23
184.053255928
  0
ENDBLK
  0
BLOCK
  2
-003-_D3
 70
   64
 10
0
 20
0
 30
0
  0
TEXT
  8
_0-0_
 62
    7
 10
520.44637373160003
 20
408.11825027719999
 40
8
 41
1
 50
0
  1
213
  0
LINE
  8
_0-0_
  6
CONTINUOUS
 62
    2
 10
434.52280688640002
 20
339.44525592799999
 11
434.52280688640002
 21
410.11825027719999
  0
LINE
  8
_0-0_
  6
CONTINUOUS
 62
    2
 10
621.96280688640002
 20
339.44525592799999
 11
621.96280688640002
 21
410.11825027719999
  0
LINE
  8
_0-0_
  6
CONTINUOUS
 62
    2
 10
434.52280688640002
 20
406.11825027719999
 11
528.24280688639999
 21
406.11825027719999
  0
LINE
  8
_0-0_
  6
CONTINUOUS
 62
    2
 10
621.96280688640002
 20
406.11825027719999
 11
528.24280688639999
 21
406.11825027719999
  0
SOLID
  8
_0-0_
  6
CONTINUOUS
 62
    2
 10
442.52280688640002
 20
407.51825027720002
 11
434.52280688640002
 21
406.11825027719999
 12
442.52280688640002
 22
404.71825027720001
 13
442.52280688640002
 23
404.71825027720001
  0
SOLID
  8
_0-0_
  6
CONTINUOUS
 62
    2
 10
613.96280688640002
 20
404.71825027720001
 11
621.96280688640002
 21
406.11825027719999
 12
613.96280688640002
 22
407.51825027720002
 13
613.96280688640002
 23
407.51825027720002
  0
ENDBLK
  0
BLOCK
  2
-004-_D4
 70
   64
 10
0
 20
0
 30
0
  0
TEXT
  8
_0-0_
 62
    7
 10
506.19156792199999
 20
382.63694453239998
 40
8
 41
1
 50
0
  1
150
  0
TEXT
  8
_0-0_
 62
    7
 10
524.83840807039996
 20
382.63694453239998
 40
8
 41
1
 50
0
  1
±20
  0
LINE
  8
_0-0_
  6
CONTINUOUS
 62
    2
 10
603.04280688639994
 20
354.053255928
 11
603.04280688639994
 21
384.63694453239998
  0
LINE
  8
_0-0_
  6
CONTINUOUS
 62
    2
 10
453.44280688639998
 20
354.053255928
 11
453.44280688639998
 21
384.63694453239998
  0
LINE
  8
_0-0_
  6
CONTINUOUS
 62
    2
 10
603.04280688639994
 20
380.63694453239998
 11
528.24280688639999
 21
380.63694453239998
  0
LINE
  8
_0-0_
  6
CONTINUOUS
 62
    2
 10
453.44280688639998
 20
380.63694453239998
 11
528.24280688639999
 21
380.63694453239998
  0
SOLID
  8
_0-0_
  6
CONTINUOUS
 62
    2
 10
595.04280688639994
 20
379.2369445324
 11
603.04280688639994
 21
380.63694453239998
 12
595.04280688639994
 22
382.03694453240001
 13
595.04280688639994
 23
382.03694453240001
  0
SOLID
  8
_0-0_
  6
CONTINUOUS
 62
    2
 10
461.44280688639998
 20
382.03694453240001
 11
453.44280688639998
 21
380.63694453239998
 12
461.44280688639998
 22
379.2369445324
 13
461.44280688639998
 23
379.2369445324
  0
ENDBLK
  0
BLOCK
  2
-005-_D5
 70
   64
 10
0
 20
0
 30
0
  0
TEXT
  8
_0-0_
 62
    7
 10
521.52779126320002
 20
161.31009636639999
 40
8
 41
1
 50
0
  1
40
  0
LINE
  8
_0-0_
  6
CONTINUOUS
 62
    2
 10
545.84280688640001
 20
174.493255928
 11
545.84280688640001
 21
155.31009636639999
  0
LINE
  8
_0-0_
  6
CONTINUOUS
 62
    2
 10
510.64280688640002
 20
174.493255928
 11
510.64280688640002
 21
155.31009636639999
  0
LINE
  8
_0-0_
  6
CONTINUOUS
 62
    2
 10
545.84280688640001
 20
159.31009636639999
 11
528.24280688639999
 21
159.31009636639999
  0
LINE
  8
_0-0_
  6
CONTINUOUS
 62
    2
 10
510.64280688640002
 20
159.31009636639999
 11
528.24280688639999
 21
159.31009636639999
  0
SOLID
  8
_0-0_
  6
CONTINUOUS
 62
    2
 10
537.84280688640001
 20
157.91009636640001
 11
545.84280688640001
 21
159.31009636639999
 12
537.84280688640001
 22
160.71009636639999
 13
537.84280688640001
 23
160.71009636639999
  0
SOLID
  8
_0-0_
  6
CONTINUOUS
 62
    2
 10
518.64280688639997
 20
160.71009636639999
 11
510.64280688640002
 21
159.31009636639999
 12
518.64280688639997
 22
157.91009636640001
 13
518.64280688639997
 23
157.91009636640001
  0
ENDBLK
  0
BLOCK
  2
-006-_D6
 70
   64
 10
0
 20
0
 30
0
  0
TEXT
  8
_0-0_
 62
    7
 10
744.64198026760005
 20
239.36909557039999
 40
8
 41
1
 50
0
  1
79
  0
LINE
  8
_0-0_
  6
CONTINUOUS
 62
    2
 10
716.12280705880005
 20
278.50925605200001
 11
716.12280705880005
 21
233.36909557039999
  0
LINE
  8
_0-0_
  6
CONTINUOUS
 62
    2
 10
785.64280688639997
 20
265.48525592800002
 11
785.64280688639997
 21
233.36909557039999
  0
LINE
  8
_0-0_
  6
CONTINUOUS
 62
    2
 10
716.12280705880005
 20
237.36909557039999
 11
750.88280697239998
 21
237.36909557039999
  0
LINE
  8
_0-0_
  6
CONTINUOUS
 62
    2
 10
785.64280688639997
 20
237.36909557039999
 11
750.88280697239998
 21
237.36909557039999
  0
SOLID
  8
_0-0_
  6
CONTINUOUS
 62
    2
 10
724.12280705880005
 20
238.7690955704
 11
716.12280705880005
 21
237.36909557039999
 12
724.12280705880005
 22
235.96909557039999
 13
724.12280705880005
 23
235.96909557039999
  0
SOLID
  8
_0-0_
  6
CONTINUOUS
 62
    2
 10
777.64280688639997
 20
235.96909557039999
 11
785.64280688639997
 21
237.36909557039999
 12
777.64280688639997
 22
238.7690955704
 13
777.64280688639997
 23
238.7690955704
  0
ENDBLK
  0
BLOCK
  2
-007-_D7
 70
   64
 10
0
 20
0
 30
0
  0
TEXT
  8
_0-0_
 62
    7
 10
764.3478671524
 20
396.88276330679997
 40
8
 41
1
 50
0
  1
35
  0
LINE
  8
_0-0_
  6
CONTINUOUS
 62
    2
 10
754.84280688640001
 20
339.44525592799999
 11
754.84280688640001
 21
398.88276330679997
  0
LINE
  8
_0-0_
  6
CONTINUOUS
 62
    2
 10
785.64280688639997
 20
339.44525592799999
 11
785.64280688639997
 21
398.88276330679997
  0
LINE
  8
_0-0_
  6
CONTINUOUS
 62
    2
 10
754.84280688640001
 20
394.88276330679997
 11
753.84280688640001
 21
394.88276330679997
  0
LINE
  8
_0-0_
  6
CONTINUOUS
 62
    2
 10
753.84280688640001
 20
394.88276330679997
 11
770.24280688639999
 21
394.88276330679997
  0
LINE
  8
_0-0_
  6
CONTINUOUS
 62
    2
 10
785.64280688639997
 20
394.88276330679997
 11
786.64280688639997
 21
394.88276330679997
  0
LINE
  8
_0-0_
  6
CONTINUOUS
 62
    2
 10
786.64280688639997
 20
394.88276330679997
 11
770.24280688639999
 21
394.88276330679997
  0
SOLID
  8
_0-0_
  6
CONTINUOUS
 62
    2
 10
746.84280688640001
 20
393.4827633068
 11
754.84280688640001
 21
394.88276330679997
 12
746.84280688640001
 22
396.28276330680001
 13
746.84280688640001
 23
396.28276330680001
  0
SOLID
  8
_0-0_
  6
CONTINUOUS
 62
    2
 10
793.64280688639997
 20
396.28276330680001
 11
785.64280688639997
 21
394.88276330679997
 12
793.64280688639997
 22
393.4827633068
 13
793.64280688639997
 23
393.4827633068
  0
ENDBLK
  0
BLOCK
  2
-008-_D8
 70
   64
 10
0
 20
0
 30
0
  0
TEXT
  8
_0-0_
 62
    7
 10
385.26347289120002
 20
658.52793237440005
 40
8
 41
1
 50
90
  1
35
  0
LINE
  8
_0-0_
  6
CONTINUOUS
 62
    2
 10
415.36280688639999
 20
673.64771562400006
 11
383.26347289120002
 21
673.64771562400006
  0
LINE
  8
_0-0_
  6
CONTINUOUS
 62
    2
 10
415.36280688639999
 20
642.84771562399999
 11
383.26347289120002
 21
642.84771562399999
  0
LINE
  8
_0-0_
  6
CONTINUOUS
 62
    2
 10
387.26347289120002
 20
673.64771562400006
 11
387.26347289120002
 21
674.64771562400006
  0
LINE
  8
_0-0_
  6
CONTINUOUS
 62
    2
 10
387.26347289120002
 20
674.64771562400006
 11
387.26347289120002
 21
658.24771562399997
  0
LINE
  8
_0-0_
  6
CONTINUOUS
 62
    2
 10
387.26347289120002
 20
642.84771562399999
 11
387.26347289120002
 21
641.84771562399999
  0
LINE
  8
_0-0_
  6
CONTINUOUS
 62
    2
 10
387.26347289120002
 20
641.84771562399999
 11
387.26347289120002
 21
658.24771562399997
  0
SOLID
  8
_0-0_
  6
CONTINUOUS
 62
    2
 10
385.86347289119999
 20
681.64771562400006
 11
387.26347289120002
 21
673.64771562400006
 12
388.6634728912
 22
681.64771562400006
 13
388.6634728912
 23
681.64771562400006
  0
SOLID
  8
_0-0_
  6
CONTINUOUS
 62
    2
 10
388.6634728912
 20
634.84771562399999
 11
387.26347289120002
 21
642.84771562399999
 12
385.86347289119999
 22
634.84771562399999
 13
385.86347289119999
 23
634.84771562399999
  0
ENDBLK
  0
BLOCK
  2
-009-_D9
 70
   64
 10
0
 20
0
 30
0
  0
TEXT
  8
_0-0_
 62
    7
 10
516.44787313239999
 20
716.85424723359995
 40
8
 41
1
 50
0
  1
150
  0
LINE
  8
_0-0_
  6
CONTINUOUS
 62
    2
 10
462.24280688639999
 20
678.4367005524
 11
462.24280688639999
 21
718.85424723359995
  0
LINE
  8
_0-0_
  6
CONTINUOUS
 62
    2
 10
594.24280688639999
 20
678.4367005524
 11
594.24280688639999
 21
718.85424723359995
  0
LINE
  8
_0-0_
  6
CONTINUOUS
 62
    2
 10
462.24280688639999
 20
714.85424723359995
 11
528.24280688639999
 21
714.85424723359995
  0
LINE
  8
_0-0_
  6
CONTINUOUS
 62
    2
 10
594.24280688639999
 20
714.85424723359995
 11
528.24280688639999
 21
714.85424723359995
  0
SOLID
  8
_0-0_
  6
CONTINUOUS
 62
    2
 10
470.24280688639999
 20
716.25424723360004
 11
462.24280688639999
 21
714.85424723359995
 12
470.24280688639999
 22
713.45424723359997
 13
470.24280688639999
 23
713.45424723359997
  0
SOLID
  8
_0-0_
  6
CONTINUOUS
 62
    2
 10
586.24280688639999
 20
713.45424723359997
 11
594.24280688639999
 21
714.85424723359995
 12
586.24280688639999
 22
716.25424723360004
 13
586.24280688639999
 23
716.25424723360004
  0
ENDBLK
  0
BLOCK
  2
-010-_D10
 70
   64
 10
0
 20
0
 30
0
  0
TEXT
  8
_0-0_
 62
    7
 10
518.2305502424
 20
742.83039941159996
 40
8
 41
1
 50
0
  1
254
  0
LINE
  8
_0-0_
  6
CONTINUOUS
 62
    2
 10
417.36280688639999
 20
675.64771562400006
 11
417.36280688639999
 21
744.83039941159996
  0
LINE
  8
_0-0_
  6
CONTINUOUS
 62
    2
 10
640.61880688639997
 20
675.64771562400006
 11
640.61880688639997
 21
744.83039941159996
  0
LINE
  8
_0-0_
  6
CONTINUOUS
 62
    2
 10
417.36280688639999
 20
740.83039941159996
 11
528.99080688640004
 21
740.83039941159996
  0
LINE
  8
_0-0_
  6
CONTINUOUS
 62
    2
 10
640.61880688639997
 20
740.83039941159996
 11
528.99080688640004
 21
740.83039941159996
  0
SOLID
  8
_0-0_
  6
CONTINUOUS
 62
    2
 10
425.36280688639999
 20
742.23039941160005
 11
417.36280688639999
 21
740.83039941159996
 12
425.36280688639999
 22
739.43039941159998
 13
425.36280688639999
 23
739.43039941159998
  0
SOLID
  8
_0-0_
  6
CONTINUOUS
 62
    2
 10
632.61880688639997
 20
739.43039941159998
 11
640.61880688639997
 21
740.83039941159996
 12
632.61880688639997
 22
742.23039941160005
 13
632.61880688639997
 23
742.23039941160005
  0
ENDBLK
  0
BLOCK
  2
-011-_D11
 70
   64
 10
0
 20
0
 30
0
  0
TEXT
  8
_0-0_
 62
    7
 10
724.98547354840002
 20
795.09879431160005
 40
8
 41
1
 50
0
  1
35
  0
LINE
  8
_0-0_
  6
CONTINUOUS
 62
    2
 10
716.12280705880005
 20
775.52771562400005
 11
716.12280705880005
 21
797.09879431160005
  0
LINE
  8
_0-0_
  6
CONTINUOUS
 62
    2
 10
746.9228070588
 20
775.52771562400005
 11
746.9228070588
 21
797.09879431160005
  0
LINE
  8
_0-0_
  6
CONTINUOUS
 62
    2
 10
716.12280705880005
 20
793.09879431160005
 11
715.12280705880005
 21
793.09879431160005
  0
LINE
  8
_0-0_
  6
CONTINUOUS
 62
    2
 10
715.12280705880005
 20
793.09879431160005
 11
731.52280705880003
 21
793.09879431160005
  0
LINE
  8
_0-0_
  6
CONTINUOUS
 62
    2
 10
746.9228070588
 20
793.09879431160005
 11
747.9228070588
 21
793.09879431160005
  0
LINE
  8
_0-0_
  6
CONTINUOUS
 62
    2
 10
747.9228070588
 20
793.09879431160005
 11
731.52280705880003
 21
793.09879431160005
  0
SOLID
  8
_0-0_
  6
CONTINUOUS
 62
    2
 10
708.12280705880005
 20
791.69879431159995
 11
716.12280705880005
 21
793.09879431160005
 12
708.12280705880005
 22
794.49879431160002
 13
708.12280705880005
 23
794.49879431160002
  0
SOLID
  8
_0-0_
  6
CONTINUOUS
 62
    2
 10
754.9228070588
 20
794.49879431160002
 11
746.9228070588
 21
793.09879431160005
 12
754.9228070588
 22
791.69879431159995
 13
754.9228070588
 23
791.69879431159995
  0
ENDBLK
  0
BLOCK
  2
-012-_D12
 70
   64
 10
0
 20
0
 30
0
  0
TEXT
  8
_0-0_
 62
    7
 10
779.85515796039999
 20
680.7865179076
 40
8
 41
1
 50
90
  1
204
  0
LINE
  8
_0-0_
  6
CONTINUOUS
 62
    2
 10
748.65880705879999
 20
775.111715624
 11
785.85515796039999
 21
775.111715624
  0
LINE
  8
_0-0_
  6
CONTINUOUS
 62
    2
 10
748.48280705879995
 20
595.76771562399995
 11
785.85515796039999
 21
595.76771562399995
  0
LINE
  8
_0-0_
  6
CONTINUOUS
 62
    2
 10
781.85515796039999
 20
775.111715624
 11
781.85515796039999
 21
685.43971562399997
  0
LINE
  8
_0-0_
  6
CONTINUOUS
 62
    2
 10
781.85515796039999
 20
595.76771562399995
 11
781.85515796039999
 21
685.43971562399997
  0
SOLID
  8
_0-0_
  6
CONTINUOUS
 62
    2
 10
783.25515796039997
 20
767.111715624
 11
781.85515796039999
 21
775.111715624
 12
780.45515796040002
 22
767.111715624
 13
780.45515796040002
 23
767.111715624
  0
SOLID
  8
_0-0_
  6
CONTINUOUS
 62
    2
 10
780.45515796040002
 20
603.76771562399995
 11
781.85515796039999
 21
595.76771562399995
 12
783.25515796039997
 22
603.76771562399995
 13
783.25515796039997
 23
603.76771562399995
  0
ENDBLK
  0
BLOCK
  2
-013-_D13
 70
   64
 10
0
 20
0
 30
0
  0
TEXT
  8
_0-0_
 62
    7
 10
810.33362448360003
 20
541.56939496279995
 40
8
 41
1
 50
90
  1
15
  0
LINE
  8
_0-0_
  6
CONTINUOUS
 62
    2
 10
787.20280688640003
 20
563.64771562400006
 11
816.33362448360003
 21
563.64771562400006
  0
LINE
  8
_0-0_
  6
CONTINUOUS
 62
    2
 10
787.20280688640003
 20
576.84771562399999
 11
816.33362448360003
 21
576.84771562399999
  0
LINE
  8
_0-0_
  6
CONTINUOUS
 62
    2
 10
812.33362448360003
 20
563.64771562400006
 11
812.33362448360003
 21
541.56939496279995
  0
LINE
  8
_0-0_
  6
CONTINUOUS
 62
    2
 10
812.33362448360003
 20
541.56939496279995
 11
812.33362448360003
 21
570.24771562399997
  0
LINE
  8
_0-0_
  6
CONTINUOUS
 62
    2
 10
812.33362448360003
 20
576.84771562399999
 11
812.33362448360003
 21
577.84771562399999
  0
LINE
  8
_0-0_
  6
CONTINUOUS
 62
    2
 10
812.33362448360003
 20
577.84771562399999
 11
812.33362448360003
 21
570.24771562399997
  0
SOLID
  8
_0-0_
  6
CONTINUOUS
 62
    2
 10
813.73362448360001
 20
555.64771562400006
 11
812.33362448360003
 21
563.64771562400006
 12
810.93362448360006
 22
555.64771562400006
 13
810.93362448360006
 23
555.64771562400006
  0
SOLID
  8
_0-0_
  6
CONTINUOUS
 62
    2
 10
810.93362448360006
 20
584.84771562399999
 11
812.33362448360003
 21
576.84771562399999
 12
813.73362448360001
 22
584.84771562399999
 13
813.73362448360001
 23
584.84771562399999
  0
ENDBLK
  0
BLOCK
  2
-014-_D14
 70
   64
 10
0
 20
0
 30
0
  0
TEXT
  8
_0-0_
 62
    7
 10
835.38441888600005
 20
656.5707499852
 40
8
 41
1
 50
90
  1
240
  0
LINE
  8
_0-0_
  6
CONTINUOUS
 62
    2
 10
748.65880705879999
 20
775.111715624
 11
841.38441888600005
 21
775.111715624
  0
LINE
  8
_0-0_
  6
CONTINUOUS
 62
    2
 10
787.20280688640003
 20
563.64771562400006
 11
841.38441888600005
 21
563.64771562400006
  0
LINE
  8
_0-0_
  6
CONTINUOUS
 62
    2
 10
837.38441888600005
 20
775.111715624
 11
837.38441888600005
 21
669.37971562400003
  0
LINE
  8
_0-0_
  6
CONTINUOUS
 62
    2
 10
837.38441888600005
 20
563.64771562400006
 11
837.38441888600005
 21
669.37971562400003
  0
SOLID
  8
_0-0_
  6
CONTINUOUS
 62
    2
 10
838.78441888600003
 20
767.111715624
 11
837.38441888600005
 21
775.111715624
 12
835.98441888599996
 22
767.111715624
 13
835.98441888599996
 23
767.111715624
  0
SOLID
  8
_0-0_
  6
CONTINUOUS
 62
    2
 10
835.98441888599996
 20
571.64771562400006
 11
837.38441888600005
 21
563.64771562400006
 12
838.78441888600003
 22
571.64771562400006
 13
838.78441888600003
 23
571.64771562400006
  0
ENDBLK
  0
BLOCK
  2
-015-_D15
 70
   64
 10
0
 20
0
 30
0
  0
TEXT
  8
_0-0_
 62
    7
 10
976.15401163800004
 20
757.07544934559996
 40
8
 41
1
 50
0
  1
15
  0
LINE
  8
_0-0_
  6
CONTINUOUS
 62
    2
 10
1012.1349461364
 20
737.21003735960005
 11
1012.1349461364
 21
759.07544934559996
  0
LINE
  8
_0-0_
  6
CONTINUOUS
 62
    2
 10
998.93494613639996
 20
737.21003735960005
 11
998.93494613639996
 21
759.07544934559996
  0
LINE
  8
_0-0_
  6
CONTINUOUS
 62
    2
 10
1012.1349461364
 20
755.07544934559996
 11
1013.1349461364
 21
755.07544934559996
  0
LINE
  8
_0-0_
  6
CONTINUOUS
 62
    2
 10
1013.1349461364
 20
755.07544934559996
 11
1005.5349461364
 21
755.07544934559996
  0
LINE
  8
_0-0_
  6
CONTINUOUS
 62
    2
 10
998.93494613639996
 20
755.07544934559996
 11
976.15401163800004
 21
755.07544934559996
  0
LINE
  8
_0-0_
  6
CONTINUOUS
 62
    2
 10
976.15401163800004
 20
755.07544934559996
 11
1005.5349461364
 21
755.07544934559996
  0
SOLID
  8
_0-0_
  6
CONTINUOUS
 62
    2
 10
1020.1349461364
 20
756.47544934560005
 11
1012.1349461364
 21
755.07544934559996
 12
1020.1349461364
 22
753.67544934559999
 13
1020.1349461364
 23
753.67544934559999
  0
SOLID
  8
_0-0_
  6
CONTINUOUS
 62
    2
 10
990.93494613639996
 20
753.67544934559999
 11
998.93494613639996
 21
755.07544934559996
 12
990.93494613639996
 22
756.47544934560005
 13
990.93494613639996
 23
756.47544934560005
  0
ENDBLK
  0
BLOCK
  2
-016-_D16
 70
   64
 10
0
 20
0
 30
0
  0
TEXT
  8
_0-0_
 62
    7
 10
883.3569298136
 20
336.34597259959997
 40
8
 41
1
 50
90
  1
G 1/2"
  0
LINE
  8
_0-0_
  6
CONTINUOUS
 62
    2
 10
938.32694626080001
 20
395.3324662448
 11
881.3569298136
 21
395.3324662448
  0
LINE
  8
_0-0_
  6
CONTINUOUS
 62
    2
 10
938.32694626080001
 20
377.29246624479998
 11
881.3569298136
 21
377.29246624479998
  0
LINE
  8
_0-0_
  6
CONTINUOUS
 62
    2
 10
885.3569298136
 20
395.3324662448
 11
885.3569298136
 21
396.3324662448
  0
LINE
  8
_0-0_
  6
CONTINUOUS
 62
    2
 10
885.3569298136
 20
396.3324662448
 11
885.3569298136
 21
386.31246624480002
  0
LINE
  8
_0-0_
  6
CONTINUOUS
 62
    2
 10
885.3569298136
 20
377.29246624479998
 11
885.3569298136
 21
336.34597259959997
  0
LINE
  8
_0-0_
  6
CONTINUOUS
 62
    2
 10
885.3569298136
 20
336.34597259959997
 11
885.3569298136
 21
386.31246624480002
  0
SOLID
  8
_0-0_
  6
CONTINUOUS
 62
    2
 10
883.95692981360003
 20
403.3324662448
 11
885.3569298136
 21
395.3324662448
 12
886.75692981359998
 22
403.3324662448
 13
886.75692981359998
 23
403.3324662448
  0
SOLID
  8
_0-0_
  6
CONTINUOUS
 62
    2
 10
886.75692981359998
 20
369.29246624479998
 11
885.3569298136
 21
377.29246624479998
 12
883.95692981360003
 22
369.29246624479998
 13
883.95692981360003
 23
369.29246624479998
  0
ENDBLK
  0
BLOCK
  2
-017-_D17
 70
   64
 10
0
 20
0
 30
0
  0
TEXT
  8
_0-0_
 62
    7
 10
846.73300940520005
 20
373.61294535399998
 40
8
 41
1
 50
90
  1
φ
  0
TEXT
  8
_0-0_
 62
    7
 10
846.73300940520005
 20
384.27961202080002
 40
8
 41
1
 50
90
  1
63
  0
LINE
  8
_0-0_
  6
CONTINUOUS
 62
    2
 10
952.93494626079996
 20
414.03246624479999
 11
844.73300940520005
 21
414.03246624479999
  0
LINE
  8
_0-0_
  6
CONTINUOUS
 62
    2
 10
952.93494626079996
 20
358.59246624479999
 11
891.87899783160003
 21
358.59246624479999
  0
LINE
  8
_0-0_
  6
CONTINUOUS
 62
    2
 10
871.56024746799994
 20
358.59246624479999
 11
844.73300940520005
 21
358.59246624479999
  0
LINE
  8
_0-0_
  6
CONTINUOUS
 62
    2
 10
848.73300940520005
 20
414.03246624479999
 11
848.73300940520005
 21
386.31246624480002
  0
LINE
  8
_0-0_
  6
CONTINUOUS
 62
    2
 10
848.73300940520005
 20
358.59246624479999
 11
848.73300940520005
 21
386.31246624480002
  0
SOLID
  8
_0-0_
  6
CONTINUOUS
 62
    2
 10
850.13300940520003
 20
406.03246624479999
 11
848.73300940520005
 21
414.03246624479999
 12
847.33300940519996
 22
406.03246624479999
 13
847.33300940519996
 23
406.03246624479999
  0
SOLID
  8
_0-0_
  6
CONTINUOUS
 62
    2
 10
847.33300940519996
 20
366.59246624479999
 11
848.73300940520005
 21
358.59246624479999
 12
850.13300940520003
 22
366.59246624479999
 13
850.13300940520003
 23
366.59246624479999
  0
ENDBLK
  0
BLOCK
  2
-018-_D18
 70
   64
 10
0
 20
0
 30
0
  0
TEXT
  8
_0-0_
 62
    7
 10
1022.4080805752
 20
236.60710888240001
 40
8
 41
1
 50
0
  1
168
  0
LINE
  8
_0-0_
  6
CONTINUOUS
 62
    2
 10
954.93494626079996
 20
356.59246624479999
 11
954.93494626079996
 21
230.60710888240001
  0
LINE
  8
_0-0_
  6
CONTINUOUS
 62
    2
 10
1102.6811156691999
 20
368.05944117000001
 11
1102.6811156691999
 21
230.60710888240001
  0
LINE
  8
_0-0_
  6
CONTINUOUS
 62
    2
 10
954.93494626079996
 20
234.60710888240001
 11
1028.8080309648001
 21
234.60710888240001
  0
LINE
  8
_0-0_
  6
CONTINUOUS
 62
    2
 10
1102.6811156691999
 20
234.60710888240001
 11
1028.8080309648001
 21
234.60710888240001
  0
SOLID
  8
_0-0_
  6
CONTINUOUS
 62
    2
 10
962.93494626079996
 20
236.00710888239999
 11
954.93494626079996
 21
234.60710888240001
 12
962.93494626079996
 22
233.20710888240001
 13
962.93494626079996
 23
233.20710888240001
  0
SOLID
  8
_0-0_
  6
CONTINUOUS
 62
    2
 10
1094.6811156691999
 20
233.20710888240001
 11
1102.6811156691999
 21
234.60710888240001
 12
1094.6811156691999
 22
236.00710888239999
 13
1094.6811156691999
 23
236.00710888239999
  0
ENDBLK
  0
BLOCK
  2
-019-_D19
 70
   64
 10
0
 20
0
 30
0
  0
TEXT
  8
_0-0_
 62
    7
 10
1145.1957444167999
 20
380.41656216720003
 40
8
 41
1
 50
90
  1
20
  0
LINE
  8
_0-0_
  6
CONTINUOUS
 62
    2
 10
1117.8869462608
 20
377.51246624480001
 11
1151.1957444167999
 21
377.51246624480001
  0
LINE
  8
_0-0_
  6
CONTINUOUS
 62
    2
 10
1117.8869462608
 20
395.11246624479998
 11
1151.1957444167999
 21
395.11246624479998
  0
LINE
  8
_0-0_
  6
CONTINUOUS
 62
    2
 10
1147.1957444167999
 20
377.51246624480001
 11
1147.1957444167999
 21
376.51246624480001
  0
LINE
  8
_0-0_
  6
CONTINUOUS
 62
    2
 10
1147.1957444167999
 20
376.51246624480001
 11
1147.1957444167999
 21
386.31246624480002
  0
LINE
  8
_0-0_
  6
CONTINUOUS
 62
    2
 10
1147.1957444167999
 20
395.11246624479998
 11
1147.1957444167999
 21
396.11246624479998
  0
LINE
  8
_0-0_
  6
CONTINUOUS
 62
    2
 10
1147.1957444167999
 20
396.11246624479998
 11
1147.1957444167999
 21
386.31246624480002
  0
SOLID
  8
_0-0_
  6
CONTINUOUS
 62
    2
 10
1148.5957444168
 20
369.51246624480001
 11
1147.1957444167999
 21
377.51246624480001
 12
1145.7957444168001
 22
369.51246624480001
 13
1145.7957444168001
 23
369.51246624480001
  0
SOLID
  8
_0-0_
  6
CONTINUOUS
 62
    2
 10
1145.7957444168001
 20
403.11246624479998
 11
1147.1957444167999
 21
395.11246624479998
 12
1148.5957444168
 22
403.11246624479998
 13
1148.5957444168
 23
403.11246624479998
  0
ENDBLK
  0
ENDSEC
  0
SECTION
  2
ENTITIES
  0
LINE
  8
ADD_LINE
  6
DOT
 62
    7
 10
22
 20
20
 11
1166
 21
20
  0
LINE
  8
ADD_LINE
  6
DOT
 62
    7
 10
1166
 20
20
 11
1166
 21
820
  0
LINE
  8
ADD_LINE
  6
DOT
 62
    7
 10
1166
 20
820
 11
22
 21
820
  0
LINE
  8
ADD_LINE
  6
DOT
 62
    7
 10
22
 20
820
 11
22
 21
20
  0
LINE
  8
_0-0_
  6
CONTINUOUS
 62
    1
 10
42
 20
32
 11
1146
 21
32
  0
LINE
  8
_0-0_
  6
CONTINUOUS
 62
    1
 10
1146
 20
32
 11
1146
 21
808
  0
LINE
  8
_0-0_
  6
CONTINUOUS
 62
    1
 10
1146
 20
808
 11
42
 21
808
  0
LINE
  8
_0-0_
  6
CONTINUOUS
 62
    1
 10
42
 20
808
 11
42
 21
32
  0
LINE
  8
_0-0_
  6
CONTINUOUS
 62
    1
 10
886
 20
103.99999999279993
 11
886
 21
32
  0
LINE
  8
_0-0_
  6
CONTINUOUS
 62
    1
 10
1146
 20
103.99999999279964
 11
376.21377219623469
 21
103.99999999279964
  0
LINE
  8
_0-0_
  6
CONTINUOUS
 62
    7
 10
422.75153672040835
 20
45.92371528860042
 11
439.56693592920044
 21
45.92371528860042
  0
LINE
  8
_0-0_
  6
CONTINUOUS
 62
    7
 10
439.56693592920044
 20
45.92371528860042
 11
439.56693592920044
 21
62.762792131568062
  0
LINE
  8
_0-0_
  6
CONTINUOUS
 62
    7
 10
422.75153672040835
 20
62.762792131568062
 11
422.75153672040835
 21
45.92371528860042
  0
LINE
  8
_0-0_
  6
CONTINUOUS
 62
    7
 10
439.56693592920044
 20
62.762792131568062
 11
422.75153672040835
 21
62.762792131568062
  0
LINE
  8
_0-0_
  6
CONTINUOUS
 62
    7
 10
441.4722245790341
 20
68.253959184063774
 11
450.07222457903401
 21
83.149596129155725
  0
LINE
  8
_0-0_
  6
CONTINUOUS
 62
    7
 10
441.4722245790341
 20
68.253959184063774
 11
458.67222457903415
 21
68.253959184063774
  0
LINE
  8
_0-0_
  6
CONTINUOUS
 62
    7
 10
450.07222457903401
 20
83.149596129155725
 11
458.67222457903415
 21
68.253959184063774
  0
CIRCLE
  8
_0-0_
  6
CONTINUOUS
 62
    7
 10
463.60330241971371
 20
86.332676041176342
 40
5.9034863340649535
  0
LINE
  8
_0-0_
  6
CONTINUOUS
 62
    2
 10
475.47048600951609
 20
54.709715937318038
 11
482.71954588489791
 21
54.709715937318038
  0
LINE
  8
_0-0_
  6
CONTINUOUS
 62
    2
 10
484.58477651751798
 20
50.709715937318265
 11
487.00957633992414
 21
45.509715937317992
  0
LINE
  8
_0-0_
  6
CONTINUOUS
 62
    2
 10
473.60525537689603
 20
50.709715937318265
 11
471.18045555449009
 21
45.509715937317992
  0
LINE
  8
_0-0_
  6
CONTINUOUS
 62
    2
 10
479.09501594720712
 20
62.482545472290553
 11
482.71954588489791
 21
54.709715937318038
  0
LINE
  8
_0-0_
  6
CONTINUOUS
 62
    2
 10
479.09501594720712
 20
62.482545472290553
 11
475.47048600951609
 21
54.709715937318038
  0
LINE
  8
_0-0_
  6
CONTINUOUS
 62
    2
 10
476.71509668274678
 20
68.530228126051156
 11
465.98045555449005
 21
45.509715937317992
  0
LINE
  8
_0-0_
  6
CONTINUOUS
 62
    2
 10
508.08658783912745
 20
64.530228126051156
 11
508.38584387214087
 21
64.366001147013208
  0
LINE
  8
_0-0_
  6
CONTINUOUS
 62
    2
 10
508.38584387214087
 20
64.366001147013208
 11
508.89622968333288
 21
64.079083016021173
  0
LINE
  8
_0-0_
  6
CONTINUOUS
 62
    2
 10
508.89622968333288
 20
64.079083016021173
 11
509.3911353100317
 21
63.7816977540989
  0
LINE
  8
_0-0_
  6
CONTINUOUS
 62
    2
 10
509.3911353100317
 20
63.7816977540989
 11
509.86076316711444
 21
63.467220594836931
  0
LINE
  8
_0-0_
  6
CONTINUOUS
 62
    2
 10
509.86076316711444
 20
63.467220594836931
 11
510.29531566945911
 21
63.129026771823305
  0
LINE
  8
_0-0_
  6
CONTINUOUS
 62
    2
 10
510.29531566945911
 20
63.129026771823305
 11
510.68499523194339
 21
62.760491518647655
  0
LINE
  8
_0-0_
  6
CONTINUOUS
 62
    2
 10
510.68499523194339
 20
62.760491518647655
 11
510.88658783912751
 21
62.530228126051156
  0
LINE
  8
_0-0_
  6
CONTINUOUS
 62
    2
 10
510.88658783912751
 20
62.530228126051156
 11
511.17438238805937
 21
62.124090006952997
  0
LINE
  8
_0-0_
  6
CONTINUOUS
 62
    2
 10
511.17438238805937
 20
62.124090006952997
 11
511.5562046710819
 21
61.347378208890518
  0
LINE
  8
_0-0_
  6
CONTINUOUS
 62
    2
 10
511.5562046710819
 20
61.347378208890518
 11
511.81395176461967
 21
60.48916758112739
  0
LINE
  8
_0-0_
  6
CONTINUOUS
 62
    2
 10
511.81395176461967
 20
60.48916758112739
 11
511.9716975801291
 21
59.567252627963967
  0
LINE
  8
_0-0_
  6
CONTINUOUS
 62
    2
 10
511.9716975801291
 20
59.567252627963967
 11
512.05351602906649
 21
58.599427853703105
  0
LINE
  8
_0-0_
  6
CONTINUOUS
 62
    2
 10
512.05351602906649
 20
58.599427853703105
 11
512.08348102288801
 21
57.603487762645386
  0
LINE
  8
_0-0_
  6
CONTINUOUS
 62
    2
 10
512.08348102288801
 20
57.603487762645386
 11
512.08658783912745
 21
57.019972031684688
  0
LINE
  8
_0-0_
  6
CONTINUOUS
 62
    2
 10
512.08658783912745
 20
57.019972031684688
 11
512.08348102288801
 21
56.436456300724217
  0
LINE
  8
_0-0_
  6
CONTINUOUS
 62
    2
 10
512.08348102288801
 20
56.436456300724217
 11
512.05351602906649
 21
55.440516209666498
  0
LINE
  8
_0-0_
  6
CONTINUOUS
 62
    2
 10
512.05351602906649
 20
55.440516209666498
 11
511.9716975801291
 21
54.472691435405864
  0
LINE
  8
_0-0_
  6
CONTINUOUS
 62
    2
 10
511.9716975801291
 20
54.472691435405864
 11
511.81395176461967
 21
53.550776482242441
  0
LINE
  8
_0-0_
  6
CONTINUOUS
 62
    2
 10
511.81395176461967
 20
53.550776482242441
 11
511.5562046710819
 21
52.69256585447863
  0
LINE
  8
_0-0_
  6
CONTINUOUS
 62
    2
 10
511.5562046710819
 20
52.69256585447863
 11
511.17438238805937
 21
51.915854056416379
  0
LINE
  8
_0-0_
  6
CONTINUOUS
 62
    2
 10
511.17438238805937
 20
51.915854056416379
 11
510.88658783912751
 21
51.509715937317992
  0
LINE
  8
_0-0_
  6
CONTINUOUS
 62
    2
 10
510.88658783912751
 20
51.509715937317992
 11
510.68499523194339
 21
51.279452544722176
  0
LINE
  8
_0-0_
  6
CONTINUOUS
 62
    2
 10
510.68499523194339
 20
51.279452544722176
 11
510.29531566945911
 21
50.910917291546525
  0
LINE
  8
_0-0_
  6
CONTINUOUS
 62
    2
 10
510.29531566945911
 20
50.910917291546525
 11
509.86076316711444
 21
50.572723468532445
  0
LINE
  8
_0-0_
  6
CONTINUOUS
 62
    2
 10
509.86076316711444
 20
50.572723468532445
 11
509.3911353100317
 21
50.258246309270476
  0
LINE
  8
_0-0_
  6
CONTINUOUS
 62
    2
 10
509.3911353100317
 20
50.258246309270476
 11
508.89622968333288
 21
49.96086104734843
  0
LINE
  8
_0-0_
  6
CONTINUOUS
 62
    2
 10
508.89622968333288
 20
49.96086104734843
 11
508.38584387214087
 21
49.673942916355713
  0
LINE
  8
_0-0_
  6
CONTINUOUS
 62
    2
 10
508.38584387214087
 20
49.673942916355713
 11
508.08658783912745
 21
49.509715937317992
  0
LINE
  8
_0-0_
  6
CONTINUOUS
 62
    2
 10
508.08658783912745
 20
45.509715937317992
 11
508.3485427452249
 21
45.577531157137059
  0
LINE
  8
_0-0_
  6
CONTINUOUS
 62
    2
 10
508.3485427452249
 20
45.577531157137059
 11
508.80045220706472
 21
45.695628839901133
  0
LINE
  8
_0-0_
  6
CONTINUOUS
 62
    2
 10
508.80045220706472
 20
45.695628839901133
 11
509.25309242450612
 21
45.816990105925129
  0
LINE
  8
_0-0_
  6
CONTINUOUS
 62
    2
 10
509.25309242450612
 20
45.816990105925129
 11
509.70692590109411
 21
45.943680514233051
  0
LINE
  8
_0-0_
  6
CONTINUOUS
 62
    2
 10
509.70692590109411
 20
45.943680514233051
 11
510.16241514037392
 21
46.07776562384845
  0
LINE
  8
_0-0_
  6
CONTINUOUS
 62
    2
 10
510.16241514037392
 20
46.07776562384845
 11
510.6200226458908
 21
46.221310993798056
  0
LINE
  8
_0-0_
  6
CONTINUOUS
 62
    2
 10
510.6200226458908
 20
46.221310993798056
 11
510.88658783912751
 21
46.309715937317947
  0
LINE
  8
_0-0_
  6
CONTINUOUS
 62
    2
 10
510.88658783912751
 20
46.309715937317947
 11
511.4166047963007
 21
46.497646870040512
  0
LINE
  8
_0-0_
  6
CONTINUOUS
 62
    2
 10
511.4166047963007
 20
46.497646870040512
 11
512.32421516068985
 21
46.86620904321228
  0
LINE
  8
_0-0_
  6
CONTINUOUS
 62
    2
 10
512.32421516068985
 20
46.86620904321228
 11
513.20121487423228
 21
47.298857986957614
  0
LINE
  8
_0-0_
  6
CONTINUOUS
 62
    2
 10
513.20121487423228
 20
47.298857986957614
 11
514.02115348269638
 21
47.804550464748786
  0
LINE
  8
_0-0_
  6
CONTINUOUS
 62
    2
 10
514.02115348269638
 20
47.804550464748786
 11
514.75758053185109
 21
48.392243240058519
  0
LINE
  8
_0-0_
  6
CONTINUOUS
 62
    2
 10
514.75758053185109
 20
48.392243240058519
 11
515.38404556746593
 21
49.070893076358402
  0
LINE
  8
_0-0_
  6
CONTINUOUS
 62
    2
 10
515.38404556746593
 20
49.070893076358402
 11
515.68658783912736
 21
49.509715937317992
  0
LINE
  8
_0-0_
  6
CONTINUOUS
 62
    2
 10
515.68658783912736
 20
49.509715937317992
 11
515.78686984211492
 21
49.682454429409631
  0
LINE
  8
_0-0_
  6
CONTINUOUS
 62
    2
 10
515.78686984211492
 20
49.682454429409631
 11
515.94450702801487
 21
49.990582862757151
  0
LINE
  8
_0-0_
  6
CONTINUOUS
 62
    2
 10
515.94450702801487
 20
49.990582862757151
 11
516.08501951605467
 21
50.309827894577552
  0
LINE
  8
_0-0_
  6
CONTINUOUS
 62
    2
 10
516.08501951605467
 20
50.309827894577552
 11
516.210960011476
 21
50.637950292919072
  0
LINE
  8
_0-0_
  6
CONTINUOUS
 62
    2
 10
516.210960011476
 20
50.637950292919072
 11
516.32488121951997
 21
50.972710825830632
  0
LINE
  8
_0-0_
  6
CONTINUOUS
 62
    2
 10
516.32488121951997
 20
50.972710825830632
 11
516.4293358454288
 21
51.311870261360241
  0
LINE
  8
_0-0_
  6
CONTINUOUS
 62
    2
 10
516.4293358454288
 20
51.311870261360241
 11
516.48658783912742
 21
51.509715937317992
  0
LINE
  8
_0-0_
  6
CONTINUOUS
 62
    2
 10
516.48658783912742
 20
51.509715937317992
 11
516.62584849888742
 21
52.022625261978305
  0
LINE
  8
_0-0_
  6
CONTINUOUS
 62
    2
 10
516.62584849888742
 20
52.022625261978305
 11
516.83646135169556
 21
52.910964883552083
  0
LINE
  8
_0-0_
  6
CONTINUOUS
 62
    2
 10
516.83646135169556
 20
52.910964883552083
 11
517.00851528442547
 21
53.803581416619977
  0
LINE
  8
_0-0_
  6
CONTINUOUS
 62
    2
 10
517.00851528442547
 20
53.803581416619977
 11
517.14058284067653
 21
54.699541037711583
  0
LINE
  8
_0-0_
  6
CONTINUOUS
 62
    2
 10
517.14058284067653
 20
54.699541037711583
 11
517.23123656405016
 21
55.597909923356497
  0
LINE
  8
_0-0_
  6
CONTINUOUS
 62
    2
 10
517.23123656405016
 20
55.597909923356497
 11
517.27904899814723
 21
56.49775425008454
  0
LINE
  8
_0-0_
  6
CONTINUOUS
 62
    2
 10
517.27904899814723
 20
56.49775425008454
 11
517.28658783912738
 21
57.019972031684688
  0
LINE
  8
_0-0_
  6
CONTINUOUS
 62
    2
 10
517.28658783912738
 20
57.019972031684688
 11
517.27904899814723
 21
57.542189813285063
  0
LINE
  8
_0-0_
  6
CONTINUOUS
 62
    2
 10
517.27904899814723
 20
57.542189813285063
 11
517.23123656405016
 21
58.442034140012879
  0
LINE
  8
_0-0_
  6
CONTINUOUS
 62
    2
 10
517.23123656405016
 20
58.442034140012879
 11
517.14058284067653
 21
59.340403025657338
  0
LINE
  8
_0-0_
  6
CONTINUOUS
 62
    2
 10
517.14058284067653
 20
59.340403025657338
 11
517.00851528442547
 21
60.236362646748944
  0
LINE
  8
_0-0_
  6
CONTINUOUS
 62
    2
 10
517.00851528442547
 20
60.236362646748944
 11
516.83646135169556
 21
61.128979179817293
  0
LINE
  8
_0-0_
  6
CONTINUOUS
 62
    2
 10
516.83646135169556
 20
61.128979179817293
 11
516.62584849888742
 21
62.017318801390843
  0
LINE
  8
_0-0_
  6
CONTINUOUS
 62
    2
 10
516.62584849888742
 20
62.017318801390843
 11
516.48658783912742
 21
62.530228126051156
  0
LINE
  8
_0-0_
  6
CONTINUOUS
 62
    2
 10
516.48658783912742
 20
62.530228126051156
 11
516.4293358454288
 21
62.728073802009135
  0
LINE
  8
_0-0_
  6
CONTINUOUS
 62
    2
 10
516.4293358454288
 20
62.728073802009135
 11
516.32488121951997
 21
63.067233237538289
  0
LINE
  8
_0-0_
  6
CONTINUOUS
 62
    2
 10
516.32488121951997
 20
63.067233237538289
 11
516.210960011476
 21
63.401993770449849
  0
LINE
  8
_0-0_
  6
CONTINUOUS
 62
    2
 10
516.210960011476
 20
63.401993770449849
 11
516.08501951605467
 21
63.730116168792051
  0
LINE
  8
_0-0_
  6
CONTINUOUS
 62
    2
 10
516.08501951605467
 20
63.730116168792051
 11
515.94450702801487
 21
64.049361200612225
  0
LINE
  8
_0-0_
  6
CONTINUOUS
 62
    2
 10
515.94450702801487
 20
64.049361200612225
 11
515.78686984211492
 21
64.35748963395929
  0
LINE
  8
_0-0_
  6
CONTINUOUS
 62
    2
 10
515.78686984211492
 20
64.35748963395929
 11
515.68658783912736
 21
64.530228126051156
  0
LINE
  8
_0-0_
  6
CONTINUOUS
 62
    2
 10
515.68658783912736
 20
64.530228126051156
 11
515.38404556746593
 21
64.969050987011201
  0
LINE
  8
_0-0_
  6
CONTINUOUS
 62
    2
 10
515.38404556746593
 20
64.969050987011201
 11
514.75758053185109
 21
65.647700823311084
  0
LINE
  8
_0-0_
  6
CONTINUOUS
 62
    2
 10
514.75758053185109
 20
65.647700823311084
 11
514.02115348269638
 21
66.235393598620362
  0
LINE
  8
_0-0_
  6
CONTINUOUS
 62
    2
 10
514.02115348269638
 20
66.235393598620362
 11
513.20121487423228
 21
66.741086076411307
  0
LINE
  8
_0-0_
  6
CONTINUOUS
 62
    2
 10
513.20121487423228
 20
66.741086076411307
 11
512.32421516068985
 21
67.173735020156869
  0
LINE
  8
_0-0_
  6
CONTINUOUS
 62
    2
 10
512.32421516068985
 20
67.173735020156869
 11
511.4166047963007
 21
67.542297193328636
  0
LINE
  8
_0-0_
  6
CONTINUOUS
 62
    2
 10
511.4166047963007
 20
67.542297193328636
 11
510.88658783912751
 21
67.730228126051202
  0
LINE
  8
_0-0_
  6
CONTINUOUS
 62
    2
 10
510.88658783912751
 20
67.730228126051202
 11
510.6200226458908
 21
67.818633069570865
  0
LINE
  8
_0-0_
  6
CONTINUOUS
 62
    2
 10
510.6200226458908
 20
67.818633069570865
 11
510.16241514037392
 21
67.962178439520926
  0
LINE
  8
_0-0_
  6
CONTINUOUS
 62
    2
 10
510.16241514037392
 20
67.962178439520926
 11
509.70692590109411
 21
68.096263549136779
  0
LINE
  8
_0-0_
  6
CONTINUOUS
 62
    2
 10
509.70692590109411
 20
68.096263549136779
 11
509.25309242450612
 21
68.22295395744402
  0
LINE
  8
_0-0_
  6
CONTINUOUS
 62
    2
 10
509.25309242450612
 20
68.22295395744402
 11
508.80045220706472
 21
68.344315223467788
  0
LINE
  8
_0-0_
  6
CONTINUOUS
 62
    2
 10
508.80045220706472
 20
68.344315223467788
 11
508.3485427452249
 21
68.462412906231862
  0
LINE
  8
_0-0_
  6
CONTINUOUS
 62
    2
 10
508.3485427452249
 20
68.462412906231862
 11
508.08658783912745
 21
68.530228126051156
  0
LINE
  8
_0-0_
  6
CONTINUOUS
 62
    2
 10
522.48658783912754
 20
68.530228126051156
 11
530.62122896738413
 21
51.085433930642807
  0
LINE
  8
_0-0_
  6
CONTINUOUS
 62
    2
 10
538.75587009564094
 20
68.530228126051156
 11
530.62122896738413
 21
51.085433930642807
  0
LINE
  8
_0-0_
  6
CONTINUOUS
 62
    2
 10
517.28658783912738
 20
68.530228126051156
 11
528.02122896738422
 21
45.509715937317992
  0
LINE
  8
_0-0_
  6
CONTINUOUS
 62
    2
 10
533.22122896738426
 20
45.509715937317992
 11
543.95587009564088
 21
68.530228126051156
  0
LINE
  8
_0-0_
  6
CONTINUOUS
 62
    2
 10
547.95587009564099
 20
68.530228126051156
 11
537.22122896738415
 21
45.509715937317992
  0
LINE
  8
_0-0_
  6
CONTINUOUS
 62
    2
 10
553.29760593742867
 20
68.530228126051156
 11
564.03224706568528
 21
45.509715937317992
  0
LINE
  8
_0-0_
  6
CONTINUOUS
 62
    2
 10
473.60525537689603
 20
50.709715937318265
 11
484.58477651751798
 21
50.709715937318265
  0
LINE
  8
_0-0_
  6
CONTINUOUS
 62
    2
 10
544.84602878979024
 20
50.709715937318265
 11
556.40744724327953
 21
50.709715937318265
  0
LINE
  8
_0-0_
  6
CONTINUOUS
 62
    2
 10
546.71125942241031
 20
54.709715937318038
 11
554.54221661065935
 21
54.709715937318038
  0
LINE
  8
_0-0_
  6
CONTINUOUS
 62
    2
 10
571.53844091121732
 20
64.530228126051156
 11
583.42377603557463
 21
45.509715937317992
  0
LINE
  8
_0-0_
  6
CONTINUOUS
 62
    2
 10
585.85347842171666
 20
49.924530938601379
 11
585.85347842171666
 21
68.530228126051156
  0
LINE
  8
_0-0_
  6
CONTINUOUS
 62
    2
 10
590.25347842171675
 20
45.509715937317992
 11
590.25347842171675
 21
68.530228126051156
  0
LINE
  8
_0-0_
  6
CONTINUOUS
 62
    2
 10
574.22734847837353
 20
68.530228126051156
 11
585.85347842171666
 21
49.924530938601379
  0
LINE
  8
_0-0_
  6
CONTINUOUS
 62
    2
 10
566.33844091121739
 20
68.530228126051156
 11
566.33844091121739
 21
45.509715937317992
  0
LINE
  8
_0-0_
  6
CONTINUOUS
 62
    2
 10
508.08658783912745
 20
64.530228126051156
 11
500.08658783912745
 21
64.530228126051156
  0
LINE
  8
_0-0_
  6
CONTINUOUS
 62
    2
 10
500.08658783912745
 20
49.509715937317992
 11
508.08658783912745
 21
49.509715937317992
  0
LINE
  8
_0-0_
  6
CONTINUOUS
 62
    2
 10
554.54221661065935
 20
54.709715937318038
 11
550.62673801653477
 21
63.106486879525505
  0
LINE
  8
_0-0_
  6
CONTINUOUS
 62
    2
 10
546.71125942241031
 20
54.709715937318038
 11
550.62673801653477
 21
63.106486879525505
  0
LINE
  8
_0-0_
  6
CONTINUOUS
 62
    2
 10
542.42122896738431
 20
45.509715937317992
 11
544.84602878979024
 21
50.709715937318265
  0
LINE
  8
_0-0_
  6
CONTINUOUS
 62
    2
 10
558.83224706568546
 20
45.509715937317992
 11
556.40744724327953
 21
50.709715937318265
  0
LINE
  8
_0-0_
  6
CONTINUOUS
 62
    2
 10
571.53844091121732
 20
64.530228126051156
 11
571.53844091121732
 21
45.509715937317992
  0
LINE
  8
_0-0_
  6
CONTINUOUS
 62
    2
 10
465.98045555449005
 20
45.509715937317992
 11
471.18045555449009
 21
45.509715937317992
  0
LINE
  8
_0-0_
  6
CONTINUOUS
 62
    2
 10
487.00957633992414
 20
45.509715937317992
 11
492.20957633992396
 21
45.509715937317992
  0
LINE
  8
_0-0_
  6
CONTINUOUS
 62
    2
 10
481.47493521166746
 20
68.530228126051156
 11
492.20957633992396
 21
45.509715937317992
  0
LINE
  8
_0-0_
  6
CONTINUOUS
 62
    2
 10
481.47493521166746
 20
68.530228126051156
 11
476.71509668274678
 21
68.530228126051156
  0
LINE
  8
_0-0_
  6
CONTINUOUS
 62
    2
 10
494.88658783912763
 20
68.530228126051156
 11
494.88658783912763
 21
45.509715937317992
  0
LINE
  8
_0-0_
  6
CONTINUOUS
 62
    2
 10
500.08658783912745
 20
64.530228126051156
 11
500.08658783912745
 21
49.509715937317992
  0
LINE
  8
_0-0_
  6
CONTINUOUS
 62
    2
 10
494.88658783912763
 20
45.509715937317992
 11
508.08658783912745
 21
45.509715937317992
  0
LINE
  8
_0-0_
  6
CONTINUOUS
 62
    2
 10
508.08658783912745
 20
68.530228126051156
 11
494.88658783912763
 21
68.530228126051156
  0
LINE
  8
_0-0_
  6
CONTINUOUS
 62
    2
 10
522.48658783912754
 20
68.530228126051156
 11
517.28658783912738
 21
68.530228126051156
  0
LINE
  8
_0-0_
  6
CONTINUOUS
 62
    2
 10
528.02122896738422
 20
45.509715937317992
 11
533.22122896738426
 21
45.509715937317992
  0
LINE
  8
_0-0_
  6
CONTINUOUS
 62
    2
 10
543.95587009564088
 20
68.530228126051156
 11
538.75587009564094
 21
68.530228126051156
  0
LINE
  8
_0-0_
  6
CONTINUOUS
 62
    2
 10
537.22122896738415
 20
45.509715937317992
 11
542.42122896738431
 21
45.509715937317992
  0
LINE
  8
_0-0_
  6
CONTINUOUS
 62
    2
 10
558.83224706568546
 20
45.509715937317992
 11
564.03224706568528
 21
45.509715937317992
  0
LINE
  8
_0-0_
  6
CONTINUOUS
 62
    2
 10
566.33844091121739
 20
45.509715937317992
 11
571.53844091121732
 21
45.509715937317992
  0
LINE
  8
_0-0_
  6
CONTINUOUS
 62
    2
 10
583.42377603557463
 20
45.509715937317992
 11
590.25347842171675
 21
45.509715937317992
  0
LINE
  8
_0-0_
  6
CONTINUOUS
 62
    2
 10
590.25347842171675
 20
68.530228126051156
 11
585.85347842171666
 21
68.530228126051156
  0
LINE
  8
_0-0_
  6
CONTINUOUS
 62
    2
 10
574.22734847837353
 20
68.530228126051156
 11
566.33844091121739
 21
68.530228126051156
  0
LINE
  8
_0-0_
  6
CONTINUOUS
 62
    2
 10
553.29760593742867
 20
68.530228126051156
 11
547.95587009564099
 21
68.530228126051156
  0
LINE
  8
_0-0_
  6
CONTINUOUS
 62
    2
 10
466.26980514007471
 20
46.130228126051065
 11
471.46980514007475
 21
46.130228126051065
  0
LINE
  8
_0-0_
  6
CONTINUOUS
 62
    2
 10
486.72022675433948
 20
46.130228126051065
 11
491.9202267543393
 21
46.130228126051065
  0
LINE
  8
_0-0_
  6
CONTINUOUS
 62
    2
 10
494.88658783912763
 20
46.130228126051065
 11
510.32966006631318
 21
46.130228126051065
  0
LINE
  8
_0-0_
  6
CONTINUOUS
 62
    2
 10
527.73187938179956
 20
46.130228126051065
 11
533.51057855296892
 21
46.130228126051065
  0
LINE
  8
_0-0_
  6
CONTINUOUS
 62
    2
 10
537.51057855296915
 20
46.130228126051065
 11
542.71057855296897
 21
46.130228126051065
  0
LINE
  8
_0-0_
  6
CONTINUOUS
 62
    2
 10
558.54289748010081
 20
46.130228126051065
 11
563.74289748010062
 21
46.130228126051065
  0
LINE
  8
_0-0_
  6
CONTINUOUS
 62
    2
 10
566.33844091121739
 20
46.130228126051065
 11
571.53844091121732
 21
46.130228126051065
  0
LINE
  8
_0-0_
  6
CONTINUOUS
 62
    2
 10
583.03603698634913
 20
46.130228126051065
 11
590.25347842171675
 21
46.130228126051065
  0
LINE
  8
_0-0_
  6
CONTINUOUS
 62
    2
 10
466.64285126659877
 20
46.930228126051247
 11
471.84285126659881
 21
46.930228126051247
  0
LINE
  8
_0-0_
  6
CONTINUOUS
 62
    2
 10
486.34718062781542
 20
46.930228126051247
 11
491.54718062781524
 21
46.930228126051247
  0
LINE
  8
_0-0_
  6
CONTINUOUS
 62
    2
 10
494.88658783912763
 20
46.930228126051247
 11
512.45398484607233
 21
46.930228126051247
  0
LINE
  8
_0-0_
  6
CONTINUOUS
 62
    2
 10
527.3588332552755
 20
46.930228126051247
 11
533.88362467949298
 21
46.930228126051247
  0
LINE
  8
_0-0_
  6
CONTINUOUS
 62
    2
 10
537.88362467949287
 20
46.930228126051247
 11
543.08362467949303
 21
46.930228126051247
  0
LINE
  8
_0-0_
  6
CONTINUOUS
 62
    2
 10
558.16985135357675
 20
46.930228126051247
 11
563.36985135357656
 21
46.930228126051247
  0
LINE
  8
_0-0_
  6
CONTINUOUS
 62
    2
 10
566.33844091121739
 20
46.930228126051247
 11
571.53844091121732
 21
46.930228126051247
  0
LINE
  8
_0-0_
  6
CONTINUOUS
 62
    2
 10
582.53614150482179
 20
46.930228126051247
 11
590.25347842171675
 21
46.930228126051247
  0
LINE
  8
_0-0_
  6
CONTINUOUS
 62
    2
 10
467.01589739312283
 20
47.730228126051202
 11
472.21589739312287
 21
47.730228126051202
  0
LINE
  8
_0-0_
  6
CONTINUOUS
 62
    2
 10
485.97413450129136
 20
47.730228126051202
 11
491.17413450129118
 21
47.730228126051202
  0
LINE
  8
_0-0_
  6
CONTINUOUS
 62
    2
 10
494.88658783912763
 20
47.730228126051202
 11
513.90064594571334
 21
47.730228126051202
  0
LINE
  8
_0-0_
  6
CONTINUOUS
 62
    2
 10
526.98578712875144
 20
47.730228126051202
 11
534.25667080601704
 21
47.730228126051202
  0
LINE
  8
_0-0_
  6
CONTINUOUS
 62
    2
 10
538.25667080601693
 20
47.730228126051202
 11
543.45667080601709
 21
47.730228126051202
  0
LINE
  8
_0-0_
  6
CONTINUOUS
 62
    2
 10
557.79680522705269
 20
47.730228126051202
 11
562.9968052270525
 21
47.730228126051202
  0
LINE
  8
_0-0_
  6
CONTINUOUS
 62
    2
 10
566.33844091121739
 20
47.730228126051202
 11
571.53844091121732
 21
47.730228126051202
  0
LINE
  8
_0-0_
  6
CONTINUOUS
 62
    2
 10
582.03624602329421
 20
47.730228126051202
 11
590.25347842171675
 21
47.730228126051202
  0
LINE
  8
_0-0_
  6
CONTINUOUS
 62
    2
 10
467.38894351964666
 20
48.530228126051384
 11
472.58894351964693
 21
48.530228126051384
  0
LINE
  8
_0-0_
  6
CONTINUOUS
 62
    2
 10
485.6010883747673
 20
48.530228126051384
 11
490.80108837476735
 21
48.530228126051384
  0
LINE
  8
_0-0_
  6
CONTINUOUS
 62
    2
 10
494.88658783912763
 20
48.530228126051384
 11
514.8849550656596
 21
48.530228126051384
  0
LINE
  8
_0-0_
  6
CONTINUOUS
 62
    2
 10
526.61274100222738
 20
48.530228126051384
 11
534.62971693254087
 21
48.530228126051384
  0
LINE
  8
_0-0_
  6
CONTINUOUS
 62
    2
 10
538.62971693254087
 20
48.530228126051384
 11
543.8297169325408
 21
48.530228126051384
  0
LINE
  8
_0-0_
  6
CONTINUOUS
 62
    2
 10
557.42375910052863
 20
48.530228126051384
 11
562.62375910052856
 21
48.530228126051384
  0
LINE
  8
_0-0_
  6
CONTINUOUS
 62
    2
 10
566.33844091121739
 20
48.530228126051384
 11
571.53844091121732
 21
48.530228126051384
  0
LINE
  8
_0-0_
  6
CONTINUOUS
 62
    2
 10
581.53635054176686
 20
48.530228126051384
 11
590.25347842171675
 21
48.530228126051384
  0
LINE
  8
_0-0_
  6
CONTINUOUS
 62
    2
 10
467.76198964617072
 20
49.330228126051111
 11
472.96198964617076
 21
49.330228126051111
  0
LINE
  8
_0-0_
  6
CONTINUOUS
 62
    2
 10
485.22804224824324
 20
49.330228126051111
 11
490.42804224824329
 21
49.330228126051111
  0
LINE
  8
_0-0_
  6
CONTINUOUS
 62
    2
 10
494.88658783912763
 20
49.330228126051111
 11
515.56284166501621
 21
49.330228126051111
  0
LINE
  8
_0-0_
  6
CONTINUOUS
 62
    2
 10
526.23969487570355
 20
49.330228126051111
 11
535.00276305906493
 21
49.330228126051111
  0
LINE
  8
_0-0_
  6
CONTINUOUS
 62
    2
 10
539.00276305906493
 20
49.330228126051111
 11
544.20276305906486
 21
49.330228126051111
  0
LINE
  8
_0-0_
  6
CONTINUOUS
 62
    2
 10
557.05071297400457
 20
49.330228126051111
 11
562.25071297400484
 21
49.330228126051111
  0
LINE
  8
_0-0_
  6
CONTINUOUS
 62
    2
 10
566.33844091121739
 20
49.330228126051111
 11
571.53844091121732
 21
49.330228126051111
  0
LINE
  8
_0-0_
  6
CONTINUOUS
 62
    2
 10
581.03645506023929
 20
49.330228126051111
 11
590.25347842171675
 21
49.330228126051111
  0
LINE
  8
_0-0_
  6
CONTINUOUS
 62
    2
 10
468.13503577269478
 20
50.130228126050838
 11
473.33503577269482
 21
50.130228126050838
  0
LINE
  8
_0-0_
  6
CONTINUOUS
 62
    2
 10
484.85499612171918
 20
50.130228126050838
 11
490.05499612171946
 21
50.130228126050838
  0
LINE
  8
_0-0_
  6
CONTINUOUS
 62
    2
 10
494.88658783912763
 20
50.130228126050838
 11
500.08658783912745
 21
50.130228126050838
  0
LINE
  8
_0-0_
  6
CONTINUOUS
 62
    2
 10
509.17808870918304
 20
50.130228126050838
 11
516.00597048533666
 21
50.130228126050838
  0
LINE
  8
_0-0_
  6
CONTINUOUS
 62
    2
 10
525.86664874917949
 20
50.130228126050838
 11
535.37580918558899
 21
50.130228126050838
  0
LINE
  8
_0-0_
  6
CONTINUOUS
 62
    2
 10
539.37580918558899
 20
50.130228126050838
 11
544.57580918558892
 21
50.130228126050838
  0
LINE
  8
_0-0_
  6
CONTINUOUS
 62
    2
 10
556.67766684748062
 20
50.130228126050838
 11
561.87766684748078
 21
50.130228126050838
  0
LINE
  8
_0-0_
  6
CONTINUOUS
 62
    2
 10
566.33844091121739
 20
50.130228126050838
 11
571.53844091121732
 21
50.130228126050838
  0
LINE
  8
_0-0_
  6
CONTINUOUS
 62
    2
 10
580.53655957871172
 20
50.130228126050838
 11
585.724944553505
 21
50.130228126050838
  0
LINE
  8
_0-0_
  6
CONTINUOUS
 62
    2
 10
585.85347842171666
 20
50.130228126050838
 11
590.25347842171675
 21
50.130228126050838
  0
LINE
  8
_0-0_
  6
CONTINUOUS
 62
    2
 10
468.50808189921884
 20
50.930228126051247
 11
489.6819499951954
 21
50.930228126051247
  0
LINE
  8
_0-0_
  6
CONTINUOUS
 62
    2
 10
494.88658783912763
 20
50.930228126051247
 11
500.08658783912745
 21
50.930228126051247
  0
LINE
  8
_0-0_
  6
CONTINUOUS
 62
    2
 10
510.31573444209027
 20
50.930228126051247
 11
516.31042407776033
 21
50.930228126051247
  0
LINE
  8
_0-0_
  6
CONTINUOUS
 62
    2
 10
525.49360262265543
 20
50.930228126051247
 11
535.74885531211305
 21
50.930228126051247
  0
LINE
  8
_0-0_
  6
CONTINUOUS
 62
    2
 10
539.74885531211305
 20
50.930228126051247
 11
561.50462072095672
 21
50.930228126051247
  0
LINE
  8
_0-0_
  6
CONTINUOUS
 62
    2
 10
566.33844091121739
 20
50.930228126051247
 11
571.53844091121732
 21
50.930228126051247
  0
LINE
  8
_0-0_
  6
CONTINUOUS
 62
    2
 10
580.03666409718426
 20
50.930228126051247
 11
585.22504907197765
 21
50.930228126051247
  0
LINE
  8
_0-0_
  6
CONTINUOUS
 62
    2
 10
585.85347842171666
 20
50.930228126051247
 11
590.25347842171675
 21
50.930228126051247
  0
LINE
  8
_0-0_
  6
CONTINUOUS
 62
    2
 10
468.8811280257429
 20
51.730228126051429
 11
489.30890386867134
 21
51.730228126051429
  0
LINE
  8
_0-0_
  6
CONTINUOUS
 62
    2
 10
494.88658783912763
 20
51.730228126051429
 11
500.08658783912745
 21
51.730228126051429
  0
LINE
  8
_0-0_
  6
CONTINUOUS
 62
    2
 10
511.04284553301579
 20
51.730228126051429
 11
516.54645938252054
 21
51.730228126051429
  0
LINE
  8
_0-0_
  6
CONTINUOUS
 62
    2
 10
525.12055649613148
 20
51.730228126051429
 11
530.3205564961313
 21
51.730228126051429
  0
LINE
  8
_0-0_
  6
CONTINUOUS
 62
    2
 10
530.92190143863695
 20
51.730228126051429
 11
536.12190143863711
 21
51.730228126051429
  0
LINE
  8
_0-0_
  6
CONTINUOUS
 62
    2
 10
540.12190143863711
 20
51.730228126051429
 11
561.13157459443266
 21
51.730228126051429
  0
LINE
  8
_0-0_
  6
CONTINUOUS
 62
    2
 10
566.33844091121739
 20
51.730228126051429
 11
571.53844091121732
 21
51.730228126051429
  0
LINE
  8
_0-0_
  6
CONTINUOUS
 62
    2
 10
579.53676861565702
 20
51.730228126051429
 11
584.72515359044996
 21
51.730228126051429
  0
LINE
  8
_0-0_
  6
CONTINUOUS
 62
    2
 10
585.85347842171666
 20
51.730228126051429
 11
590.25347842171675
 21
51.730228126051429
  0
LINE
  8
_0-0_
  6
CONTINUOUS
 62
    2
 10
469.25417415226696
 20
52.530228126051384
 11
488.93585774214728
 21
52.530228126051384
  0
LINE
  8
_0-0_
  6
CONTINUOUS
 62
    2
 10
494.88658783912763
 20
52.530228126051384
 11
500.08658783912745
 21
52.530228126051384
  0
LINE
  8
_0-0_
  6
CONTINUOUS
 62
    2
 10
511.47640137435906
 20
52.530228126051384
 11
516.74619401168422
 21
52.530228126051384
  0
LINE
  8
_0-0_
  6
CONTINUOUS
 62
    2
 10
524.74751036960743
 20
52.530228126051384
 11
529.94751036960724
 21
52.530228126051384
  0
LINE
  8
_0-0_
  6
CONTINUOUS
 62
    2
 10
531.2949475651609
 20
52.530228126051384
 11
536.49494756516083
 21
52.530228126051384
  0
LINE
  8
_0-0_
  6
CONTINUOUS
 62
    2
 10
540.49494756516094
 20
52.530228126051384
 11
560.7585284679086
 21
52.530228126051384
  0
LINE
  8
_0-0_
  6
CONTINUOUS
 62
    2
 10
566.33844091121739
 20
52.530228126051384
 11
571.53844091121732
 21
52.530228126051384
  0
LINE
  8
_0-0_
  6
CONTINUOUS
 62
    2
 10
579.03687313412945
 20
52.530228126051384
 11
584.22525810892273
 21
52.530228126051384
  0
LINE
  8
_0-0_
  6
CONTINUOUS
 62
    2
 10
585.85347842171666
 20
52.530228126051384
 11
590.25347842171675
 21
52.530228126051384
  0
LINE
  8
_0-0_
  6
CONTINUOUS
 62
    2
 10
469.62722027879079
 20
53.330228126051111
 11
488.56281161562322
 21
53.330228126051111
  0
LINE
  8
_0-0_
  6
CONTINUOUS
 62
    2
 10
494.88658783912763
 20
53.330228126051111
 11
500.08658783912745
 21
53.330228126051111
  0
LINE
  8
_0-0_
  6
CONTINUOUS
 62
    2
 10
511.74771429801899
 20
53.330228126051111
 11
516.91727532617244
 21
53.330228126051111
  0
LINE
  8
_0-0_
  6
CONTINUOUS
 62
    2
 10
524.37446424308337
 20
53.330228126051111
 11
529.57446424308353
 21
53.330228126051111
  0
LINE
  8
_0-0_
  6
CONTINUOUS
 62
    2
 10
531.66799369168496
 20
53.330228126051111
 11
536.86799369168489
 21
53.330228126051111
  0
LINE
  8
_0-0_
  6
CONTINUOUS
 62
    2
 10
540.867993691685
 20
53.330228126051111
 11
560.38548234138455
 21
53.330228126051111
  0
LINE
  8
_0-0_
  6
CONTINUOUS
 62
    2
 10
566.33844091121739
 20
53.330228126051111
 11
571.53844091121732
 21
53.330228126051111
  0
LINE
  8
_0-0_
  6
CONTINUOUS
 62
    2
 10
578.53697765260199
 20
53.330228126051111
 11
583.72536262739516
 21
53.330228126051111
  0
LINE
  8
_0-0_
  6
CONTINUOUS
 62
    2
 10
585.85347842171666
 20
53.330228126051111
 11
590.25347842171675
 21
53.330228126051111
  0
LINE
  8
_0-0_
  6
CONTINUOUS
 62
    2
 10
470.00026640531485
 20
54.130228126051065
 11
488.18976548909916
 21
54.130228126051065
  0
LINE
  8
_0-0_
  6
CONTINUOUS
 62
    2
 10
494.88658783912763
 20
54.130228126051065
 11
500.08658783912745
 21
54.130228126051065
  0
LINE
  8
_0-0_
  6
CONTINUOUS
 62
    2
 10
511.91309981703751
 20
54.130228126051065
 11
517.05666414253949
 21
54.130228126051065
  0
LINE
  8
_0-0_
  6
CONTINUOUS
 62
    2
 10
524.00141811655931
 20
54.130228126051065
 11
529.20141811655947
 21
54.130228126051065
  0
LINE
  8
_0-0_
  6
CONTINUOUS
 62
    2
 10
532.04103981820901
 20
54.130228126051065
 11
537.24103981820883
 21
54.130228126051065
  0
LINE
  8
_0-0_
  6
CONTINUOUS
 62
    2
 10
541.24103981820906
 20
54.130228126051065
 11
560.0124362148606
 21
54.130228126051065
  0
LINE
  8
_0-0_
  6
CONTINUOUS
 62
    2
 10
566.33844091121739
 20
54.130228126051065
 11
571.53844091121732
 21
54.130228126051065
  0
LINE
  8
_0-0_
  6
CONTINUOUS
 62
    2
 10
578.03708217107453
 20
54.130228126051065
 11
583.2254671458677
 21
54.130228126051065
  0
LINE
  8
_0-0_
  6
CONTINUOUS
 62
    2
 10
585.85347842171666
 20
54.130228126051065
 11
590.25347842171675
 21
54.130228126051065
  0
LINE
  8
_0-0_
  6
CONTINUOUS
 62
    2
 10
470.37331253183868
 20
54.930228126051247
 11
475.57331253183872
 21
54.930228126051247
  0
LINE
  8
_0-0_
  6
CONTINUOUS
 62
    2
 10
482.61671936257528
 20
54.930228126051247
 11
487.81671936257533
 21
54.930228126051247
  0
LINE
  8
_0-0_
  6
CONTINUOUS
 62
    2
 10
494.88658783912763
 20
54.930228126051247
 11
500.08658783912745
 21
54.930228126051247
  0
LINE
  8
_0-0_
  6
CONTINUOUS
 62
    2
 10
512.01037704293685
 20
54.930228126051247
 11
517.16386129992236
 21
54.930228126051247
  0
LINE
  8
_0-0_
  6
CONTINUOUS
 62
    2
 10
523.62837199003525
 20
54.930228126051247
 11
528.82837199003552
 21
54.930228126051247
  0
LINE
  8
_0-0_
  6
CONTINUOUS
 62
    2
 10
532.41408594473307
 20
54.930228126051247
 11
537.61408594473289
 21
54.930228126051247
  0
LINE
  8
_0-0_
  6
CONTINUOUS
 62
    2
 10
541.61408594473278
 20
54.930228126051247
 11
546.81408594473294
 21
54.930228126051247
  0
LINE
  8
_0-0_
  6
CONTINUOUS
 62
    2
 10
554.43939008833661
 20
54.930228126051247
 11
559.63939008833654
 21
54.930228126051247
  0
LINE
  8
_0-0_
  6
CONTINUOUS
 62
    2
 10
566.33844091121739
 20
54.930228126051247
 11
571.53844091121732
 21
54.930228126051247
  0
LINE
  8
_0-0_
  6
CONTINUOUS
 62
    2
 10
577.53718668954718
 20
54.930228126051247
 11
582.72557166434024
 21
54.930228126051247
  0
LINE
  8
_0-0_
  6
CONTINUOUS
 62
    2
 10
585.85347842171666
 20
54.930228126051247
 11
590.25347842171675
 21
54.930228126051247
  0
LINE
  8
_0-0_
  6
CONTINUOUS
 62
    2
 10
470.74635865836274
 20
55.730228126051657
 11
475.94635865836278
 21
55.730228126051657
  0
LINE
  8
_0-0_
  6
CONTINUOUS
 62
    2
 10
482.24367323605122
 20
55.730228126051657
 11
487.44367323605127
 21
55.730228126051657
  0
LINE
  8
_0-0_
  6
CONTINUOUS
 62
    2
 10
494.88658783912763
 20
55.730228126051657
 11
500.08658783912745
 21
55.730228126051657
  0
LINE
  8
_0-0_
  6
CONTINUOUS
 62
    2
 10
512.06223263347101
 20
55.730228126051657
 11
517.23826717496615
 21
55.730228126051657
  0
LINE
  8
_0-0_
  6
CONTINUOUS
 62
    2
 10
523.25532586351119
 20
55.730228126051657
 11
528.45532586351146
 21
55.730228126051657
  0
LINE
  8
_0-0_
  6
CONTINUOUS
 62
    2
 10
532.78713207125713
 20
55.730228126051657
 11
537.98713207125695
 21
55.730228126051657
  0
LINE
  8
_0-0_
  6
CONTINUOUS
 62
    2
 10
541.98713207125684
 20
55.730228126051657
 11
547.187132071257
 21
55.730228126051657
  0
LINE
  8
_0-0_
  6
CONTINUOUS
 62
    2
 10
554.06634396181266
 20
55.730228126051657
 11
559.26634396181282
 21
55.730228126051657
  0
LINE
  8
_0-0_
  6
CONTINUOUS
 62
    2
 10
566.33844091121739
 20
55.730228126051657
 11
571.53844091121732
 21
55.730228126051657
  0
LINE
  8
_0-0_
  6
CONTINUOUS
 62
    2
 10
577.03729120801961
 20
55.730228126051657
 11
582.22567618281289
 21
55.730228126051657
  0
LINE
  8
_0-0_
  6
CONTINUOUS
 62
    2
 10
585.85347842171666
 20
55.730228126051657
 11
590.25347842171675
 21
55.730228126051657
  0
LINE
  8
_0-0_
  6
CONTINUOUS
 62
    2
 10
471.1194047848868
 20
56.530228126051156
 11
476.31940478488661
 21
56.530228126051156
  0
LINE
  8
_0-0_
  6
CONTINUOUS
 62
    2
 10
481.87062710952716
 20
56.530228126051156
 11
487.07062710952744
 21
56.530228126051156
  0
LINE
  8
_0-0_
  6
CONTINUOUS
 62
    2
 10
494.88658783912763
 20
56.530228126051156
 11
500.08658783912745
 21
56.530228126051156
  0
LINE
  8
_0-0_
  6
CONTINUOUS
 62
    2
 10
512.0839802927693
 20
56.530228126051156
 11
517.27951779755517
 21
56.530228126051156
  0
LINE
  8
_0-0_
  6
CONTINUOUS
 62
    2
 10
522.88227973698747
 20
56.530228126051156
 11
528.0822797369874
 21
56.530228126051156
  0
LINE
  8
_0-0_
  6
CONTINUOUS
 62
    2
 10
533.16017819778085
 20
56.530228126051156
 11
538.36017819778101
 21
56.530228126051156
  0
LINE
  8
_0-0_
  6
CONTINUOUS
 62
    2
 10
542.3601781977809
 20
56.530228126051156
 11
547.56017819778071
 21
56.530228126051156
  0
LINE
  8
_0-0_
  6
CONTINUOUS
 62
    2
 10
553.6932978352886
 20
56.530228126051156
 11
558.89329783528876
 21
56.530228126051156
  0
LINE
  8
_0-0_
  6
CONTINUOUS
 62
    2
 10
566.33844091121739
 20
56.530228126051156
 11
571.53844091121732
 21
56.530228126051156
  0
LINE
  8
_0-0_
  6
CONTINUOUS
 62
    2
 10
576.53739572649226
 20
56.530228126051156
 11
581.72578070128532
 21
56.530228126051156
  0
LINE
  8
_0-0_
  6
CONTINUOUS
 62
    2
 10
585.85347842171666
 20
56.530228126051156
 11
590.25347842171675
 21
56.530228126051156
  0
LINE
  8
_0-0_
  6
CONTINUOUS
 62
    2
 10
471.49245091141086
 20
57.330228126051338
 11
476.69245091141067
 21
57.330228126051338
  0
LINE
  8
_0-0_
  6
CONTINUOUS
 62
    2
 10
481.49758098300333
 20
57.330228126051338
 11
486.69758098300338
 21
57.330228126051338
  0
LINE
  8
_0-0_
  6
CONTINUOUS
 62
    2
 10
494.88658783912763
 20
57.330228126051338
 11
500.08658783912745
 21
57.330228126051338
  0
LINE
  8
_0-0_
  6
CONTINUOUS
 62
    2
 10
512.08493594077868
 20
57.330228126051338
 11
517.28210891971662
 21
57.330228126051338
  0
LINE
  8
_0-0_
  6
CONTINUOUS
 62
    2
 10
522.50923361046353
 20
57.330228126051338
 11
527.70923361046334
 21
57.330228126051338
  0
LINE
  8
_0-0_
  6
CONTINUOUS
 62
    2
 10
533.53322432430491
 20
57.330228126051338
 11
538.73322432430507
 21
57.330228126051338
  0
LINE
  8
_0-0_
  6
CONTINUOUS
 62
    2
 10
542.73322432430496
 20
57.330228126051338
 11
547.93322432430477
 21
57.330228126051338
  0
LINE
  8
_0-0_
  6
CONTINUOUS
 62
    2
 10
553.32025170876489
 20
57.330228126051338
 11
558.5202517087647
 21
57.330228126051338
  0
LINE
  8
_0-0_
  6
CONTINUOUS
 62
    2
 10
566.33844091121739
 20
57.330228126051338
 11
571.53844091121732
 21
57.330228126051338
  0
LINE
  8
_0-0_
  6
CONTINUOUS
 62
    2
 10
576.03750024496469
 20
57.330228126051338
 11
581.22588521975797
 21
57.330228126051338
  0
LINE
  8
_0-0_
  6
CONTINUOUS
 62
    2
 10
585.85347842171666
 20
57.330228126051338
 11
590.25347842171675
 21
57.330228126051338
  0
LINE
  8
_0-0_
  6
CONTINUOUS
 62
    2
 10
471.86549703793492
 20
58.130228126051293
 11
477.06549703793473
 21
58.130228126051293
  0
LINE
  8
_0-0_
  6
CONTINUOUS
 62
    2
 10
481.1245348564795
 20
58.130228126051293
 11
486.32453485647932
 21
58.130228126051293
  0
LINE
  8
_0-0_
  6
CONTINUOUS
 62
    2
 10
494.88658783912763
 20
58.130228126051293
 11
500.08658783912745
 21
58.130228126051293
  0
LINE
  8
_0-0_
  6
CONTINUOUS
 62
    2
 10
512.06763290925471
 20
58.130228126051293
 11
517.24780410140147
 21
58.130228126051293
  0
LINE
  8
_0-0_
  6
CONTINUOUS
 62
    2
 10
522.13618748393947
 20
58.130228126051293
 11
527.33618748393928
 21
58.130228126051293
  0
LINE
  8
_0-0_
  6
CONTINUOUS
 62
    2
 10
533.90627045082886
 20
58.130228126051293
 11
539.10627045082879
 21
58.130228126051293
  0
LINE
  8
_0-0_
  6
CONTINUOUS
 62
    2
 10
543.10627045082902
 20
58.130228126051293
 11
548.30627045082883
 21
58.130228126051293
  0
LINE
  8
_0-0_
  6
CONTINUOUS
 62
    2
 10
552.94720558224083
 20
58.130228126051293
 11
558.14720558224064
 21
58.130228126051293
  0
LINE
  8
_0-0_
  6
CONTINUOUS
 62
    2
 10
566.33844091121739
 20
58.130228126051293
 11
571.53844091121732
 21
58.130228126051293
  0
LINE
  8
_0-0_
  6
CONTINUOUS
 62
    2
 10
575.53760476343712
 20
58.130228126051293
 11
580.7259897382304
 21
58.130228126051293
  0
LINE
  8
_0-0_
  6
CONTINUOUS
 62
    2
 10
585.85347842171666
 20
58.130228126051293
 11
590.25347842171675
 21
58.130228126051293
  0
LINE
  8
_0-0_
  6
CONTINUOUS
 62
    2
 10
472.23854316445875
 20
58.930228126050793
 11
477.43854316445879
 21
58.930228126050793
  0
LINE
  8
_0-0_
  6
CONTINUOUS
 62
    2
 10
480.75148872995544
 20
58.930228126050793
 11
485.95148872995526
 21
58.930228126050793
  0
LINE
  8
_0-0_
  6
CONTINUOUS
 62
    2
 10
494.88658783912763
 20
58.930228126050793
 11
500.08658783912745
 21
58.930228126050793
  0
LINE
  8
_0-0_
  6
CONTINUOUS
 62
    2
 10
512.02555067220499
 20
58.930228126050793
 11
517.1819732789229
 21
58.930228126050793
  0
LINE
  8
_0-0_
  6
CONTINUOUS
 62
    2
 10
521.76314135741541
 20
58.930228126050793
 11
526.96314135741557
 21
58.930228126050793
  0
LINE
  8
_0-0_
  6
CONTINUOUS
 62
    2
 10
534.27931657735292
 20
58.930228126050793
 11
539.47931657735285
 21
58.930228126050793
  0
LINE
  8
_0-0_
  6
CONTINUOUS
 62
    2
 10
543.47931657735296
 20
58.930228126050793
 11
548.67931657735289
 21
58.930228126050793
  0
LINE
  8
_0-0_
  6
CONTINUOUS
 62
    2
 10
552.57415945571677
 20
58.930228126050793
 11
557.77415945571681
 21
58.930228126050793
  0
LINE
  8
_0-0_
  6
CONTINUOUS
 62
    2
 10
566.33844091121739
 20
58.930228126050793
 11
571.53844091121732
 21
58.930228126050793
  0
LINE
  8
_0-0_
  6
CONTINUOUS
 62
    2
 10
575.03770928190966
 20
58.930228126050793
 11
580.22609425670305
 21
58.930228126050793
  0
LINE
  8
_0-0_
  6
CONTINUOUS
 62
    2
 10
585.85347842171666
 20
58.930228126050793
 11
590.25347842171675
 21
58.930228126050793
  0
LINE
  8
_0-0_
  6
CONTINUOUS
 62
    2
 10
472.61158929098281
 20
59.730228126051657
 11
477.81158929098285
 21
59.730228126051657
  0
LINE
  8
_0-0_
  6
CONTINUOUS
 62
    2
 10
480.37844260343138
 20
59.730228126051657
 11
485.5784426034312
 21
59.730228126051657
  0
LINE
  8
_0-0_
  6
CONTINUOUS
 62
    2
 10
494.88658783912763
 20
59.730228126051657
 11
500.08658783912745
 21
59.730228126051657
  0
LINE
  8
_0-0_
  6
CONTINUOUS
 62
    2
 10
511.9438113822041
 20
59.730228126051657
 11
517.0831212685672
 21
59.730228126051657
  0
LINE
  8
_0-0_
  6
CONTINUOUS
 62
    2
 10
521.39009523089135
 20
59.730228126051657
 11
526.59009523089151
 21
59.730228126051657
  0
LINE
  8
_0-0_
  6
CONTINUOUS
 62
    2
 10
534.65236270387697
 20
59.730228126051657
 11
539.85236270387691
 21
59.730228126051657
  0
LINE
  8
_0-0_
  6
CONTINUOUS
 62
    2
 10
543.85236270387702
 20
59.730228126051657
 11
549.05236270387695
 21
59.730228126051657
  0
LINE
  8
_0-0_
  6
CONTINUOUS
 62
    2
 10
552.20111332919271
 20
59.730228126051657
 11
557.40111332919275
 21
59.730228126051657
  0
LINE
  8
_0-0_
  6
CONTINUOUS
 62
    2
 10
566.33844091121739
 20
59.730228126051657
 11
571.53844091121732
 21
59.730228126051657
  0
LINE
  8
_0-0_
  6
CONTINUOUS
 62
    2
 10
574.53781380038242
 20
59.730228126051657
 11
579.72619877517536
 21
59.730228126051657
  0
LINE
  8
_0-0_
  6
CONTINUOUS
 62
    2
 10
585.85347842171666
 20
59.730228126051657
 11
590.25347842171675
 21
59.730228126051657
  0
LINE
  8
_0-0_
  6
CONTINUOUS
 62
    2
 10
472.98463541750664
 20
60.530228126051156
 11
478.18463541750691
 21
60.530228126051156
  0
LINE
  8
_0-0_
  6
CONTINUOUS
 62
    2
 10
480.00539647690732
 20
60.530228126051156
 11
485.20539647690737
 21
60.530228126051156
  0
LINE
  8
_0-0_
  6
CONTINUOUS
 62
    2
 10
494.88658783912763
 20
60.530228126051156
 11
500.08658783912745
 21
60.530228126051156
  0
LINE
  8
_0-0_
  6
CONTINUOUS
 62
    2
 10
511.80162001787733
 20
60.530228126051156
 11
516.95187202325508
 21
60.530228126051156
  0
LINE
  8
_0-0_
  6
CONTINUOUS
 62
    2
 10
521.01704910436729
 20
60.530228126051156
 11
526.21704910436745
 21
60.530228126051156
  0
LINE
  8
_0-0_
  6
CONTINUOUS
 62
    2
 10
535.02540883040103
 20
60.530228126051156
 11
540.22540883040085
 21
60.530228126051156
  0
LINE
  8
_0-0_
  6
CONTINUOUS
 62
    2
 10
544.22540883040074
 20
60.530228126051156
 11
549.42540883040101
 21
60.530228126051156
  0
LINE
  8
_0-0_
  6
CONTINUOUS
 62
    2
 10
551.82806720266865
 20
60.530228126051156
 11
557.02806720266869
 21
60.530228126051156
  0
LINE
  8
_0-0_
  6
CONTINUOUS
 62
    2
 10
566.33844091121739
 20
60.530228126051156
 11
571.53844091121732
 21
60.530228126051156
  0
LINE
  8
_0-0_
  6
CONTINUOUS
 62
    2
 10
574.03791831885485
 20
60.530228126051156
 11
579.22630329364813
 21
60.530228126051156
  0
LINE
  8
_0-0_
  6
CONTINUOUS
 62
    2
 10
585.85347842171666
 20
60.530228126051156
 11
590.25347842171675
 21
60.530228126051156
  0
LINE
  8
_0-0_
  6
CONTINUOUS
 62
    2
 10
473.3576815440307
 20
61.330228126051338
 11
478.55768154403097
 21
61.330228126051338
  0
LINE
  8
_0-0_
  6
CONTINUOUS
 62
    2
 10
479.63235035038326
 20
61.330228126051338
 11
484.83235035038331
 21
61.330228126051338
  0
LINE
  8
_0-0_
  6
CONTINUOUS
 62
    2
 10
494.88658783912763
 20
61.330228126051338
 11
500.08658783912745
 21
61.330228126051338
  0
LINE
  8
_0-0_
  6
CONTINUOUS
 62
    2
 10
511.56135536936335
 20
61.330228126051338
 11
516.78874805189287
 21
61.330228126051338
  0
LINE
  8
_0-0_
  6
CONTINUOUS
 62
    2
 10
520.64400297784323
 20
61.330228126051338
 11
525.84400297784362
 21
61.330228126051338
  0
LINE
  8
_0-0_
  6
CONTINUOUS
 62
    2
 10
535.39845495692509
 20
61.330228126051338
 11
540.59845495692491
 21
61.330228126051338
  0
LINE
  8
_0-0_
  6
CONTINUOUS
 62
    2
 10
544.5984549569248
 20
61.330228126051338
 11
549.79845495692496
 21
61.330228126051338
  0
LINE
  8
_0-0_
  6
CONTINUOUS
 62
    2
 10
551.45502107614459
 20
61.330228126051338
 11
556.65502107614464
 21
61.330228126051338
  0
LINE
  8
_0-0_
  6
CONTINUOUS
 62
    2
 10
566.33844091121739
 20
61.330228126051338
 11
571.53844091121732
 21
61.330228126051338
  0
LINE
  8
_0-0_
  6
CONTINUOUS
 62
    2
 10
573.53802283732728
 20
61.330228126051338
 11
578.72640781212056
 21
61.330228126051338
  0
LINE
  8
_0-0_
  6
CONTINUOUS
 62
    2
 10
585.85347842171666
 20
61.330228126051338
 11
590.25347842171675
 21
61.330228126051338
  0
LINE
  8
_0-0_
  6
CONTINUOUS
 62
    2
 10
473.73072767055476
 20
62.130228126051293
 11
478.9307276705548
 21
62.130228126051293
  0
LINE
  8
_0-0_
  6
CONTINUOUS
 62
    2
 10
479.2593042238592
 20
62.130228126051293
 11
484.45930422385948
 21
62.130228126051293
  0
LINE
  8
_0-0_
  6
CONTINUOUS
 62
    2
 10
494.88658783912763
 20
62.130228126051293
 11
500.08658783912745
 21
62.130228126051293
  0
LINE
  8
_0-0_
  6
CONTINUOUS
 62
    2
 10
511.17003284012458
 20
62.130228126051293
 11
516.59519234527659
 21
62.130228126051293
  0
LINE
  8
_0-0_
  6
CONTINUOUS
 62
    2
 10
520.27095685131951
 20
62.130228126051293
 11
525.47095685131956
 21
62.130228126051293
  0
LINE
  8
_0-0_
  6
CONTINUOUS
 62
    2
 10
535.77150108344892
 20
62.130228126051293
 11
540.97150108344897
 21
62.130228126051293
  0
LINE
  8
_0-0_
  6
CONTINUOUS
 62
    2
 10
544.97150108344886
 20
62.130228126051293
 11
550.17150108344867
 21
62.130228126051293
  0
LINE
  8
_0-0_
  6
CONTINUOUS
 62
    2
 10
551.08197494962076
 20
62.130228126051293
 11
556.28197494962069
 21
62.130228126051293
  0
LINE
  8
_0-0_
  6
CONTINUOUS
 62
    2
 10
566.33844091121739
 20
62.130228126051293
 11
571.53844091121732
 21
62.130228126051293
  0
LINE
  8
_0-0_
  6
CONTINUOUS
 62
    2
 10
573.03812735579993
 20
62.130228126051293
 11
578.2265123305931
 21
62.130228126051293
  0
LINE
  8
_0-0_
  6
CONTINUOUS
 62
    2
 10
585.85347842171666
 20
62.130228126051293
 11
590.25347842171675
 21
62.130228126051293
  0
LINE
  8
_0-0_
  6
CONTINUOUS
 62
    2
 10
474.10377379707882
 20
62.930228126050793
 11
484.08625809733542
 21
62.930228126050793
  0
LINE
  8
_0-0_
  6
CONTINUOUS
 62
    2
 10
494.88658783912763
 20
62.930228126050793
 11
500.08658783912745
 21
62.930228126050793
  0
LINE
  8
_0-0_
  6
CONTINUOUS
 62
    2
 10
510.5055201713061
 20
62.930228126050793
 11
516.3670761761357
 21
62.930228126050793
  0
LINE
  8
_0-0_
  6
CONTINUOUS
 62
    2
 10
519.89791072479545
 20
62.930228126050793
 11
525.0979107247955
 21
62.930228126050793
  0
LINE
  8
_0-0_
  6
CONTINUOUS
 62
    2
 10
536.14454720997298
 20
62.930228126050793
 11
541.34454720997303
 21
62.930228126050793
  0
LINE
  8
_0-0_
  6
CONTINUOUS
 62
    2
 10
545.34454720997292
 20
62.930228126050793
 11
550.54454720997273
 21
62.930228126050793
  0
LINE
  8
_0-0_
  6
CONTINUOUS
 62
    2
 10
550.7089288230967
 20
62.930228126050793
 11
555.90892882309663
 21
62.930228126050793
  0
LINE
  8
_0-0_
  6
CONTINUOUS
 62
    2
 10
566.33844091121739
 20
62.930228126050793
 11
571.53844091121732
 21
62.930228126050793
  0
LINE
  8
_0-0_
  6
CONTINUOUS
 62
    2
 10
572.53823187427236
 20
62.930228126050793
 11
577.72661684906564
 21
62.930228126050793
  0
LINE
  8
_0-0_
  6
CONTINUOUS
 62
    2
 10
585.85347842171666
 20
62.930228126050793
 11
590.25347842171675
 21
62.930228126050793
  0
LINE
  8
_0-0_
  6
CONTINUOUS
 62
    2
 10
474.47681992360287
 20
63.730228126051429
 11
483.71321197081136
 21
63.730228126051429
  0
LINE
  8
_0-0_
  6
CONTINUOUS
 62
    2
 10
494.88658783912763
 20
63.730228126051429
 11
500.08658783912745
 21
63.730228126051429
  0
LINE
  8
_0-0_
  6
CONTINUOUS
 62
    2
 10
509.46799803412125
 20
63.730228126051429
 11
516.08497023919358
 21
63.730228126051429
  0
LINE
  8
_0-0_
  6
CONTINUOUS
 62
    2
 10
519.52486459827162
 20
63.730228126051429
 11
524.72486459827144
 21
63.730228126051429
  0
LINE
  8
_0-0_
  6
CONTINUOUS
 62
    2
 10
536.51759333649704
 20
63.730228126051429
 11
541.71759333649709
 21
63.730228126051429
  0
LINE
  8
_0-0_
  6
CONTINUOUS
 62
    2
 10
545.71759333649698
 20
63.730228126051429
 11
555.53588269657257
 21
63.730228126051429
  0
LINE
  8
_0-0_
  6
CONTINUOUS
 62
    2
 10
566.33844091121739
 20
63.730228126051429
 11
571.53844091121732
 21
63.730228126051429
  0
LINE
  8
_0-0_
  6
CONTINUOUS
 62
    2
 10
572.03833639274501
 20
63.730228126051429
 11
577.22672136753829
 21
63.730228126051429
  0
LINE
  8
_0-0_
  6
CONTINUOUS
 62
    2
 10
585.85347842171666
 20
63.730228126051429
 11
590.25347842171675
 21
63.730228126051429
  0
LINE
  8
_0-0_
  6
CONTINUOUS
 62
    2
 10
474.84986605012693
 20
64.530228126051156
 11
483.3401658442873
 21
64.530228126051156
  0
LINE
  8
_0-0_
  6
CONTINUOUS
 62
    2
 10
494.88658783912763
 20
64.530228126051156
 11
500.08658783912745
 21
64.530228126051156
  0
LINE
  8
_0-0_
  6
CONTINUOUS
 62
    2
 10
508.08658783912745
 20
64.530228126051156
 11
515.68658783912736
 21
64.530228126051156
  0
LINE
  8
_0-0_
  6
CONTINUOUS
 62
    2
 10
519.15181847174756
 20
64.530228126051156
 11
524.35181847174738
 21
64.530228126051156
  0
LINE
  8
_0-0_
  6
CONTINUOUS
 62
    2
 10
536.89063946302076
 20
64.530228126051156
 11
542.09063946302092
 21
64.530228126051156
  0
LINE
  8
_0-0_
  6
CONTINUOUS
 62
    2
 10
546.09063946302092
 20
64.530228126051156
 11
555.16283657004851
 21
64.530228126051156
  0
LINE
  8
_0-0_
  6
CONTINUOUS
 62
    2
 10
566.33844091121739
 20
64.530228126051156
 11
571.53844091121732
 21
64.530228126051156
  0
LINE
  8
_0-0_
  6
CONTINUOUS
 62
    2
 10
571.53844091121732
 20
64.530228126051156
 11
576.72682588601072
 21
64.530228126051156
  0
LINE
  8
_0-0_
  6
CONTINUOUS
 62
    2
 10
585.85347842171666
 20
64.530228126051156
 11
590.25347842171675
 21
64.530228126051156
  0
LINE
  8
_0-0_
  6
CONTINUOUS
 62
    2
 10
475.22291217665077
 20
65.330228126051338
 11
482.96711971776324
 21
65.330228126051338
  0
LINE
  8
_0-0_
  6
CONTINUOUS
 62
    2
 10
494.88658783912763
 20
65.330228126051338
 11
515.05064115598668
 21
65.330228126051338
  0
LINE
  8
_0-0_
  6
CONTINUOUS
 62
    2
 10
518.7787723452235
 20
65.330228126051338
 11
523.97877234522343
 21
65.330228126051338
  0
LINE
  8
_0-0_
  6
CONTINUOUS
 62
    2
 10
537.26368558954482
 20
65.330228126051338
 11
542.46368558954498
 21
65.330228126051338
  0
LINE
  8
_0-0_
  6
CONTINUOUS
 62
    2
 10
546.46368558954498
 20
65.330228126051338
 11
554.78979044352445
 21
65.330228126051338
  0
LINE
  8
_0-0_
  6
CONTINUOUS
 62
    2
 10
566.33844091121739
 20
65.330228126051338
 11
576.22693040448337
 21
65.330228126051338
  0
LINE
  8
_0-0_
  6
CONTINUOUS
 62
    2
 10
585.85347842171666
 20
65.330228126051338
 11
590.25347842171675
 21
65.330228126051338
  0
LINE
  8
_0-0_
  6
CONTINUOUS
 62
    2
 10
475.59595830317483
 20
66.130228126051065
 11
482.59407359123918
 21
66.130228126051065
  0
LINE
  8
_0-0_
  6
CONTINUOUS
 62
    2
 10
494.88658783912763
 20
66.130228126051065
 11
514.15293440955304
 21
66.130228126051065
  0
LINE
  8
_0-0_
  6
CONTINUOUS
 62
    2
 10
518.40572621869944
 20
66.130228126051065
 11
523.60572621869937
 21
66.130228126051065
  0
LINE
  8
_0-0_
  6
CONTINUOUS
 62
    2
 10
537.63673171606888
 20
66.130228126051065
 11
542.83673171606904
 21
66.130228126051065
  0
LINE
  8
_0-0_
  6
CONTINUOUS
 62
    2
 10
546.83673171606904
 20
66.130228126051065
 11
554.41674431700073
 21
66.130228126051065
  0
LINE
  8
_0-0_
  6
CONTINUOUS
 62
    2
 10
566.33844091121739
 20
66.130228126051065
 11
575.7270349229558
 21
66.130228126051065
  0
LINE
  8
_0-0_
  6
CONTINUOUS
 62
    2
 10
585.85347842171666
 20
66.130228126051065
 11
590.25347842171675
 21
66.130228126051065
  0
LINE
  8
_0-0_
  6
CONTINUOUS
 62
    2
 10
475.96900442969866
 20
66.930228126050793
 11
482.22102746471535
 21
66.930228126050793
  0
LINE
  8
_0-0_
  6
CONTINUOUS
 62
    2
 10
494.88658783912763
 20
66.930228126050793
 11
512.81781506302116
 21
66.930228126050793
  0
LINE
  8
_0-0_
  6
CONTINUOUS
 62
    2
 10
518.03268009217538
 20
66.930228126050793
 11
523.23268009217566
 21
66.930228126050793
  0
LINE
  8
_0-0_
  6
CONTINUOUS
 62
    2
 10
538.00977784259294
 20
66.930228126050793
 11
543.20977784259276
 21
66.930228126050793
  0
LINE
  8
_0-0_
  6
CONTINUOUS
 62
    2
 10
547.20977784259287
 20
66.930228126050793
 11
554.04369819047668
 21
66.930228126050793
  0
LINE
  8
_0-0_
  6
CONTINUOUS
 62
    2
 10
566.33844091121739
 20
66.930228126050793
 11
575.22713944142845
 21
66.930228126050793
  0
LINE
  8
_0-0_
  6
CONTINUOUS
 62
    2
 10
585.85347842171666
 20
66.930228126050793
 11
590.25347842171675
 21
66.930228126050793
  0
LINE
  8
_0-0_
  6
CONTINUOUS
 62
    2
 10
476.34205055622272
 20
67.730228126051202
 11
481.84798133819129
 21
67.730228126051202
  0
LINE
  8
_0-0_
  6
CONTINUOUS
 62
    2
 10
494.88658783912763
 20
67.730228126051202
 11
510.88658783912751
 21
67.730228126051202
  0
LINE
  8
_0-0_
  6
CONTINUOUS
 62
    2
 10
517.65963396565144
 20
67.730228126051202
 11
522.8596339656516
 21
67.730228126051202
  0
LINE
  8
_0-0_
  6
CONTINUOUS
 62
    2
 10
538.382823969117
 20
67.730228126051202
 11
543.58282396911682
 21
67.730228126051202
  0
LINE
  8
_0-0_
  6
CONTINUOUS
 62
    2
 10
547.58282396911693
 20
67.730228126051202
 11
553.67065206395273
 21
67.730228126051202
  0
LINE
  8
_0-0_
  6
CONTINUOUS
 62
    2
 10
566.33844091121739
 20
67.730228126051202
 11
574.72724395990076
 21
67.730228126051202
  0
LINE
  8
_0-0_
  6
CONTINUOUS
 62
    2
 10
585.85347842171666
 20
67.730228126051202
 11
590.25347842171675
 21
67.730228126051202
  0
LINE
  8
_0-0_
  6
CONTINUOUS
 62
    2
 10
476.71509668274678
 20
68.530228126051156
 11
481.47493521166746
 21
68.530228126051156
  0
LINE
  8
_0-0_
  6
CONTINUOUS
 62
    2
 10
494.88658783912763
 20
68.530228126051156
 11
508.08658783912745
 21
68.530228126051156
  0
LINE
  8
_0-0_
  6
CONTINUOUS
 62
    2
 10
517.28658783912738
 20
68.530228126051156
 11
522.48658783912754
 21
68.530228126051156
  0
LINE
  8
_0-0_
  6
CONTINUOUS
 62
    2
 10
538.75587009564094
 20
68.530228126051156
 11
543.95587009564088
 21
68.530228126051156
  0
LINE
  8
_0-0_
  6
CONTINUOUS
 62
    2
 10
547.95587009564099
 20
68.530228126051156
 11
553.29760593742867
 21
68.530228126051156
  0
LINE
  8
_0-0_
  6
CONTINUOUS
 62
    2
 10
566.33844091121739
 20
68.530228126051156
 11
574.22734847837353
 21
68.530228126051156
  0
LINE
  8
_0-0_
  6
CONTINUOUS
 62
    2
 10
585.85347842171666
 20
68.530228126051156
 11
590.25347842171675
 21
68.530228126051156
  0
LINE
  8
_0-0_
  6
CONTINUOUS
 62
    2
 10
466.08328207681291
 20
45.730228126051429
 11
471.28328207681272
 21
45.730228126051429
  0
LINE
  8
_0-0_
  6
CONTINUOUS
 62
    2
 10
486.90674981760128
 20
45.730228126051429
 11
492.10674981760133
 21
45.730228126051429
  0
LINE
  8
_0-0_
  6
CONTINUOUS
 62
    2
 10
494.88658783912763
 20
45.730228126051429
 11
508.92949690904641
 21
45.730228126051429
  0
LINE
  8
_0-0_
  6
CONTINUOUS
 62
    2
 10
527.91840244506159
 20
45.730228126051429
 11
533.32405548970701
 21
45.730228126051429
  0
LINE
  8
_0-0_
  6
CONTINUOUS
 62
    2
 10
537.32405548970712
 20
45.730228126051429
 11
542.52405548970694
 21
45.730228126051429
  0
LINE
  8
_0-0_
  6
CONTINUOUS
 62
    2
 10
558.72942054336283
 20
45.730228126051429
 11
563.92942054336265
 21
45.730228126051429
  0
LINE
  8
_0-0_
  6
CONTINUOUS
 62
    2
 10
566.33844091121739
 20
45.730228126051429
 11
571.53844091121732
 21
45.730228126051429
  0
LINE
  8
_0-0_
  6
CONTINUOUS
 62
    2
 10
583.28598472711269
 20
45.730228126051429
 11
590.25347842171675
 21
45.730228126051429
  0
LINE
  8
_0-0_
  6
CONTINUOUS
 62
    2
 10
466.45632820333674
 20
46.530228126051156
 11
471.65632820333678
 21
46.530228126051156
  0
LINE
  8
_0-0_
  6
CONTINUOUS
 62
    2
 10
486.53370369107745
 20
46.530228126051156
 11
491.73370369107727
 21
46.530228126051156
  0
LINE
  8
_0-0_
  6
CONTINUOUS
 62
    2
 10
494.88658783912763
 20
46.530228126051156
 11
511.49683843879723
 21
46.530228126051156
  0
LINE
  8
_0-0_
  6
CONTINUOUS
 62
    2
 10
527.54535631853753
 20
46.530228126051156
 11
533.69710161623095
 21
46.530228126051156
  0
LINE
  8
_0-0_
  6
CONTINUOUS
 62
    2
 10
537.69710161623084
 20
46.530228126051156
 11
542.897101616231
 21
46.530228126051156
  0
LINE
  8
_0-0_
  6
CONTINUOUS
 62
    2
 10
558.35637441683878
 20
46.530228126051156
 11
563.55637441683859
 21
46.530228126051156
  0
LINE
  8
_0-0_
  6
CONTINUOUS
 62
    2
 10
566.33844091121739
 20
46.530228126051156
 11
571.53844091121732
 21
46.530228126051156
  0
LINE
  8
_0-0_
  6
CONTINUOUS
 62
    2
 10
582.78608924558546
 20
46.530228126051156
 11
590.25347842171675
 21
46.530228126051156
  0
LINE
  8
_0-0_
  6
CONTINUOUS
 62
    2
 10
466.8293743298608
 20
47.330228126051111
 11
472.02937432986084
 21
47.330228126051111
  0
LINE
  8
_0-0_
  6
CONTINUOUS
 62
    2
 10
486.16065756455339
 20
47.330228126051111
 11
491.36065756455321
 21
47.330228126051111
  0
LINE
  8
_0-0_
  6
CONTINUOUS
 62
    2
 10
494.88658783912763
 20
47.330228126051111
 11
513.25207896520715
 21
47.330228126051111
  0
LINE
  8
_0-0_
  6
CONTINUOUS
 62
    2
 10
527.17231019201347
 20
47.330228126051111
 11
534.07014774275501
 21
47.330228126051111
  0
LINE
  8
_0-0_
  6
CONTINUOUS
 62
    2
 10
538.0701477427549
 20
47.330228126051111
 11
543.27014774275506
 21
47.330228126051111
  0
LINE
  8
_0-0_
  6
CONTINUOUS
 62
    2
 10
557.98332829031472
 20
47.330228126051111
 11
563.18332829031453
 21
47.330228126051111
  0
LINE
  8
_0-0_
  6
CONTINUOUS
 62
    2
 10
566.33844091121739
 20
47.330228126051111
 11
571.53844091121732
 21
47.330228126051111
  0
LINE
  8
_0-0_
  6
CONTINUOUS
 62
    2
 10
582.28619376405788
 20
47.330228126051111
 11
590.25347842171675
 21
47.330228126051111
  0
LINE
  8
_0-0_
  6
CONTINUOUS
 62
    2
 10
467.20242045638486
 20
48.130228126051065
 11
472.4024204563849
 21
48.130228126051065
  0
LINE
  8
_0-0_
  6
CONTINUOUS
 62
    2
 10
485.78761143802933
 20
48.130228126051065
 11
490.98761143802938
 21
48.130228126051065
  0
LINE
  8
_0-0_
  6
CONTINUOUS
 62
    2
 10
494.88658783912763
 20
48.130228126051065
 11
514.42925419307562
 21
48.130228126051065
  0
LINE
  8
_0-0_
  6
CONTINUOUS
 62
    2
 10
526.79926406548941
 20
48.130228126051065
 11
534.44319386927884
 21
48.130228126051065
  0
LINE
  8
_0-0_
  6
CONTINUOUS
 62
    2
 10
538.44319386927884
 20
48.130228126051065
 11
543.64319386927912
 21
48.130228126051065
  0
LINE
  8
_0-0_
  6
CONTINUOUS
 62
    2
 10
557.61028216379066
 20
48.130228126051065
 11
562.81028216379059
 21
48.130228126051065
  0
LINE
  8
_0-0_
  6
CONTINUOUS
 62
    2
 10
566.33844091121739
 20
48.130228126051065
 11
571.53844091121732
 21
48.130228126051065
  0
LINE
  8
_0-0_
  6
CONTINUOUS
 62
    2
 10
581.78629828253042
 20
48.130228126051065
 11
590.25347842171675
 21
48.130228126051065
  0
LINE
  8
_0-0_
  6
CONTINUOUS
 62
    2
 10
467.57546658290869
 20
48.930228126051247
 11
472.77546658290873
 21
48.930228126051247
  0
LINE
  8
_0-0_
  6
CONTINUOUS
 62
    2
 10
485.41456531150527
 20
48.930228126051247
 11
490.61456531150532
 21
48.930228126051247
  0
LINE
  8
_0-0_
  6
CONTINUOUS
 62
    2
 10
494.88658783912763
 20
48.930228126051247
 11
515.25419705297372
 21
48.930228126051247
  0
LINE
  8
_0-0_
  6
CONTINUOUS
 62
    2
 10
526.42621793896535
 20
48.930228126051247
 11
534.8162399958029
 21
48.930228126051247
  0
LINE
  8
_0-0_
  6
CONTINUOUS
 62
    2
 10
538.8162399958029
 20
48.930228126051247
 11
544.01623999580283
 21
48.930228126051247
  0
LINE
  8
_0-0_
  6
CONTINUOUS
 62
    2
 10
557.2372360372666
 20
48.930228126051247
 11
562.43723603726653
 21
48.930228126051247
  0
LINE
  8
_0-0_
  6
CONTINUOUS
 62
    2
 10
566.33844091121739
 20
48.930228126051247
 11
571.53844091121732
 21
48.930228126051247
  0
LINE
  8
_0-0_
  6
CONTINUOUS
 62
    2
 10
581.28640280100319
 20
48.930228126051247
 11
590.25347842171675
 21
48.930228126051247
  0
LINE
  8
_0-0_
  6
CONTINUOUS
 62
    2
 10
467.94851270943275
 20
49.730228126051202
 11
473.14851270943279
 21
49.730228126051202
  0
LINE
  8
_0-0_
  6
CONTINUOUS
 62
    2
 10
485.04151918498121
 20
49.730228126051202
 11
490.24151918498126
 21
49.730228126051202
  0
LINE
  8
_0-0_
  6
CONTINUOUS
 62
    2
 10
494.88658783912763
 20
49.730228126051202
 11
500.08658783912745
 21
49.730228126051202
  0
LINE
  8
_0-0_
  6
CONTINUOUS
 62
    2
 10
508.48596711046378
 20
49.730228126051202
 11
515.81131066056435
 21
49.730228126051202
  0
LINE
  8
_0-0_
  6
CONTINUOUS
 62
    2
 10
526.05317181244129
 20
49.730228126051202
 11
535.18928612232696
 21
49.730228126051202
  0
LINE
  8
_0-0_
  6
CONTINUOUS
 62
    2
 10
539.18928612232696
 20
49.730228126051202
 11
544.38928612232689
 21
49.730228126051202
  0
LINE
  8
_0-0_
  6
CONTINUOUS
 62
    2
 10
556.86418991074254
 20
49.730228126051202
 11
562.06418991074281
 21
49.730228126051202
  0
LINE
  8
_0-0_
  6
CONTINUOUS
 62
    2
 10
566.33844091121739
 20
49.730228126051202
 11
571.53844091121732
 21
49.730228126051202
  0
LINE
  8
_0-0_
  6
CONTINUOUS
 62
    2
 10
580.78650731947562
 20
49.730228126051202
 11
590.25347842171675
 21
49.730228126051202
  0
LINE
  8
_0-0_
  6
CONTINUOUS
 62
    2
 10
468.32155883595681
 20
50.530228126051384
 11
473.52155883595685
 21
50.530228126051384
  0
LINE
  8
_0-0_
  6
CONTINUOUS
 62
    2
 10
484.66847305845738
 20
50.530228126051384
 11
489.86847305845743
 21
50.530228126051384
  0
LINE
  8
_0-0_
  6
CONTINUOUS
 62
    2
 10
494.88658783912763
 20
50.530228126051384
 11
500.08658783912745
 21
50.530228126051384
  0
LINE
  8
_0-0_
  6
CONTINUOUS
 62
    2
 10
509.79730228915321
 20
50.530228126051384
 11
516.16961390669348
 21
50.530228126051384
  0
LINE
  8
_0-0_
  6
CONTINUOUS
 62
    2
 10
525.68012568591746
 20
50.530228126051384
 11
535.56233224885102
 21
50.530228126051384
  0
LINE
  8
_0-0_
  6
CONTINUOUS
 62
    2
 10
539.56233224885102
 20
50.530228126051384
 11
544.76233224885084
 21
50.530228126051384
  0
LINE
  8
_0-0_
  6
CONTINUOUS
 62
    2
 10
556.49114378421859
 20
50.530228126051384
 11
561.69114378421875
 21
50.530228126051384
  0
LINE
  8
_0-0_
  6
CONTINUOUS
 62
    2
 10
566.33844091121739
 20
50.530228126051384
 11
571.53844091121732
 21
50.530228126051384
  0
LINE
  8
_0-0_
  6
CONTINUOUS
 62
    2
 10
580.28661183794804
 20
50.530228126051384
 11
585.47499681274132
 21
50.530228126051384
  0
LINE
  8
_0-0_
  6
CONTINUOUS
 62
    2
 10
585.85347842171666
 20
50.530228126051384
 11
590.25347842171675
 21
50.530228126051384
  0
LINE
  8
_0-0_
  6
CONTINUOUS
 62
    2
 10
468.69460496248087
 20
51.330228126051111
 11
489.49542693193337
 21
51.330228126051111
  0
LINE
  8
_0-0_
  6
CONTINUOUS
 62
    2
 10
494.88658783912763
 20
51.330228126051111
 11
500.08658783912745
 21
51.330228126051111
  0
LINE
  8
_0-0_
  6
CONTINUOUS
 62
    2
 10
510.72944859340066
 20
51.330228126051111
 11
516.43464818975235
 21
51.330228126051111
  0
LINE
  8
_0-0_
  6
CONTINUOUS
 62
    2
 10
525.3070795593934
 20
51.330228126051111
 11
530.50707955939333
 21
51.330228126051111
  0
LINE
  8
_0-0_
  6
CONTINUOUS
 62
    2
 10
530.73537837537492
 20
51.330228126051111
 11
535.93537837537508
 21
51.330228126051111
  0
LINE
  8
_0-0_
  6
CONTINUOUS
 62
    2
 10
539.93537837537508
 20
51.330228126051111
 11
561.31809765769469
 21
51.330228126051111
  0
LINE
  8
_0-0_
  6
CONTINUOUS
 62
    2
 10
566.33844091121739
 20
51.330228126051111
 11
571.53844091121732
 21
51.330228126051111
  0
LINE
  8
_0-0_
  6
CONTINUOUS
 62
    2
 10
579.7867163564207
 20
51.330228126051111
 11
584.97510133121375
 21
51.330228126051111
  0
LINE
  8
_0-0_
  6
CONTINUOUS
 62
    2
 10
585.85347842171666
 20
51.330228126051111
 11
590.25347842171675
 21
51.330228126051111
  0
LINE
  8
_0-0_
  6
CONTINUOUS
 62
    2
 10
469.06765108900493
 20
52.130228126051065
 11
489.12238080540931
 21
52.130228126051065
  0
LINE
  8
_0-0_
  6
CONTINUOUS
 62
    2
 10
494.88658783912763
 20
52.130228126051065
 11
500.08658783912745
 21
52.130228126051065
  0
LINE
  8
_0-0_
  6
CONTINUOUS
 62
    2
 10
511.27976613128715
 20
52.130228126051065
 11
516.65135962731449
 21
52.130228126051065
  0
LINE
  8
_0-0_
  6
CONTINUOUS
 62
    2
 10
524.93403343286946
 20
52.130228126051065
 11
530.13403343286927
 21
52.130228126051065
  0
LINE
  8
_0-0_
  6
CONTINUOUS
 62
    2
 10
531.10842450189887
 20
52.130228126051065
 11
536.3084245018988
 21
52.130228126051065
  0
LINE
  8
_0-0_
  6
CONTINUOUS
 62
    2
 10
540.30842450189914
 20
52.130228126051065
 11
560.94505153117063
 21
52.130228126051065
  0
LINE
  8
_0-0_
  6
CONTINUOUS
 62
    2
 10
566.33844091121739
 20
52.130228126051065
 11
571.53844091121732
 21
52.130228126051065
  0
LINE
  8
_0-0_
  6
CONTINUOUS
 62
    2
 10
579.28682087489312
 20
52.130228126051065
 11
584.4752058496864
 21
52.130228126051065
  0
LINE
  8
_0-0_
  6
CONTINUOUS
 62
    2
 10
585.85347842171666
 20
52.130228126051065
 11
590.25347842171675
 21
52.130228126051065
  0
LINE
  8
_0-0_
  6
CONTINUOUS
 62
    2
 10
469.44069721552876
 20
52.930228126051247
 11
488.74933467888525
 21
52.930228126051247
  0
LINE
  8
_0-0_
  6
CONTINUOUS
 62
    2
 10
494.88658783912763
 20
52.930228126051247
 11
500.08658783912745
 21
52.930228126051247
  0
LINE
  8
_0-0_
  6
CONTINUOUS
 62
    2
 10
511.62758197376218
 20
52.930228126051247
 11
516.84017438692001
 21
52.930228126051247
  0
LINE
  8
_0-0_
  6
CONTINUOUS
 62
    2
 10
524.5609873063454
 20
52.930228126051247
 11
529.76098730634521
 21
52.930228126051247
  0
LINE
  8
_0-0_
  6
CONTINUOUS
 62
    2
 10
531.48147062842293
 20
52.930228126051247
 11
536.68147062842286
 21
52.930228126051247
  0
LINE
  8
_0-0_
  6
CONTINUOUS
 62
    2
 10
540.68147062842297
 20
52.930228126051247
 11
560.57200540464657
 21
52.930228126051247
  0
LINE
  8
_0-0_
  6
CONTINUOUS
 62
    2
 10
566.33844091121739
 20
52.930228126051247
 11
571.53844091121732
 21
52.930228126051247
  0
LINE
  8
_0-0_
  6
CONTINUOUS
 62
    2
 10
578.78692539336578
 20
52.930228126051247
 11
583.97531036815906
 21
52.930228126051247
  0
LINE
  8
_0-0_
  6
CONTINUOUS
 62
    2
 10
585.85347842171666
 20
52.930228126051247
 11
590.25347842171675
 21
52.930228126051247
  0
LINE
  8
_0-0_
  6
CONTINUOUS
 62
    2
 10
469.81374334205282
 20
53.730228126051429
 11
488.37628855236119
 21
53.730228126051429
  0
LINE
  8
_0-0_
  6
CONTINUOUS
 62
    2
 10
494.88658783912763
 20
53.730228126051429
 11
500.08658783912745
 21
53.730228126051429
  0
LINE
  8
_0-0_
  6
CONTINUOUS
 62
    2
 10
511.84465714129237
 20
53.730228126051429
 11
516.9943762654251
 21
53.730228126051429
  0
LINE
  8
_0-0_
  6
CONTINUOUS
 62
    2
 10
524.18794117982134
 20
53.730228126051429
 11
529.3879411798215
 21
53.730228126051429
  0
LINE
  8
_0-0_
  6
CONTINUOUS
 62
    2
 10
531.85451675494699
 20
53.730228126051429
 11
537.05451675494692
 21
53.730228126051429
  0
LINE
  8
_0-0_
  6
CONTINUOUS
 62
    2
 10
541.05451675494703
 20
53.730228126051429
 11
560.19895927812252
 21
53.730228126051429
  0
LINE
  8
_0-0_
  6
CONTINUOUS
 62
    2
 10
566.33844091121739
 20
53.730228126051429
 11
571.53844091121732
 21
53.730228126051429
  0
LINE
  8
_0-0_
  6
CONTINUOUS
 62
    2
 10
578.28702991183809
 20
53.730228126051429
 11
583.47541488663148
 21
53.730228126051429
  0
LINE
  8
_0-0_
  6
CONTINUOUS
 62
    2
 10
585.85347842171666
 20
53.730228126051429
 11
590.25347842171675
 21
53.730228126051429
  0
LINE
  8
_0-0_
  6
CONTINUOUS
 62
    2
 10
470.18678946857665
 20
54.530228126051384
 11
488.00324242583736
 21
54.530228126051384
  0
LINE
  8
_0-0_
  6
CONTINUOUS
 62
    2
 10
494.88658783912763
 20
54.530228126051384
 11
500.08658783912745
 21
54.530228126051384
  0
LINE
  8
_0-0_
  6
CONTINUOUS
 62
    2
 10
511.97656164530986
 20
54.530228126051384
 11
517.11562553014778
 21
54.530228126051384
  0
LINE
  8
_0-0_
  6
CONTINUOUS
 62
    2
 10
523.81489505329728
 20
54.530228126051384
 11
529.01489505329755
 21
54.530228126051384
  0
LINE
  8
_0-0_
  6
CONTINUOUS
 62
    2
 10
532.22756288147104
 20
54.530228126051384
 11
537.42756288147086
 21
54.530228126051384
  0
LINE
  8
_0-0_
  6
CONTINUOUS
 62
    2
 10
541.42756288147075
 20
54.530228126051384
 11
559.82591315159857
 21
54.530228126051384
  0
LINE
  8
_0-0_
  6
CONTINUOUS
 62
    2
 10
566.33844091121739
 20
54.530228126051384
 11
571.53844091121732
 21
54.530228126051384
  0
LINE
  8
_0-0_
  6
CONTINUOUS
 62
    2
 10
577.78713443031086
 20
54.530228126051384
 11
582.9755194051038
 21
54.530228126051384
  0
LINE
  8
_0-0_
  6
CONTINUOUS
 62
    2
 10
585.85347842171666
 20
54.530228126051384
 11
590.25347842171675
 21
54.530228126051384
  0
LINE
  8
_0-0_
  6
CONTINUOUS
 62
    2
 10
470.55983559510071
 20
55.330228126051338
 11
475.75983559510098
 21
55.330228126051338
  0
LINE
  8
_0-0_
  6
CONTINUOUS
 62
    2
 10
482.43019629931325
 20
55.330228126051338
 11
487.6301962993133
 21
55.330228126051338
  0
LINE
  8
_0-0_
  6
CONTINUOUS
 62
    2
 10
494.88658783912763
 20
55.330228126051338
 11
500.08658783912745
 21
55.330228126051338
  0
LINE
  8
_0-0_
  6
CONTINUOUS
 62
    2
 10
512.04419244056419
 20
55.330228126051338
 11
517.20422499676113
 21
55.330228126051338
  0
LINE
  8
_0-0_
  6
CONTINUOUS
 62
    2
 10
523.44184892677322
 20
55.330228126051338
 11
528.64184892677349
 21
55.330228126051338
  0
LINE
  8
_0-0_
  6
CONTINUOUS
 62
    2
 10
532.6006090079951
 20
55.330228126051338
 11
537.80060900799492
 21
55.330228126051338
  0
LINE
  8
_0-0_
  6
CONTINUOUS
 62
    2
 10
541.80060900799481
 20
55.330228126051338
 11
547.00060900799497
 21
55.330228126051338
  0
LINE
  8
_0-0_
  6
CONTINUOUS
 62
    2
 10
554.25286702507458
 20
55.330228126051338
 11
559.45286702507451
 21
55.330228126051338
  0
LINE
  8
_0-0_
  6
CONTINUOUS
 62
    2
 10
566.33844091121739
 20
55.330228126051338
 11
571.53844091121732
 21
55.330228126051338
  0
LINE
  8
_0-0_
  6
CONTINUOUS
 62
    2
 10
577.28723894878328
 20
55.330228126051338
 11
582.47562392357656
 21
55.330228126051338
  0
LINE
  8
_0-0_
  6
CONTINUOUS
 62
    2
 10
585.85347842171666
 20
55.330228126051338
 11
590.25347842171675
 21
55.330228126051338
  0
LINE
  8
_0-0_
  6
CONTINUOUS
 62
    2
 10
470.93288172162477
 20
56.130228126051293
 11
476.13288172162481
 21
56.130228126051293
  0
LINE
  8
_0-0_
  6
CONTINUOUS
 62
    2
 10
482.05715017278919
 20
56.130228126051293
 11
487.25715017278947
 21
56.130228126051293
  0
LINE
  8
_0-0_
  6
CONTINUOUS
 62
    2
 10
494.88658783912763
 20
56.130228126051293
 11
500.08658783912745
 21
56.130228126051293
  0
LINE
  8
_0-0_
  6
CONTINUOUS
 62
    2
 10
512.07426749142701
 20
56.130228126051293
 11
517.25952082192555
 21
56.130228126051293
  0
LINE
  8
_0-0_
  6
CONTINUOUS
 62
    2
 10
523.0688028002495
 20
56.130228126051293
 11
528.26880280024943
 21
56.130228126051293
  0
LINE
  8
_0-0_
  6
CONTINUOUS
 62
    2
 10
532.97365513451882
 20
56.130228126051293
 11
538.17365513451898
 21
56.130228126051293
  0
LINE
  8
_0-0_
  6
CONTINUOUS
 62
    2
 10
542.17365513451887
 20
56.130228126051293
 11
547.37365513451903
 21
56.130228126051293
  0
LINE
  8
_0-0_
  6
CONTINUOUS
 62
    2
 10
553.87982089855063
 20
56.130228126051293
 11
559.07982089855079
 21
56.130228126051293
  0
LINE
  8
_0-0_
  6
CONTINUOUS
 62
    2
 10
566.33844091121739
 20
56.130228126051293
 11
571.53844091121732
 21
56.130228126051293
  0
LINE
  8
_0-0_
  6
CONTINUOUS
 62
    2
 10
576.78734346725582
 20
56.130228126051293
 11
581.97572844204899
 21
56.130228126051293
  0
LINE
  8
_0-0_
  6
CONTINUOUS
 62
    2
 10
585.85347842171666
 20
56.130228126051293
 11
590.25347842171675
 21
56.130228126051293
  0
LINE
  8
_0-0_
  6
CONTINUOUS
 62
    2
 10
471.30592784814883
 20
56.930228126050793
 11
476.50592784814887
 21
56.930228126050793
  0
LINE
  8
_0-0_
  6
CONTINUOUS
 62
    2
 10
481.68410404626513
 20
56.930228126050793
 11
486.88410404626541
 21
56.930228126050793
  0
LINE
  8
_0-0_
  6
CONTINUOUS
 62
    2
 10
494.88658783912763
 20
56.930228126050793
 11
500.08658783912745
 21
56.930228126050793
  0
LINE
  8
_0-0_
  6
CONTINUOUS
 62
    2
 10
512.08611001512259
 20
56.930228126050793
 11
517.28529227804677
 21
56.930228126050793
  0
LINE
  8
_0-0_
  6
CONTINUOUS
 62
    2
 10
522.69575667372544
 20
56.930228126050793
 11
527.89575667372537
 21
56.930228126050793
  0
LINE
  8
_0-0_
  6
CONTINUOUS
 62
    2
 10
533.34670126104288
 20
56.930228126050793
 11
538.54670126104304
 21
56.930228126050793
  0
LINE
  8
_0-0_
  6
CONTINUOUS
 62
    2
 10
542.54670126104293
 20
56.930228126050793
 11
547.74670126104309
 21
56.930228126050793
  0
LINE
  8
_0-0_
  6
CONTINUOUS
 62
    2
 10
553.50677477202657
 20
56.930228126050793
 11
558.70677477202673
 21
56.930228126050793
  0
LINE
  8
_0-0_
  6
CONTINUOUS
 62
    2
 10
566.33844091121739
 20
56.930228126050793
 11
571.53844091121732
 21
56.930228126050793
  0
LINE
  8
_0-0_
  6
CONTINUOUS
 62
    2
 10
576.28744798572836
 20
56.930228126050793
 11
581.47583296052153
 21
56.930228126050793
  0
LINE
  8
_0-0_
  6
CONTINUOUS
 62
    2
 10
585.85347842171666
 20
56.930228126050793
 11
590.25347842171675
 21
56.930228126050793
  0
LINE
  8
_0-0_
  6
CONTINUOUS
 62
    2
 10
471.67897397467289
 20
57.730228126051657
 11
476.8789739746727
 21
57.730228126051657
  0
LINE
  8
_0-0_
  6
CONTINUOUS
 62
    2
 10
481.3110579197413
 20
57.730228126051657
 11
486.51105791974135
 21
57.730228126051657
  0
LINE
  8
_0-0_
  6
CONTINUOUS
 62
    2
 10
494.88658783912763
 20
57.730228126051657
 11
500.08658783912745
 21
57.730228126051657
  0
LINE
  8
_0-0_
  6
CONTINUOUS
 62
    2
 10
512.07966776721071
 20
57.730228126051657
 11
517.26905774836086
 21
57.730228126051657
  0
LINE
  8
_0-0_
  6
CONTINUOUS
 62
    2
 10
522.3227105472015
 20
57.730228126051657
 11
527.52271054720131
 21
57.730228126051657
  0
LINE
  8
_0-0_
  6
CONTINUOUS
 62
    2
 10
533.71974738756694
 20
57.730228126051657
 11
538.9197473875671
 21
57.730228126051657
  0
LINE
  8
_0-0_
  6
CONTINUOUS
 62
    2
 10
542.91974738756699
 20
57.730228126051657
 11
548.1197473875668
 21
57.730228126051657
  0
LINE
  8
_0-0_
  6
CONTINUOUS
 62
    2
 10
553.13372864550286
 20
57.730228126051657
 11
558.33372864550267
 21
57.730228126051657
  0
LINE
  8
_0-0_
  6
CONTINUOUS
 62
    2
 10
566.33844091121739
 20
57.730228126051657
 11
571.53844091121732
 21
57.730228126051657
  0
LINE
  8
_0-0_
  6
CONTINUOUS
 62
    2
 10
575.78755250420102
 20
57.730228126051657
 11
580.97593747899407
 21
57.730228126051657
  0
LINE
  8
_0-0_
  6
CONTINUOUS
 62
    2
 10
585.85347842171666
 20
57.730228126051657
 11
590.25347842171675
 21
57.730228126051657
  0
LINE
  8
_0-0_
  6
CONTINUOUS
 62
    2
 10
472.05202010119694
 20
58.530228126051156
 11
477.25202010119676
 21
58.530228126051156
  0
LINE
  8
_0-0_
  6
CONTINUOUS
 62
    2
 10
480.93801179321747
 20
58.530228126051156
 11
486.13801179321729
 21
58.530228126051156
  0
LINE
  8
_0-0_
  6
CONTINUOUS
 62
    2
 10
494.88658783912763
 20
58.530228126051156
 11
500.08658783912745
 21
58.530228126051156
  0
LINE
  8
_0-0_
  6
CONTINUOUS
 62
    2
 10
512.05559805129872
 20
58.530228126051156
 11
517.22233697576178
 21
58.530228126051156
  0
LINE
  8
_0-0_
  6
CONTINUOUS
 62
    2
 10
521.94966442067744
 20
58.530228126051156
 11
527.14966442067725
 21
58.530228126051156
  0
LINE
  8
_0-0_
  6
CONTINUOUS
 62
    2
 10
534.09279351409089
 20
58.530228126051156
 11
539.29279351409082
 21
58.530228126051156
  0
LINE
  8
_0-0_
  6
CONTINUOUS
 62
    2
 10
543.29279351409104
 20
58.530228126051156
 11
548.49279351409086
 21
58.530228126051156
  0
LINE
  8
_0-0_
  6
CONTINUOUS
 62
    2
 10
552.7606825189788
 20
58.530228126051156
 11
557.96068251897862
 21
58.530228126051156
  0
LINE
  8
_0-0_
  6
CONTINUOUS
 62
    2
 10
566.33844091121739
 20
58.530228126051156
 11
571.53844091121732
 21
58.530228126051156
  0
LINE
  8
_0-0_
  6
CONTINUOUS
 62
    2
 10
575.28765702267344
 20
58.530228126051156
 11
580.47604199746672
 21
58.530228126051156
  0
LINE
  8
_0-0_
  6
CONTINUOUS
 62
    2
 10
585.85347842171666
 20
58.530228126051156
 11
590.25347842171675
 21
58.530228126051156
  0
LINE
  8
_0-0_
  6
CONTINUOUS
 62
    2
 10
472.42506622772078
 20
59.330228126051338
 11
477.62506622772082
 21
59.330228126051338
  0
LINE
  8
_0-0_
  6
CONTINUOUS
 62
    2
 10
480.56496566669341
 20
59.330228126051338
 11
485.76496566669323
 21
59.330228126051338
  0
LINE
  8
_0-0_
  6
CONTINUOUS
 62
    2
 10
494.88658783912763
 20
59.330228126051338
 11
500.08658783912745
 21
59.330228126051338
  0
LINE
  8
_0-0_
  6
CONTINUOUS
 62
    2
 10
511.99173527457799
 20
59.330228126051338
 11
517.14160958208413
 21
59.330228126051338
  0
LINE
  8
_0-0_
  6
CONTINUOUS
 62
    2
 10
521.57661829415338
 20
59.330228126051338
 11
526.77661829415354
 21
59.330228126051338
  0
LINE
  8
_0-0_
  6
CONTINUOUS
 62
    2
 10
534.46583964061494
 20
59.330228126051338
 11
539.66583964061488
 21
59.330228126051338
  0
LINE
  8
_0-0_
  6
CONTINUOUS
 62
    2
 10
543.66583964061499
 20
59.330228126051338
 11
548.86583964061492
 21
59.330228126051338
  0
LINE
  8
_0-0_
  6
CONTINUOUS
 62
    2
 10
552.38763639245474
 20
59.330228126051338
 11
557.58763639245478
 21
59.330228126051338
  0
LINE
  8
_0-0_
  6
CONTINUOUS
 62
    2
 10
566.33844091121739
 20
59.330228126051338
 11
571.53844091121732
 21
59.330228126051338
  0
LINE
  8
_0-0_
  6
CONTINUOUS
 62
    2
 10
574.7877615411461
 20
59.330228126051338
 11
579.97614651593915
 21
59.330228126051338
  0
LINE
  8
_0-0_
  6
CONTINUOUS
 62
    2
 10
585.85347842171666
 20
59.330228126051338
 11
590.25347842171675
 21
59.330228126051338
  0
LINE
  8
_0-0_
  6
CONTINUOUS
 62
    2
 10
472.79811235424484
 20
60.130228126051293
 11
477.99811235424488
 21
60.130228126051293
  0
LINE
  8
_0-0_
  6
CONTINUOUS
 62
    2
 10
480.19191954016935
 20
60.130228126051293
 11
485.3919195401694
 21
60.130228126051293
  0
LINE
  8
_0-0_
  6
CONTINUOUS
 62
    2
 10
494.88658783912763
 20
60.130228126051293
 11
500.08658783912745
 21
60.130228126051293
  0
LINE
  8
_0-0_
  6
CONTINUOUS
 62
    2
 10
511.8753687064592
 20
60.130228126051293
 11
517.02415988095902
 21
60.130228126051293
  0
LINE
  8
_0-0_
  6
CONTINUOUS
 62
    2
 10
521.20357216762932
 20
60.130228126051293
 11
526.40357216762948
 21
60.130228126051293
  0
LINE
  8
_0-0_
  6
CONTINUOUS
 62
    2
 10
534.838885767139
 20
60.130228126051293
 11
540.03888576713882
 21
60.130228126051293
  0
LINE
  8
_0-0_
  6
CONTINUOUS
 62
    2
 10
544.03888576713871
 20
60.130228126051293
 11
549.23888576713898
 21
60.130228126051293
  0
LINE
  8
_0-0_
  6
CONTINUOUS
 62
    2
 10
552.01459026593068
 20
60.130228126051293
 11
557.21459026593072
 21
60.130228126051293
  0
LINE
  8
_0-0_
  6
CONTINUOUS
 62
    2
 10
566.33844091121739
 20
60.130228126051293
 11
571.53844091121732
 21
60.130228126051293
  0
LINE
  8
_0-0_
  6
CONTINUOUS
 62
    2
 10
574.28786605961852
 20
60.130228126051293
 11
579.4762510344118
 21
60.130228126051293
  0
LINE
  8
_0-0_
  6
CONTINUOUS
 62
    2
 10
585.85347842171666
 20
60.130228126051293
 11
590.25347842171675
 21
60.130228126051293
  0
LINE
  8
_0-0_
  6
CONTINUOUS
 62
    2
 10
473.17115848076867
 20
60.930228126051247
 11
478.37115848076894
 21
60.930228126051247
  0
LINE
  8
_0-0_
  6
CONTINUOUS
 62
    2
 10
479.81887341364529
 20
60.930228126051247
 11
485.01887341364534
 21
60.930228126051247
  0
LINE
  8
_0-0_
  6
CONTINUOUS
 62
    2
 10
494.88658783912763
 20
60.930228126051247
 11
500.08658783912745
 21
60.930228126051247
  0
LINE
  8
_0-0_
  6
CONTINUOUS
 62
    2
 10
511.6814876936204
 20
60.930228126051247
 11
516.87477108400265
 21
60.930228126051247
  0
LINE
  8
_0-0_
  6
CONTINUOUS
 62
    2
 10
520.83052604110526
 20
60.930228126051247
 11
526.03052604110542
 21
60.930228126051247
  0
LINE
  8
_0-0_
  6
CONTINUOUS
 62
    2
 10
535.21193189366306
 20
60.930228126051247
 11
540.41193189366288
 21
60.930228126051247
  0
LINE
  8
_0-0_
  6
CONTINUOUS
 62
    2
 10
544.41193189366277
 20
60.930228126051247
 11
549.61193189366304
 21
60.930228126051247
  0
LINE
  8
_0-0_
  6
CONTINUOUS
 62
    2
 10
551.64154413940662
 20
60.930228126051247
 11
556.84154413940666
 21
60.930228126051247
  0
LINE
  8
_0-0_
  6
CONTINUOUS
 62
    2
 10
566.33844091121739
 20
60.930228126051247
 11
571.53844091121732
 21
60.930228126051247
  0
LINE
  8
_0-0_
  6
CONTINUOUS
 62
    2
 10
573.78797057809095
 20
60.930228126051247
 11
578.97635555288423
 21
60.930228126051247
  0
LINE
  8
_0-0_
  6
CONTINUOUS
 62
    2
 10
585.85347842171666
 20
60.930228126051247
 11
590.25347842171675
 21
60.930228126051247
  0
LINE
  8
_0-0_
  6
CONTINUOUS
 62
    2
 10
473.54420460729273
 20
61.730228126051657
 11
478.74420460729277
 21
61.730228126051657
  0
LINE
  8
_0-0_
  6
CONTINUOUS
 62
    2
 10
479.44582728712123
 20
61.730228126051657
 11
484.64582728712128
 21
61.730228126051657
  0
LINE
  8
_0-0_
  6
CONTINUOUS
 62
    2
 10
494.88658783912763
 20
61.730228126051657
 11
500.08658783912745
 21
61.730228126051657
  0
LINE
  8
_0-0_
  6
CONTINUOUS
 62
    2
 10
511.36800020477926
 20
61.730228126051657
 11
516.69391366752291
 21
61.730228126051657
  0
LINE
  8
_0-0_
  6
CONTINUOUS
 62
    2
 10
520.45747991458154
 20
61.730228126051657
 11
525.65747991458159
 21
61.730228126051657
  0
LINE
  8
_0-0_
  6
CONTINUOUS
 62
    2
 10
535.58497802018712
 20
61.730228126051657
 11
540.78497802018694
 21
61.730228126051657
  0
LINE
  8
_0-0_
  6
CONTINUOUS
 62
    2
 10
544.78497802018683
 20
61.730228126051657
 11
549.98497802018699
 21
61.730228126051657
  0
LINE
  8
_0-0_
  6
CONTINUOUS
 62
    2
 10
551.26849801288279
 20
61.730228126051657
 11
556.46849801288272
 21
61.730228126051657
  0
LINE
  8
_0-0_
  6
CONTINUOUS
 62
    2
 10
566.33844091121739
 20
61.730228126051657
 11
571.53844091121732
 21
61.730228126051657
  0
LINE
  8
_0-0_
  6
CONTINUOUS
 62
    2
 10
573.28807509656349
 20
61.730228126051657
 11
578.47646007135688
 21
61.730228126051657
  0
LINE
  8
_0-0_
  6
CONTINUOUS
 62
    2
 10
585.85347842171666
 20
61.730228126051657
 11
590.25347842171675
 21
61.730228126051657
  0
LINE
  8
_0-0_
  6
CONTINUOUS
 62
    2
 10
473.91725073381679
 20
62.530228126051156
 11
484.27278116059745
 21
62.530228126051156
  0
LINE
  8
_0-0_
  6
CONTINUOUS
 62
    2
 10
494.88658783912763
 20
62.530228126051156
 11
500.08658783912745
 21
62.530228126051156
  0
LINE
  8
_0-0_
  6
CONTINUOUS
 62
    2
 10
510.88658783912751
 20
62.530228126051156
 11
516.48658783912742
 21
62.530228126051156
  0
LINE
  8
_0-0_
  6
CONTINUOUS
 62
    2
 10
520.08443378805748
 20
62.530228126051156
 11
525.28443378805753
 21
62.530228126051156
  0
LINE
  8
_0-0_
  6
CONTINUOUS
 62
    2
 10
535.95802414671095
 20
62.530228126051156
 11
541.158024146711
 21
62.530228126051156
  0
LINE
  8
_0-0_
  6
CONTINUOUS
 62
    2
 10
545.15802414671089
 20
62.530228126051156
 11
550.3580241467107
 21
62.530228126051156
  0
LINE
  8
_0-0_
  6
CONTINUOUS
 62
    2
 10
550.89545188635873
 20
62.530228126051156
 11
556.09545188635866
 21
62.530228126051156
  0
LINE
  8
_0-0_
  6
CONTINUOUS
 62
    2
 10
566.33844091121739
 20
62.530228126051156
 11
571.53844091121732
 21
62.530228126051156
  0
LINE
  8
_0-0_
  6
CONTINUOUS
 62
    2
 10
572.78817961503626
 20
62.530228126051156
 11
577.9765645898292
 21
62.530228126051156
  0
LINE
  8
_0-0_
  6
CONTINUOUS
 62
    2
 10
585.85347842171666
 20
62.530228126051156
 11
590.25347842171675
 21
62.530228126051156
  0
LINE
  8
_0-0_
  6
CONTINUOUS
 62
    2
 10
474.29029686034085
 20
63.330228126051338
 11
483.89973503407339
 21
63.330228126051338
  0
LINE
  8
_0-0_
  6
CONTINUOUS
 62
    2
 10
494.88658783912763
 20
63.330228126051338
 11
500.08658783912745
 21
63.330228126051338
  0
LINE
  8
_0-0_
  6
CONTINUOUS
 62
    2
 10
510.03678773072897
 20
63.330228126051338
 11
516.23538233161878
 21
63.330228126051338
  0
LINE
  8
_0-0_
  6
CONTINUOUS
 62
    2
 10
519.71138766153342
 20
63.330228126051338
 11
524.91138766153347
 21
63.330228126051338
  0
LINE
  8
_0-0_
  6
CONTINUOUS
 62
    2
 10
536.33107027323501
 20
63.330228126051338
 11
541.53107027323506
 21
63.330228126051338
  0
LINE
  8
_0-0_
  6
CONTINUOUS
 62
    2
 10
545.53107027323495
 20
63.330228126051338
 11
555.7224057598346
 21
63.330228126051338
  0
LINE
  8
_0-0_
  6
CONTINUOUS
 62
    2
 10
566.33844091121739
 20
63.330228126051338
 11
571.53844091121732
 21
63.330228126051338
  0
LINE
  8
_0-0_
  6
CONTINUOUS
 62
    2
 10
572.28828413350868
 20
63.330228126051338
 11
577.47666910830196
 21
63.330228126051338
  0
LINE
  8
_0-0_
  6
CONTINUOUS
 62
    2
 10
585.85347842171666
 20
63.330228126051338
 11
590.25347842171675
 21
63.330228126051338
  0
LINE
  8
_0-0_
  6
CONTINUOUS
 62
    2
 10
474.6633429868649
 20
64.130228126051065
 11
483.52668890754933
 21
64.130228126051065
  0
LINE
  8
_0-0_
  6
CONTINUOUS
 62
    2
 10
494.88658783912763
 20
64.130228126051065
 11
500.08658783912745
 21
64.130228126051065
  0
LINE
  8
_0-0_
  6
CONTINUOUS
 62
    2
 10
508.80524993806193
 20
64.130228126051065
 11
515.90313585554588
 21
64.130228126051065
  0
LINE
  8
_0-0_
  6
CONTINUOUS
 62
    2
 10
519.33834153500959
 20
64.130228126051065
 11
524.53834153500941
 21
64.130228126051065
  0
LINE
  8
_0-0_
  6
CONTINUOUS
 62
    2
 10
536.70411639975873
 20
64.130228126051065
 11
541.90411639975912
 21
64.130228126051065
  0
LINE
  8
_0-0_
  6
CONTINUOUS
 62
    2
 10
545.90411639975889
 20
64.130228126051065
 11
555.34935963331054
 21
64.130228126051065
  0
LINE
  8
_0-0_
  6
CONTINUOUS
 62
    2
 10
566.33844091121739
 20
64.130228126051065
 11
571.53844091121732
 21
64.130228126051065
  0
LINE
  8
_0-0_
  6
CONTINUOUS
 62
    2
 10
571.78838865198122
 20
64.130228126051065
 11
576.97677362677439
 21
64.130228126051065
  0
LINE
  8
_0-0_
  6
CONTINUOUS
 62
    2
 10
585.85347842171666
 20
64.130228126051065
 11
590.25347842171675
 21
64.130228126051065
  0
LINE
  8
_0-0_
  6
CONTINUOUS
 62
    2
 10
475.03638911338896
 20
64.930228126051247
 11
483.15364278102527
 21
64.930228126051247
  0
LINE
  8
_0-0_
  6
CONTINUOUS
 62
    2
 10
494.88658783912763
 20
64.930228126051247
 11
515.41081162181752
 21
64.930228126051247
  0
LINE
  8
_0-0_
  6
CONTINUOUS
 62
    2
 10
518.96529540848553
 20
64.930228126051247
 11
524.16529540848535
 21
64.930228126051247
  0
LINE
  8
_0-0_
  6
CONTINUOUS
 62
    2
 10
537.07716252628279
 20
64.930228126051247
 11
542.27716252628295
 21
64.930228126051247
  0
LINE
  8
_0-0_
  6
CONTINUOUS
 62
    2
 10
546.27716252628295
 20
64.930228126051247
 11
554.97631350678648
 21
64.930228126051247
  0
LINE
  8
_0-0_
  6
CONTINUOUS
 62
    2
 10
566.33844091121739
 20
64.930228126051247
 11
576.47687814524693
 21
64.930228126051247
  0
LINE
  8
_0-0_
  6
CONTINUOUS
 62
    2
 10
585.85347842171666
 20
64.930228126051247
 11
590.25347842171675
 21
64.930228126051247
  0
LINE
  8
_0-0_
  6
CONTINUOUS
 62
    2
 10
475.4094352399128
 20
65.730228126051429
 11
482.78059665450121
 21
65.730228126051429
  0
LINE
  8
_0-0_
  6
CONTINUOUS
 62
    2
 10
494.88658783912763
 20
65.730228126051429
 11
514.65416708083558
 21
65.730228126051429
  0
LINE
  8
_0-0_
  6
CONTINUOUS
 62
    2
 10
518.59224928196147
 20
65.730228126051429
 11
523.7922492819614
 21
65.730228126051429
  0
LINE
  8
_0-0_
  6
CONTINUOUS
 62
    2
 10
537.45020865280685
 20
65.730228126051429
 11
542.65020865280701
 21
65.730228126051429
  0
LINE
  8
_0-0_
  6
CONTINUOUS
 62
    2
 10
546.65020865280701
 20
65.730228126051429
 11
554.60326738026242
 21
65.730228126051429
  0
LINE
  8
_0-0_
  6
CONTINUOUS
 62
    2
 10
566.33844091121739
 20
65.730228126051429
 11
575.97698266371947
 21
65.730228126051429
  0
LINE
  8
_0-0_
  6
CONTINUOUS
 62
    2
 10
585.85347842171666
 20
65.730228126051429
 11
590.25347842171675
 21
65.730228126051429
  0
LINE
  8
_0-0_
  6
CONTINUOUS
 62
    2
 10
475.78248136643663
 20
66.530228126051156
 11
482.40755052797738
 21
66.530228126051156
  0
LINE
  8
_0-0_
  6
CONTINUOUS
 62
    2
 10
494.88658783912763
 20
66.530228126051156
 11
513.54310363468483
 21
66.530228126051156
  0
LINE
  8
_0-0_
  6
CONTINUOUS
 62
    2
 10
518.21920315543741
 20
66.530228126051156
 11
523.41920315543734
 21
66.530228126051156
  0
LINE
  8
_0-0_
  6
CONTINUOUS
 62
    2
 10
537.82325477933091
 20
66.530228126051156
 11
543.02325477933073
 21
66.530228126051156
  0
LINE
  8
_0-0_
  6
CONTINUOUS
 62
    2
 10
547.02325477933084
 20
66.530228126051156
 11
554.2302212537387
 21
66.530228126051156
  0
LINE
  8
_0-0_
  6
CONTINUOUS
 62
    2
 10
566.33844091121739
 20
66.530228126051156
 11
575.47708718219212
 21
66.530228126051156
  0
LINE
  8
_0-0_
  6
CONTINUOUS
 62
    2
 10
585.85347842171666
 20
66.530228126051156
 11
590.25347842171675
 21
66.530228126051156
  0
LINE
  8
_0-0_
  6
CONTINUOUS
 62
    2
 10
476.15552749296069
 20
67.330228126050883
 11
482.03450440145332
 21
67.330228126050883
  0
LINE
  8
_0-0_
  6
CONTINUOUS
 62
    2
 10
494.88658783912763
 20
67.330228126050883
 11
511.93883984221168
 21
67.330228126050883
  0
LINE
  8
_0-0_
  6
CONTINUOUS
 62
    2
 10
517.84615702891335
 20
67.330228126050883
 11
523.04615702891363
 21
67.330228126050883
  0
LINE
  8
_0-0_
  6
CONTINUOUS
 62
    2
 10
538.19630090585497
 20
67.330228126050883
 11
543.39630090585479
 21
67.330228126050883
  0
LINE
  8
_0-0_
  6
CONTINUOUS
 62
    2
 10
547.3963009058549
 20
67.330228126050883
 11
553.85717512721465
 21
67.330228126050883
  0
LINE
  8
_0-0_
  6
CONTINUOUS
 62
    2
 10
566.33844091121739
 20
67.330228126050883
 11
574.97719170066455
 21
67.330228126050883
  0
LINE
  8
_0-0_
  6
CONTINUOUS
 62
    2
 10
585.85347842171666
 20
67.330228126050883
 11
590.25347842171675
 21
67.330228126050883
  0
LINE
  8
_0-0_
  6
CONTINUOUS
 62
    2
 10
476.52857361948475
 20
68.130228126051065
 11
481.66145827492949
 21
68.130228126051065
  0
LINE
  8
_0-0_
  6
CONTINUOUS
 62
    2
 10
494.88658783912763
 20
68.130228126051065
 11
509.58525716367421
 21
68.130228126051065
  0
LINE
  8
_0-0_
  6
CONTINUOUS
 62
    2
 10
517.47311090238941
 20
68.130228126051065
 11
522.67311090238957
 21
68.130228126051065
  0
LINE
  8
_0-0_
  6
CONTINUOUS
 62
    2
 10
538.56934703237903
 20
68.130228126051065
 11
543.76934703237885
 21
68.130228126051065
  0
LINE
  8
_0-0_
  6
CONTINUOUS
 62
    2
 10
547.76934703237896
 20
68.130228126051065
 11
553.4841290006907
 21
68.130228126051065
  0
LINE
  8
_0-0_
  6
CONTINUOUS
 62
    2
 10
566.33844091121739
 20
68.130228126051065
 11
574.4772962191372
 21
68.130228126051065
  0
LINE
  8
_0-0_
  6
CONTINUOUS
 62
    2
 10
585.85347842171666
 20
68.130228126051065
 11
590.25347842171675
 21
68.130228126051065
  0
LINE
  8
_0-0_
  6
CONTINUOUS
 62
    7
 10
422.75153672040835
 20
46.005966998549752
 11
439.56693592920044
 21
46.005966998549752
  0
LINE
  8
_0-0_
  6
CONTINUOUS
 62
    7
 10
422.75153672040835
 20
46.405966998549843
 11
439.56693592920044
 21
46.405966998549843
  0
LINE
  8
_0-0_
  6
CONTINUOUS
 62
    7
 10
422.75153672040835
 20
46.805966998549479
 11
439.56693592920044
 21
46.805966998549479
  0
LINE
  8
_0-0_
  6
CONTINUOUS
 62
    7
 10
422.75153672040835
 20
47.205966998549343
 11
439.56693592920044
 21
47.205966998549343
  0
LINE
  8
_0-0_
  6
CONTINUOUS
 62
    7
 10
422.75153672040835
 20
47.605966998549434
 11
439.56693592920044
 21
47.605966998549434
  0
LINE
  8
_0-0_
  6
CONTINUOUS
 62
    7
 10
422.75153672040835
 20
48.005966998549525
 11
439.56693592920044
 21
48.005966998549525
  0
LINE
  8
_0-0_
  6
CONTINUOUS
 62
    7
 10
422.75153672040835
 20
48.405966998549843
 11
439.56693592920044
 21
48.405966998549843
  0
LINE
  8
_0-0_
  6
CONTINUOUS
 62
    7
 10
422.75153672040835
 20
48.805966998549479
 11
439.56693592920044
 21
48.805966998549479
  0
LINE
  8
_0-0_
  6
CONTINUOUS
 62
    7
 10
422.75153672040835
 20
49.205966998549343
 11
439.56693592920044
 21
49.205966998549343
  0
LINE
  8
_0-0_
  6
CONTINUOUS
 62
    7
 10
422.75153672040835
 20
49.605966998548979
 11
439.56693592920044
 21
49.605966998548979
  0
LINE
  8
_0-0_
  6
CONTINUOUS
 62
    7
 10
422.75153672040835
 20
50.005966998549525
 11
439.56693592920044
 21
50.005966998549525
  0
LINE
  8
_0-0_
  6
CONTINUOUS
 62
    7
 10
422.75153672040835
 20
50.405966998549161
 11
439.56693592920044
 21
50.405966998549161
  0
LINE
  8
_0-0_
  6
CONTINUOUS
 62
    7
 10
422.75153672040835
 20
50.805966998549479
 11
439.56693592920044
 21
50.805966998549479
  0
LINE
  8
_0-0_
  6
CONTINUOUS
 62
    7
 10
422.75153672040835
 20
51.205966998549343
 11
439.56693592920044
 21
51.205966998549343
  0
LINE
  8
_0-0_
  6
CONTINUOUS
 62
    7
 10
422.75153672040835
 20
51.605966998548979
 11
439.56693592920044
 21
51.605966998548979
  0
LINE
  8
_0-0_
  6
CONTINUOUS
 62
    7
 10
422.75153672040835
 20
52.005966998549525
 11
439.56693592920044
 21
52.005966998549525
  0
LINE
  8
_0-0_
  6
CONTINUOUS
 62
    7
 10
422.75153672040835
 20
52.405966998549161
 11
439.56693592920044
 21
52.405966998549161
  0
LINE
  8
_0-0_
  6
CONTINUOUS
 62
    7
 10
422.75153672040835
 20
52.805966998549252
 11
439.56693592920044
 21
52.805966998549252
  0
LINE
  8
_0-0_
  6
CONTINUOUS
 62
    7
 10
422.75153672040835
 20
53.205966998548888
 11
439.56693592920044
 21
53.205966998548888
  0
LINE
  8
_0-0_
  6
CONTINUOUS
 62
    7
 10
422.75153672040835
 20
53.605966998548979
 11
439.56693592920044
 21
53.605966998548979
  0
LINE
  8
_0-0_
  6
CONTINUOUS
 62
    7
 10
422.75153672040835
 20
54.00596699854907
 11
439.56693592920044
 21
54.00596699854907
  0
LINE
  8
_0-0_
  6
CONTINUOUS
 62
    7
 10
422.75153672040835
 20
54.405966998549161
 11
439.56693592920044
 21
54.405966998549161
  0
LINE
  8
_0-0_
  6
CONTINUOUS
 62
    7
 10
422.75153672040835
 20
54.805966998549252
 11
439.56693592920044
 21
54.805966998549252
  0
LINE
  8
_0-0_
  6
CONTINUOUS
 62
    7
 10
422.75153672040835
 20
55.205966998548888
 11
439.56693592920044
 21
55.205966998548888
  0
LINE
  8
_0-0_
  6
CONTINUOUS
 62
    7
 10
422.75153672040835
 20
55.605966998548979
 11
439.56693592920044
 21
55.605966998548979
  0
LINE
  8
_0-0_
  6
CONTINUOUS
 62
    7
 10
422.75153672040835
 20
56.005966998548615
 11
439.56693592920044
 21
56.005966998548615
  0
LINE
  8
_0-0_
  6
CONTINUOUS
 62
    7
 10
422.75153672040835
 20
56.405966998549161
 11
439.56693592920044
 21
56.405966998549161
  0
LINE
  8
_0-0_
  6
CONTINUOUS
 62
    7
 10
422.75153672040835
 20
56.805966998548797
 11
439.56693592920044
 21
56.805966998548797
  0
LINE
  8
_0-0_
  6
CONTINUOUS
 62
    7
 10
422.75153672040835
 20
57.205966998548661
 11
439.56693592920044
 21
57.205966998548661
  0
LINE
  8
_0-0_
  6
CONTINUOUS
 62
    7
 10
422.75153672040835
 20
57.605966998548979
 11
439.56693592920044
 21
57.605966998548979
  0
LINE
  8
_0-0_
  6
CONTINUOUS
 62
    7
 10
422.75153672040835
 20
58.00596699854907
 11
439.56693592920044
 21
58.00596699854907
  0
LINE
  8
_0-0_
  6
CONTINUOUS
 62
    7
 10
422.75153672040835
 20
58.405966998548706
 11
439.56693592920044
 21
58.405966998548706
  0
LINE
  8
_0-0_
  6
CONTINUOUS
 62
    7
 10
422.75153672040835
 20
58.805966998548797
 11
439.56693592920044
 21
58.805966998548797
  0
LINE
  8
_0-0_
  6
CONTINUOUS
 62
    7
 10
422.75153672040835
 20
59.205966998548661
 11
439.56693592920044
 21
59.205966998548661
  0
LINE
  8
_0-0_
  6
CONTINUOUS
 62
    7
 10
422.75153672040835
 20
59.605966998548979
 11
439.56693592920044
 21
59.605966998548979
  0
LINE
  8
_0-0_
  6
CONTINUOUS
 62
    7
 10
422.75153672040835
 20
60.00596699854907
 11
439.56693592920044
 21
60.00596699854907
  0
LINE
  8
_0-0_
  6
CONTINUOUS
 62
    7
 10
422.75153672040835
 20
60.405966998548706
 11
439.56693592920044
 21
60.405966998548706
  0
LINE
  8
_0-0_
  6
CONTINUOUS
 62
    7
 10
422.75153672040835
 20
60.805966998548797
 11
439.56693592920044
 21
60.805966998548797
  0
LINE
  8
_0-0_
  6
CONTINUOUS
 62
    7
 10
422.75153672040835
 20
61.205966998548661
 11
439.56693592920044
 21
61.205966998548661
  0
LINE
  8
_0-0_
  6
CONTINUOUS
 62
    7
 10
422.75153672040835
 20
61.605966998548979
 11
439.56693592920044
 21
61.605966998548979
  0
LINE
  8
_0-0_
  6
CONTINUOUS
 62
    7
 10
422.75153672040835
 20
62.005966998548615
 11
439.56693592920044
 21
62.005966998548615
  0
LINE
  8
_0-0_
  6
CONTINUOUS
 62
    7
 10
422.75153672040835
 20
62.405966998548706
 11
439.56693592920044
 21
62.405966998548706
  0
LINE
  8
_0-0_
  6
CONTINUOUS
 62
    7
 10
460.67618689607173
 20
81.205966998549229
 11
466.5304179433557
 21
81.205966998549229
  0
LINE
  8
_0-0_
  6
CONTINUOUS
 62
    7
 10
459.58699319893333
 20
82.005966998548843
 11
467.6196116404941
 21
82.005966998548843
  0
LINE
  8
_0-0_
  6
CONTINUOUS
 62
    7
 10
458.86901533239563
 20
82.805966998549138
 11
468.33758950703179
 21
82.805966998549138
  0
LINE
  8
_0-0_
  6
CONTINUOUS
 62
    7
 10
458.36725346144942
 20
83.605966998548809
 11
468.83935137797801
 21
83.605966998548809
  0
LINE
  8
_0-0_
  6
CONTINUOUS
 62
    7
 10
458.02307454250388
 20
84.405966998549388
 11
469.18353029692355
 21
84.405966998549388
  0
LINE
  8
_0-0_
  6
CONTINUOUS
 62
    7
 10
457.80833239134211
 20
85.205966998548774
 11
469.39827244808532
 21
85.205966998548774
  0
LINE
  8
_0-0_
  6
CONTINUOUS
 62
    7
 10
457.70886333715737
 20
86.005966998548899
 11
469.49774150227006
 21
86.005966998548899
  0
LINE
  8
_0-0_
  6
CONTINUOUS
 62
    7
 10
457.71881887685288
 20
86.80596699854874
 11
469.48778596257455
 21
86.80596699854874
  0
LINE
  8
_0-0_
  6
CONTINUOUS
 62
    7
 10
457.83876592191962
 20
87.605966998548865
 11
469.36783891750804
 21
87.605966998548865
  0
LINE
  8
_0-0_
  6
CONTINUOUS
 62
    7
 10
458.07586037998124
 20
88.405966998548593
 11
469.13074445944642
 21
88.405966998548593
  0
LINE
  8
_0-0_
  6
CONTINUOUS
 62
    7
 10
458.44623445712625
 20
89.205966998548831
 11
468.76037038230118
 21
89.205966998548831
  0
LINE
  8
_0-0_
  6
CONTINUOUS
 62
    7
 10
458.98182165712626
 20
90.005966998548956
 11
468.22478318230117
 21
90.005966998548956
  0
LINE
  8
_0-0_
  6
CONTINUOUS
 62
    7
 10
459.75092407547038
 20
90.805966998548797
 11
467.45568076395705
 21
90.805966998548797
  0
LINE
  8
_0-0_
  6
CONTINUOUS
 62
    7
 10
460.94933305753204
 20
91.605966998548354
 11
466.25727178189538
 21
91.605966998548354
  0
LINE
  8
_0-0_
  6
CONTINUOUS
 62
    7
 10
469.19615077241508
 20
84.442914627619814
 11
469.19615077241508
 21
88.222437454733154
  0
LINE
  8
_0-0_
  6
CONTINUOUS
 62
    7
 10
468.39615077241513
 20
82.885973912398185
 11
468.39615077241513
 21
89.779378169954782
  0
LINE
  8
_0-0_
  6
CONTINUOUS
 62
    7
 10
467.59615077241517
 20
81.98430704477903
 11
467.59615077241517
 21
90.681045037574108
  0
LINE
  8
_0-0_
  6
CONTINUOUS
 62
    7
 10
466.79615077241522
 20
81.367107564841717
 11
466.79615077241522
 21
91.298244517511193
  0
LINE
  8
_0-0_
  6
CONTINUOUS
 62
    7
 10
465.99615077241526
 20
80.935878133390361
 11
465.99615077241526
 21
91.72947394896255
  0
LINE
  8
_0-0_
  6
CONTINUOUS
 62
    7
 10
465.19615077241508
 20
80.648136919855801
 11
465.19615077241508
 21
92.017215162497337
  0
LINE
  8
_0-0_
  6
CONTINUOUS
 62
    7
 10
464.39615077241513
 20
80.482672418435243
 11
464.39615077241513
 21
92.182679663917952
  0
LINE
  8
_0-0_
  6
CONTINUOUS
 62
    7
 10
463.59615077241517
 20
80.429194038962919
 11
463.59615077241517
 21
92.236158043390219
  0
LINE
  8
_0-0_
  6
CONTINUOUS
 62
    7
 10
439.19615077241508
 20
45.92371528860042
 11
439.19615077241508
 21
62.762792131568062
  0
LINE
  8
_0-0_
  6
CONTINUOUS
 62
    7
 10
438.79615077241522
 20
45.92371528860042
 11
438.79615077241522
 21
62.762792131568062
  0
LINE
  8
_0-0_
  6
CONTINUOUS
 62
    7
 10
438.39615077241524
 20
45.92371528860042
 11
438.39615077241524
 21
62.762792131568062
  0
LINE
  8
_0-0_
  6
CONTINUOUS
 62
    7
 10
437.99615077241504
 20
45.92371528860042
 11
437.99615077241526
 21
62.762792131568062
  0
LINE
  8
_0-0_
  6
CONTINUOUS
 62
    7
 10
437.59615077241517
 20
45.92371528860042
 11
437.59615077241517
 21
62.762792131568062
  0
LINE
  8
_0-0_
  6
CONTINUOUS
 62
    7
 10
437.19615077241497
 20
45.92371528860042
 11
437.19615077241497
 21
62.762792131568062
  0
LINE
  8
_0-0_
  6
CONTINUOUS
 62
    7
 10
436.79615077241522
 20
45.92371528860042
 11
436.79615077241522
 21
62.762792131568062
  0
LINE
  8
_0-0_
  6
CONTINUOUS
 62
    7
 10
436.39615077241513
 20
45.92371528860042
 11
436.39615077241513
 21
62.762792131568062
  0
LINE
  8
_0-0_
  6
CONTINUOUS
 62
    7
 10
435.99615077241515
 20
45.92371528860042
 11
435.99615077241515
 21
62.762792131568062
  0
LINE
  8
_0-0_
  6
CONTINUOUS
 62
    7
 10
435.59615077241517
 20
45.92371528860042
 11
435.59615077241517
 21
62.762792131568062
  0
LINE
  8
_0-0_
  6
CONTINUOUS
 62
    7
 10
435.19615077241508
 20
45.92371528860042
 11
435.19615077241508
 21
62.762792131568062
  0
LINE
  8
_0-0_
  6
CONTINUOUS
 62
    7
 10
434.79615077241488
 20
45.92371528860042
 11
434.79615077241488
 21
62.762792131568062
  0
LINE
  8
_0-0_
  6
CONTINUOUS
 62
    7
 10
434.39615077241524
 20
45.92371528860042
 11
434.39615077241524
 21
62.762792131568062
  0
LINE
  8
_0-0_
  6
CONTINUOUS
 62
    7
 10
433.99615077241526
 20
45.92371528860042
 11
433.99615077241526
 21
62.762792131568062
  0
LINE
  8
_0-0_
  6
CONTINUOUS
 62
    7
 10
433.59615077241506
 20
45.92371528860042
 11
433.59615077241506
 21
62.762792131568062
  0
LINE
  8
_0-0_
  6
CONTINUOUS
 62
    7
 10
433.19615077241508
 20
45.92371528860042
 11
433.19615077241508
 21
62.762792131568062
  0
LINE
  8
_0-0_
  6
CONTINUOUS
 62
    7
 10
432.79615077241522
 20
45.92371528860042
 11
432.79615077241522
 21
62.762792131568062
  0
LINE
  8
_0-0_
  6
CONTINUOUS
 62
    7
 10
432.39615077241501
 20
45.92371528860042
 11
432.39615077241501
 21
62.762792131568062
  0
LINE
  8
_0-0_
  6
CONTINUOUS
 62
    7
 10
431.99615077241515
 20
45.92371528860042
 11
431.99615077241515
 21
62.762792131568062
  0
LINE
  8
_0-0_
  6
CONTINUOUS
 62
    7
 10
431.59615077241517
 20
45.92371528860042
 11
431.59615077241517
 21
62.762792131568062
  0
LINE
  8
_0-0_
  6
CONTINUOUS
 62
    7
 10
431.19615077241497
 20
45.92371528860042
 11
431.19615077241497
 21
62.762792131568062
  0
LINE
  8
_0-0_
  6
CONTINUOUS
 62
    7
 10
430.7961507724151
 20
45.92371528860042
 11
430.7961507724151
 21
62.762792131568062
  0
LINE
  8
_0-0_
  6
CONTINUOUS
 62
    7
 10
430.39615077241513
 20
45.92371528860042
 11
430.39615077241513
 21
62.762792131568062
  0
LINE
  8
_0-0_
  6
CONTINUOUS
 62
    7
 10
429.99615077241526
 20
45.92371528860042
 11
429.99615077241526
 21
62.762792131568062
  0
LINE
  8
_0-0_
  6
CONTINUOUS
 62
    7
 10
429.59615077241506
 20
45.92371528860042
 11
429.59615077241506
 21
62.762792131568062
  0
LINE
  8
_0-0_
  6
CONTINUOUS
 62
    7
 10
429.19615077241508
 20
45.92371528860042
 11
429.19615077241508
 21
62.762792131568062
  0
LINE
  8
_0-0_
  6
CONTINUOUS
 62
    7
 10
428.79615077241522
 20
45.92371528860042
 11
428.79615077241522
 21
62.762792131568062
  0
LINE
  8
_0-0_
  6
CONTINUOUS
 62
    7
 10
428.39615077241524
 20
45.92371528860042
 11
428.39615077241524
 21
62.762792131568062
  0
LINE
  8
_0-0_
  6
CONTINUOUS
 62
    7
 10
427.99615077241526
 20
45.92371528860042
 11
427.99615077241526
 21
62.762792131568062
  0
LINE
  8
_0-0_
  6
CONTINUOUS
 62
    7
 10
427.59615077241517
 20
45.92371528860042
 11
427.59615077241517
 21
62.762792131568062
  0
LINE
  8
_0-0_
  6
CONTINUOUS
 62
    7
 10
427.19615077241497
 20
45.92371528860042
 11
427.19615077241497
 21
62.762792131568062
  0
LINE
  8
_0-0_
  6
CONTINUOUS
 62
    7
 10
426.79615077241522
 20
45.92371528860042
 11
426.79615077241522
 21
62.762792131568062
  0
LINE
  8
_0-0_
  6
CONTINUOUS
 62
    7
 10
426.39615077241513
 20
45.92371528860042
 11
426.39615077241513
 21
62.762792131568062
  0
LINE
  8
_0-0_
  6
CONTINUOUS
 62
    7
 10
425.99615077241515
 20
45.92371528860042
 11
425.99615077241515
 21
62.762792131568062
  0
LINE
  8
_0-0_
  6
CONTINUOUS
 62
    7
 10
425.59615077241517
 20
45.92371528860042
 11
425.59615077241517
 21
62.762792131568062
  0
LINE
  8
_0-0_
  6
CONTINUOUS
 62
    7
 10
425.19615077241531
 20
45.92371528860042
 11
425.19615077241531
 21
62.762792131568062
  0
LINE
  8
_0-0_
  6
CONTINUOUS
 62
    7
 10
424.79615077241488
 20
45.92371528860042
 11
424.79615077241488
 21
62.762792131568062
  0
LINE
  8
_0-0_
  6
CONTINUOUS
 62
    7
 10
424.39615077241513
 20
45.92371528860042
 11
424.39615077241513
 21
62.762792131568062
  0
LINE
  8
_0-0_
  6
CONTINUOUS
 62
    7
 10
423.99615077241526
 20
45.92371528860042
 11
423.99615077241526
 21
62.762792131568062
  0
LINE
  8
_0-0_
  6
CONTINUOUS
 62
    7
 10
423.59615077241506
 20
45.92371528860042
 11
423.59615077241506
 21
62.762792131568062
  0
LINE
  8
_0-0_
  6
CONTINUOUS
 62
    7
 10
423.19615077241508
 20
45.92371528860042
 11
423.19615077241508
 21
62.762792131568062
  0
LINE
  8
_0-0_
  6
CONTINUOUS
 62
    7
 10
422.79615077241522
 20
45.92371528860042
 11
422.79615077241522
 21
62.762792131568062
  0
LINE
  8
_0-0_
  6
CONTINUOUS
 62
    4
 10
431.99514096235282
 20
75.071325663332118
 11
409.23450740178578
 21
45.436051762022657
  0
LINE
  8
_0-0_
  6
CONTINUOUS
 62
    4
 10
409.23450740178578
 20
45.436051762022657
 11
407.00489431830147
 21
44.507046310570445
  0
LINE
  8
_0-0_
  6
CONTINUOUS
 62
    4
 10
407.00489431830147
 20
44.507046310570445
 11
404.9610823251079
 21
43.763841949409539
  0
LINE
  8
_0-0_
  6
CONTINUOUS
 62
    4
 10
404.9610823251079
 20
43.763841949409539
 11
403.84627578336597
 21
44.785747946005927
  0
LINE
  8
_0-0_
  6
CONTINUOUS
 62
    4
 10
403.84627578336597
 20
44.785747946005927
 11
402.91727033191421
 21
46.086355578038479
  0
LINE
  8
_0-0_
  6
CONTINUOUS
 62
    4
 10
402.91727033191421
 20
46.086355578038479
 11
402.17406597075251
 21
48.594670296958043
  0
LINE
  8
_0-0_
  6
CONTINUOUS
 62
    4
 10
402.17406597075251
 20
48.594670296958043
 11
402.91727033191421
 21
50.917183925587665
  0
LINE
  8
_0-0_
  6
CONTINUOUS
 62
    4
 10
402.91727033191421
 20
50.917183925587665
 11
405.70428668626914
 21
54.911907366829951
  0
LINE
  8
_0-0_
  6
CONTINUOUS
 62
    4
 10
405.70428668626914
 20
54.911907366829951
 11
426.69980988907821
 21
83.339474181252513
  0
LINE
  8
_0-0_
  6
CONTINUOUS
 62
    4
 10
426.69980988907821
 20
83.339474181252513
 11
426.69980988907821
 21
85.383286174445857
  0
LINE
  8
_0-0_
  6
CONTINUOUS
 62
    4
 10
426.69980988907821
 20
85.383286174445857
 11
427.25721315994917
 21
86.683893806478409
  0
LINE
  8
_0-0_
  6
CONTINUOUS
 62
    4
 10
427.25721315994917
 20
86.683893806478409
 11
428.74362188227178
 21
88.356103619091641
  0
LINE
  8
_0-0_
  6
CONTINUOUS
 62
    4
 10
428.74362188227178
 20
88.356103619091641
 11
429.20812460799777
 21
88.820606344816895
  0
LINE
  8
_0-0_
  6
CONTINUOUS
 62
    4
 10
429.20812460799777
 20
88.820606344816895
 11
430.04422951430433
 21
90.028313431704646
  0
LINE
  8
_0-0_
  6
CONTINUOUS
 62
    4
 10
430.04422951430433
 20
90.028313431704646
 11
431.43773769148174
 21
90.214114521994816
  0
LINE
  8
_0-0_
  6
CONTINUOUS
 62
    4
 10
431.43773769148174
 20
90.214114521994816
 11
433.85315186525622
 21
90.678617247720865
  0
LINE
  8
_0-0_
  6
CONTINUOUS
 62
    4
 10
433.85315186525622
 20
90.678617247720865
 11
434.78215731670798
 21
90.585716702575496
  0
LINE
  8
_0-0_
  6
CONTINUOUS
 62
    4
 10
434.78215731670798
 20
90.585716702575496
 11
436.73306876475669
 21
89.935412886559334
  0
LINE
  8
_0-0_
  6
CONTINUOUS
 62
    4
 10
436.73306876475669
 20
89.935412886559334
 11
437.47627312591794
 21
89.006407435107917
  0
LINE
  8
_0-0_
  6
CONTINUOUS
 62
    4
 10
437.47627312591794
 20
89.006407435107917
 11
439.52008511911174
 21
86.312291625897615
  0
LINE
  8
_0-0_
  6
CONTINUOUS
 62
    4
 10
439.52008511911174
 20
86.312291625897615
 11
445.83732218898342
 21
75.814530024493251
  0
LINE
  8
_0-0_
  6
CONTINUOUS
 62
    4
 10
450.31277339212568
 20
68.253959184063774
 11
459.30426011624252
 21
52.732541722657174
  0
LINE
  8
_0-0_
  6
CONTINUOUS
 62
    4
 10
459.30426011624252
 20
52.732541722657174
 11
460.1664770458766
 21
50.515412475026665
  0
LINE
  8
_0-0_
  6
CONTINUOUS
 62
    4
 10
460.1664770458766
 20
50.515412475026665
 11
459.79695550460485
 21
49.406847851211865
  0
LINE
  8
_0-0_
  6
CONTINUOUS
 62
    4
 10
459.79695550460485
 20
49.406847851211865
 11
458.68839088078983
 21
47.867174762579566
  0
LINE
  8
_0-0_
  6
CONTINUOUS
 62
    4
 10
458.68839088078983
 20
47.867174762579566
 11
454.37730623261962
 21
46.573849368128435
  0
LINE
  8
_0-0_
  6
CONTINUOUS
 62
    4
 10
454.37730623261962
 20
46.573849368128435
 11
451.79065544371758
 21
45.650045514949056
  0
LINE
  8
_0-0_
  6
CONTINUOUS
 62
    4
 10
451.79065544371758
 20
45.650045514949056
 11
449.51193927254201
 21
46.573849368128435
  0
LINE
  8
_0-0_
  6
CONTINUOUS
 62
    4
 10
449.51193927254201
 20
46.573849368128435
 11
446.0014846304606
 21
50.330651704391016
  0
LINE
  8
_0-0_
  6
CONTINUOUS
 62
    4
 10
446.0014846304606
 20
50.330651704391016
 11
445.87831078337001
 21
52.363020181385423
  0
LINE
  8
_0-0_
  6
CONTINUOUS
 62
    4
 10
445.87831078337001
 20
52.363020181385423
 11
431.99514096235282
 21
75.071325663332118
  0
LINE
  8
_0-0_
  6
CONTINUOUS
 62
    4
 10
458.25617902396414
 20
47.737511205533906
 11
459.46637222308061
 21
48.947704404650835
  0
LINE
  8
_0-0_
  6
CONTINUOUS
 62
    4
 10
456.63993495268562
 20
47.252637984148464
 11
460.09262211722887
 21
50.705325148691941
  0
LINE
  8
_0-0_
  6
CONTINUOUS
 62
    4
 10
455.02369088139983
 20
46.767764762762567
 11
459.77583827925662
 21
51.519912160619583
  0
LINE
  8
_0-0_
  6
CONTINUOUS
 62
    4
 10
453.3212370836701
 20
46.196681814932958
 11
459.45905444128414
 21
52.334499172547453
  0
LINE
  8
_0-0_
  6
CONTINUOUS
 62
    4
 10
451.68575652318907
 20
45.692572104352507
 11
459.09205023225479
 21
53.098865813417774
  0
LINE
  8
_0-0_
  6
CONTINUOUS
 62
    4
 10
450.88074264922727
 20
46.018929080283328
 11
458.67705632129775
 21
53.815242752354038
  0
LINE
  8
_0-0_
  6
CONTINUOUS
 62
    4
 10
450.07572877526047
 20
46.345286056216423
 11
458.26206241033844
 21
54.531619691294622
  0
LINE
  8
_0-0_
  6
CONTINUOUS
 62
    4
 10
449.34817632330157
 20
46.7491044541581
 11
457.84706849937868
 21
55.247996630235207
  0
LINE
  8
_0-0_
  6
CONTINUOUS
 62
    4
 10
448.80166667546848
 20
47.333965656224905
 11
457.43207458841891
 21
55.964373569175336
  0
LINE
  8
_0-0_
  6
CONTINUOUS
 62
    4
 10
448.25515702763539
 20
47.918826858291482
 11
457.0170806774596
 21
56.680750508116148
  0
LINE
  8
_0-0_
  6
CONTINUOUS
 62
    4
 10
447.70864737980594
 20
48.50368806035533
 11
456.60208676650257
 21
57.39712744705173
  0
LINE
  8
_0-0_
  6
CONTINUOUS
 62
    4
 10
447.16213773197262
 20
49.088549262422134
 11
456.18709285554303
 21
58.113504385992314
  0
LINE
  8
_0-0_
  6
CONTINUOUS
 62
    4
 10
446.61562808413953
 20
49.673410464489393
 11
455.77209894458304
 21
58.829881324932671
  0
LINE
  8
_0-0_
  6
CONTINUOUS
 62
    4
 10
446.06911843630644
 20
50.258271666555743
 11
455.35710503362327
 21
59.546258263873256
  0
LINE
  8
_0-0_
  6
CONTINUOUS
 62
    4
 10
445.94483565867802
 20
51.265359738820393
 11
454.94211112266669
 21
60.262635202809292
  0
LINE
  8
_0-0_
  6
CONTINUOUS
 62
    4
 10
445.88018589582646
 20
52.332080825868957
 11
454.52711721170715
 21
60.979012141749649
  0
LINE
  8
_0-0_
  6
CONTINUOUS
 62
    4
 10
445.46150756125405
 20
53.044773341196674
 11
454.11212330074738
 21
61.695389080690006
  0
LINE
  8
_0-0_
  6
CONTINUOUS
 62
    4
 10
445.03225420347951
 20
53.746890833322482
 11
453.69712938978739
 21
62.411766019630363
  0
LINE
  8
_0-0_
  6
CONTINUOUS
 62
    4
 10
444.60300084570565
 20
54.449008325448744
 11
453.28213547882785
 21
63.12814295857072
  0
LINE
  8
_0-0_
  6
CONTINUOUS
 62
    4
 10
444.17374748793384
 20
55.151125817569778
 11
452.86714156787104
 21
63.844519897506984
  0
LINE
  8
_0-0_
  6
CONTINUOUS
 62
    4
 10
443.74449413015975
 20
55.853243309695813
 11
452.45214765691151
 21
64.560896836447341
  0
LINE
  8
_0-0_
  6
CONTINUOUS
 62
    4
 10
443.31524077238521
 20
56.555360801821394
 11
452.03715374595174
 21
65.277273775387926
  0
LINE
  8
_0-0_
  6
CONTINUOUS
 62
    4
 10
442.88598741461067
 20
57.257478293947202
 11
451.62215983499198
 21
65.993650714328055
  0
LINE
  8
_0-0_
  6
CONTINUOUS
 62
    4
 10
442.45673405683931
 20
57.959595786068689
 11
451.20716592403517
 21
66.710027653264092
  0
LINE
  8
_0-0_
  6
CONTINUOUS
 62
    4
 10
442.02748069906545
 20
58.66171327819518
 11
450.79217201307563
 21
67.426404592205358
  0
LINE
  8
_0-0_
  6
CONTINUOUS
 62
    4
 10
441.59822734129114
 20
59.363830770320533
 11
450.37717810211586
 21
68.14278153114526
  0
LINE
  8
_0-0_
  6
CONTINUOUS
 62
    4
 10
441.16897398351659
 20
60.065948262446113
 11
449.35698490513403
 21
68.253959184063547
  0
LINE
  8
_0-0_
  6
CONTINUOUS
 62
    4
 10
440.73972062574501
 20
60.768065754567147
 11
448.22561405524277
 21
68.253959184064684
  0
LINE
  8
_0-0_
  6
CONTINUOUS
 62
    4
 10
440.31046726797092
 20
61.470183246693637
 11
447.09424320534129
 21
68.253959184063774
  0
LINE
  8
_0-0_
  6
CONTINUOUS
 62
    4
 10
439.88121391019661
 20
62.172300738819217
 11
445.96287235544207
 21
68.253959184064684
  0
LINE
  8
_0-0_
  6
CONTINUOUS
 62
    4
 10
439.45196055242252
 20
62.874418230944798
 11
444.83150150554286
 21
68.253959184065593
  0
LINE
  8
_0-0_
  6
CONTINUOUS
 62
    4
 10
439.02270719464821
 20
63.576535723071061
 11
443.70013065564137
 21
68.253959184064229
  0
LINE
  8
_0-0_
  6
CONTINUOUS
 62
    4
 10
438.59345383687662
 20
64.278653215192321
 11
442.56875980574989
 21
68.253959184065593
  0
LINE
  8
_0-0_
  6
CONTINUOUS
 62
    4
 10
438.16420047910253
 20
64.980770707318356
 11
441.5198109252616
 21
68.336381153477419
  0
LINE
  8
_0-0_
  6
CONTINUOUS
 62
    4
 10
437.73494712132822
 20
65.682888199443937
 11
443.06529224732287
 21
71.01323332543825
  0
LINE
  8
_0-0_
  6
CONTINUOUS
 62
    4
 10
437.30569376355368
 20
66.38500569156929
 11
444.61077356938961
 21
73.690085497405448
  0
LINE
  8
_0-0_
  6
CONTINUOUS
 62
    4
 10
436.87644040578198
 20
67.087123183691006
 11
445.74960784598363
 21
75.960290623891922
  0
LINE
  8
_0-0_
  6
CONTINUOUS
 62
    4
 10
436.44718704800823
 20
67.789240675817268
 11
445.32456244381103
 21
76.666616071619558
  0
LINE
  8
_0-0_
  6
CONTINUOUS
 62
    4
 10
436.0179336902338
 20
68.491358167942622
 11
444.89951704163821
 21
77.372941519347364
  0
LINE
  8
_0-0_
  6
CONTINUOUS
 62
    4
 10
435.58868033245926
 20
69.19347566006843
 11
444.47447163946561
 21
78.079266967074545
  0
LINE
  8
_0-0_
  6
CONTINUOUS
 62
    4
 10
435.15942697468495
 20
69.895593152194465
 11
444.04942623729346
 21
78.785592414802068
  0
LINE
  8
_0-0_
  6
CONTINUOUS
 62
    4
 10
434.73017361691382
 20
70.597710644315953
 11
443.62438083512382
 21
79.491917862525497
  0
LINE
  8
_0-0_
  6
CONTINUOUS
 62
    4
 10
407.86759851538545
 20
44.866506392687938
 11
411.87442715424493
 21
48.873335031547072
  0
LINE
  8
_0-0_
  6
CONTINUOUS
 62
    4
 10
434.30092025913962
 20
71.299828136441306
 11
443.19933543295144
 21
80.198243310253474
  0
LINE
  8
_0-0_
  6
CONTINUOUS
 62
    4
 10
406.01783802054922
 20
44.148116747751033
 11
415.62018199512477
 21
53.750460722327375
  0
LINE
  8
_0-0_
  6
CONTINUOUS
 62
    4
 10
433.87166690136507
 20
72.001945628567228
 11
442.77429003077884
 21
80.904568757980996
  0
LINE
  8
_0-0_
  6
CONTINUOUS
 62
    4
 10
404.72166148016822
 20
43.983311057270498
 11
419.36593683601393
 21
58.627586413116319
  0
LINE
  8
_0-0_
  6
CONTINUOUS
 62
    4
 10
433.44241354359076
 20
72.704063120693149
 11
442.34924462860602
 21
81.610894205708462
  0
LINE
  8
_0-0_
  6
CONTINUOUS
 62
    4
 10
404.13138103674589
 20
44.524401463741583
 11
423.11169167687251
 21
63.504712103867973
  0
LINE
  8
_0-0_
  6
CONTINUOUS
 62
    4
 10
433.0131601858194
 20
73.406180612814751
 11
441.92419922643683
 21
82.317219653431835
  0
LINE
  8
_0-0_
  6
CONTINUOUS
 62
    4
 10
403.60255948575923
 20
45.126950762654928
 11
426.85744651776486
 21
68.381837794660328
  0
LINE
  8
_0-0_
  6
CONTINUOUS
 62
    4
 10
432.58390682804531
 20
74.108298104940786
 11
441.499153824264
 21
83.023545101159471
  0
LINE
  8
_0-0_
  6
CONTINUOUS
 62
    4
 10
403.13115496496778
 20
45.78691709176303
 11
430.60320135864868
 21
73.258963485443928
  0
LINE
  8
_0-0_
  6
CONTINUOUS
 62
    4
 10
432.15465347027077
 20
74.810415597065969
 11
441.07410842209185
 21
83.729870548887106
  0
LINE
  8
_0-0_
  6
CONTINUOUS
 62
    4
 10
402.77600227921118
 20
46.563135255906786
 11
440.64906301991925
 21
84.436195996614799
  0
LINE
  8
_0-0_
  6
CONTINUOUS
 62
    4
 10
402.51740322780654
 20
47.435907054402492
 11
440.22401761774665
 21
85.142521444342094
  0
LINE
  8
_0-0_
  6
CONTINUOUS
 62
    4
 10
402.25880417640212
 20
48.308678852890921
 11
439.79897221557724
 21
85.848846892065922
  0
LINE
  8
_0-0_
  6
CONTINUOUS
 62
    4
 10
402.5320147708394
 20
49.71326029722843
 11
439.35226436555797
 21
86.533509891946778
  0
LINE
  8
_0-0_
  6
CONTINUOUS
 62
    4
 10
403.63889213794266
 20
51.951508514231705
 11
438.86422203814971
 21
87.176838414438294
  0
LINE
  8
_0-0_
  6
CONTINUOUS
 62
    4
 10
406.37202217767992
 20
55.816009403869316
 11
438.37617971074189
 21
87.820166936930377
  0
LINE
  8
_0-0_
  6
CONTINUOUS
 62
    4
 10
409.5681448286158
 20
60.143502904698266
 11
437.88813738333693
 21
88.463495459418937
  0
LINE
  8
_0-0_
  6
CONTINUOUS
 62
    4
 10
412.76426747958578
 20
64.470996405567689
 11
437.39778662956587
 21
89.104515555547891
  0
LINE
  8
_0-0_
  6
CONTINUOUS
 62
    4
 10
415.96039013055054
 20
68.798489906432565
 11
436.89495514072132
 21
89.733054916603123
  0
LINE
  8
_0-0_
  6
CONTINUOUS
 62
    4
 10
419.15651278152507
 20
73.12598340730716
 11
436.15772388677249
 21
90.12719451255407
  0
LINE
  8
_0-0_
  6
CONTINUOUS
 62
    4
 10
422.3526354324855
 20
77.453476908167886
 11
435.30919574934762
 21
90.41003722503001
  0
LINE
  8
_0-0_
  6
CONTINUOUS
 62
    4
 10
425.54875808343479
 20
81.780970409009512
 11
434.39247282606527
 21
90.624685151640278
  0
LINE
  8
_0-0_
  6
CONTINUOUS
 62
    4
 10
426.69980988907935
 20
84.063393064554816
 11
433.18691078819438
 21
90.550493963669396
  0
LINE
  8
_0-0_
  6
CONTINUOUS
 62
    4
 10
426.69980988907878
 20
85.194763914454086
 11
431.78616592641481
 21
90.28111995179006
  0
LINE
  8
_0-0_
  6
CONTINUOUS
 62
    4
 10
429.23927166951853
 20
88.865596544793789
 11
430.4570284090654
 21
90.083353284340717
  0
LINE
  8
_0-0_
  6
CONTINUOUS
 62
    4
 10
402.88524145734198
 20
46.194453029712918
 11
405.22124714763584
 21
43.858447339419058
  0
LINE
  8
_0-0_
  6
CONTINUOUS
 62
    4
 10
402.40887478370189
 20
47.802190553253126
 11
406.05091910422891
 21
44.160146232725879
  0
LINE
  8
_0-0_
  6
CONTINUOUS
 62
    4
 10
402.31314473903024
 20
49.029291447824676
 11
406.88059106082176
 21
44.461845126033154
  0
LINE
  8
_0-0_
  6
CONTINUOUS
 62
    4
 10
402.58741646021838
 20
49.886390576536655
 11
407.68385884151235
 21
44.789948195242346
  0
LINE
  8
_0-0_
  6
CONTINUOUS
 62
    4
 10
402.86168818140402
 20
50.743489705244087
 11
408.48247355908404
 21
45.122704327563611
  0
LINE
  8
_0-0_
  6
CONTINUOUS
 62
    4
 10
403.28799409042585
 20
51.448554646122034
 11
409.26317308497926
 21
45.473375651568517
  0
LINE
  8
_0-0_
  6
CONTINUOUS
 62
    4
 10
403.75294101504267
 20
52.114978571405686
 11
409.75463737261327
 21
46.11328221383485
  0
LINE
  8
_0-0_
  6
CONTINUOUS
 62
    4
 10
404.21788793965914
 20
52.781402496689111
 11
410.24610166024729
 21
46.753188776101183
  0
LINE
  8
_0-0_
  6
CONTINUOUS
 62
    4
 10
404.68283486427288
 20
53.447826421968443
 11
410.73756594787835
 21
47.393095338362741
  0
LINE
  8
_0-0_
  6
CONTINUOUS
 62
    4
 10
405.14778178888901
 20
54.114250347252096
 11
411.22903023551157
 21
48.033001900629301
  0
LINE
  8
_0-0_
  6
CONTINUOUS
 62
    4
 10
405.61272871350536
 20
54.780674272536203
 11
411.72049452314593
 21
48.672908462895634
  0
LINE
  8
_0-0_
  6
CONTINUOUS
 62
    4
 10
406.09026230830352
 20
55.434511527638392
 11
412.21195881077972
 21
49.312815025162195
  0
LINE
  8
_0-0_
  6
CONTINUOUS
 62
    4
 10
406.57088225581458
 20
56.085262430019725
 11
412.70342309841067
 21
49.952721587423753
  0
LINE
  8
_0-0_
  6
CONTINUOUS
 62
    4
 10
407.0515022033286
 20
56.736013332405832
 11
413.19488738604434
 21
50.592628149690086
  0
LINE
  8
_0-0_
  6
CONTINUOUS
 62
    4
 10
407.53212215084261
 20
57.386764234792395
 11
413.68635167367813
 21
51.232534711955964
  0
LINE
  8
_0-0_
  6
CONTINUOUS
 62
    4
 10
408.01274209835617
 20
58.037515137178275
 11
414.17781596131226
 21
51.872441274222297
  0
LINE
  8
_0-0_
  6
CONTINUOUS
 62
    4
 10
408.4933620458703
 20
58.68826603956461
 11
414.66928024894639
 21
52.51234783648863
  0
LINE
  8
_0-0_
  6
CONTINUOUS
 62
    4
 10
408.97398199338147
 20
59.339016941946397
 11
415.16074453657723
 21
53.152254398751097
  0
LINE
  8
_0-0_
  6
CONTINUOUS
 62
    4
 10
409.45460194089526
 20
59.989767844332732
 11
415.65220882421079
 21
53.79216096101743
  0
LINE
  8
_0-0_
  6
CONTINUOUS
 62
    4
 10
409.93522188840905
 20
60.640518746719067
 11
416.14367311184481
 21
54.432067523283081
  0
LINE
  8
_0-0_
  6
CONTINUOUS
 62
    4
 10
410.41584183592306
 20
61.291269649104947
 11
416.63513739947871
 21
55.071974085549414
  0
LINE
  8
_0-0_
  6
CONTINUOUS
 62
    4
 10
410.89646178343412
 20
61.942020551486735
 11
417.12660168710966
 21
55.711880647811199
  0
LINE
  8
_0-0_
  6
CONTINUOUS
 62
    4
 10
411.37708173094791
 20
62.59277145387307
 11
417.6180659747431
 21
56.351787210077532
  0
LINE
  8
_0-0_
  6
CONTINUOUS
 62
    4
 10
411.85770167846192
 20
63.243522356259405
 11
418.10953026237723
 21
56.991693772343865
  0
LINE
  8
_0-0_
  6
CONTINUOUS
 62
    4
 10
412.33832162597594
 20
63.89427325864574
 11
418.60099455001148
 21
57.631600334610198
  0
LINE
  8
_0-0_
  6
CONTINUOUS
 62
    4
 10
412.81894157348984
 20
64.54502416103162
 11
419.09245883764527
 21
58.271506896876531
  0
LINE
  8
_0-0_
  6
CONTINUOUS
 62
    4
 10
413.29956152100101
 20
65.195775063413407
 11
419.58392312527599
 21
58.911413459138316
  0
LINE
  8
_0-0_
  6
CONTINUOUS
 62
    4
 10
413.7801814685148
 20
65.846525965799742
 11
420.07538741290955
 21
59.551320021404649
  0
LINE
  8
_0-0_
  6
CONTINUOUS
 62
    4
 10
414.26080141602881
 20
66.497276868186077
 11
420.56685170054391
 21
60.191226583670982
  0
LINE
  8
_0-0_
  6
CONTINUOUS
 62
    4
 10
414.7414213635426
 20
67.148027770571503
 11
421.05831598817792
 21
60.83113314593686
  0
LINE
  8
_0-0_
  6
CONTINUOUS
 62
    4
 10
415.22204131105366
 20
67.798778672954427
 11
421.54978027580853
 21
61.4710397081991
  0
LINE
  8
_0-0_
  6
CONTINUOUS
 62
    4
 10
415.70266125856767
 20
68.449529575339625
 11
422.04124456344232
 21
62.110946270465433
  0
LINE
  8
_0-0_
  6
CONTINUOUS
 62
    4
 10
416.18328120608146
 20
69.100280477726415
 11
422.53270885107622
 21
62.750852832731766
  0
LINE
  8
_0-0_
  6
CONTINUOUS
 62
    4
 10
416.66390115359548
 20
69.75103138011275
 11
423.02417313871024
 21
63.390759394997644
  0
LINE
  8
_0-0_
  6
CONTINUOUS
 62
    4
 10
417.14452110110938
 20
70.401782282497948
 11
423.51563742634403
 21
64.03066595726375
  0
LINE
  8
_0-0_
  6
CONTINUOUS
 62
    4
 10
417.62514104862055
 20
71.05253318488019
 11
424.00710171397498
 21
64.670572519526218
  0
LINE
  8
_0-0_
  6
CONTINUOUS
 62
    4
 10
418.10576099613434
 20
71.703284087266297
 11
424.49856600160876
 21
65.310479081792096
  0
LINE
  8
_0-0_
  6
CONTINUOUS
 62
    4
 10
418.58638094364835
 20
72.354034989652519
 11
424.99003028924278
 21
65.950385644058429
  0
LINE
  8
_0-0_
  6
CONTINUOUS
 62
    4
 10
419.06700089116214
 20
73.004785892038853
 11
425.48149457687668
 21
66.590292206324307
  0
LINE
  8
_0-0_
  6
CONTINUOUS
 62
    4
 10
419.5476208386732
 20
73.655536794420868
 11
425.97295886450729
 21
67.230198768587002
  0
LINE
  8
_0-0_
  6
CONTINUOUS
 62
    4
 10
420.02824078618721
 20
74.306287696806976
 11
426.46442315214108
 21
67.870105330853335
  0
LINE
  8
_0-0_
  6
CONTINUOUS
 62
    4
 10
420.50886073370123
 20
74.957038599193254
 11
426.95588743977521
 21
68.510011893118985
  0
LINE
  8
_0-0_
  6
CONTINUOUS
 62
    4
 10
420.98948068121501
 20
75.607789501579191
 11
427.44735172740923
 21
69.149918455384636
  0
LINE
  8
_0-0_
  6
CONTINUOUS
 62
    4
 10
445.98437922091773
 20
50.612890961876587
 11
450.37215822974883
 21
46.225111953045257
  0
LINE
  8
_0-0_
  6
CONTINUOUS
 62
    4
 10
421.47010062872914
 20
76.258540403965469
 11
427.93881601504302
 21
69.789825017650855
  0
LINE
  8
_0-0_
  6
CONTINUOUS
 62
    4
 10
445.91138755317968
 20
51.817253479514989
 11
452.00282181405385
 21
45.725819218640822
  0
LINE
  8
_0-0_
  6
CONTINUOUS
 62
    4
 10
421.95072057623986
 20
76.909291306347711
 11
428.43028030267374
 21
70.42973157991355
  0
LINE
  8
_0-0_
  6
CONTINUOUS
 62
    4
 10
444.90503937120241
 20
53.954972511385108
 11
452.83646349292223
 21
46.023548389665507
  0
LINE
  8
_0-0_
  6
CONTINUOUS
 62
    4
 10
422.4313405237541
 20
77.56004220873308
 11
428.92174459030775
 21
71.069638142179542
  0
LINE
  8
_0-0_
  6
CONTINUOUS
 62
    4
 10
443.12523515706118
 20
56.866147575426226
 11
453.67010517179585
 21
46.321277560691783
  0
LINE
  8
_0-0_
  6
CONTINUOUS
 62
    4
 10
422.91196047126789
 20
78.210793111119528
 11
429.41320887794154
 21
71.709544704445648
  0
LINE
  8
_0-0_
  6
CONTINUOUS
 62
    4
 10
441.34543094292042
 20
59.777322639467116
 11
454.50930468003446
 21
46.613448902353298
  0
LINE
  8
_0-0_
  6
CONTINUOUS
 62
    4
 10
423.39258041878179
 20
78.861544013505522
 11
429.90467316557567
 21
72.349451266712094
  0
LINE
  8
_0-0_
  6
CONTINUOUS
 62
    4
 10
439.56562672876601
 20
62.688497703521648
 11
455.37958994918779
 21
46.874534483099637
  0
LINE
  8
_0-0_
  6
CONTINUOUS
 62
    4
 10
423.87320036629274
 20
79.512294915887651
 11
430.39613745320628
 21
72.989357828974335
  0
LINE
  8
_0-0_
  6
CONTINUOUS
 62
    4
 10
437.78582251463502
 20
65.599672767545712
 11
456.24987521833748
 21
47.135620063843021
  0
LINE
  8
_0-0_
  6
CONTINUOUS
 62
    4
 10
424.35382031380675
 20
80.163045818273872
 11
430.8876017408403
 21
73.629264391240667
  0
LINE
  8
_0-0_
  6
CONTINUOUS
 62
    4
 10
436.00601830049425
 20
68.510847831586148
 11
457.12016048749103
 21
47.396705644589588
  0
LINE
  8
_0-0_
  6
CONTINUOUS
 62
    4
 10
424.83444026132076
 20
80.813796720659866
 11
431.37906602847409
 21
74.269170953506546
  0
LINE
  8
_0-0_
  6
CONTINUOUS
 62
    4
 10
434.22621408635314
 20
71.42202289562772
 11
457.99044575664436
 21
47.657791225336382
  0
LINE
  8
_0-0_
  6
CONTINUOUS
 62
    4
 10
425.31506020883455
 20
81.464547623046144
 11
431.87053031610822
 21
74.909077515772822
  0
LINE
  8
_0-0_
  6
CONTINUOUS
 62
    4
 10
432.4464098722118
 20
74.333197959668666
 11
458.78217598295771
 21
47.997431848923156
  0
LINE
  8
_0-0_
  6
CONTINUOUS
 62
    4
 10
425.79568015634845
 20
82.115298525432081
 11
459.25577308291565
 21
48.655205598865336
  0
LINE
  8
_0-0_
  6
CONTINUOUS
 62
    4
 10
426.2763001038594
 20
82.766049427814323
 11
459.72937018287018
 21
49.312979348803424
  0
LINE
  8
_0-0_
  6
CONTINUOUS
 62
    4
 10
426.69980988908014
 20
83.473910492493246
 11
441.63603435051948
 21
68.537686031054477
  0
LINE
  8
_0-0_
  6
CONTINUOUS
 62
    4
 10
441.91976119751178
 20
68.25395918406241
 11
460.03943476104394
 21
50.13428562053025
  0
LINE
  8
_0-0_
  6
CONTINUOUS
 62
    4
 10
426.69980988907867
 20
84.605281342394846
 11
442.0501448226845
 21
69.254946408789806
  0
LINE
  8
_0-0_
  6
CONTINUOUS
 62
    4
 10
443.05113204741122
 20
68.253959184062865
 11
459.76989413915032
 21
51.535197092323983
  0
LINE
  8
_0-0_
  6
CONTINUOUS
 62
    4
 10
426.80581969443335
 20
85.630642386940394
 11
442.46425529484929
 21
69.972206786524907
  0
LINE
  8
_0-0_
  6
CONTINUOUS
 62
    4
 10
444.18250289731043
 20
68.253959184063774
 11
458.75394191089356
 21
53.682520170480643
  0
LINE
  8
_0-0_
  6
CONTINUOUS
 62
    4
 10
427.14523094940034
 20
86.422601981867047
 11
442.87836576701113
 21
70.689467164255802
  0
LINE
  8
_0-0_
  6
CONTINUOUS
 62
    4
 10
445.31387374720396
 20
68.253959184062865
 11
457.1960837365715
 21
56.371749194695553
  0
LINE
  8
_0-0_
  6
CONTINUOUS
 62
    4
 10
427.61396460217929
 20
87.085239178987592
 11
443.29247623917547
 21
71.406727541991586
  0
LINE
  8
_0-0_
  6
CONTINUOUS
 62
    4
 10
446.44524459710522
 20
68.253959184061955
 11
455.63822556223806
 21
59.060978218929563
  0
LINE
  8
_0-0_
  6
CONTINUOUS
 62
    4
 10
428.14637441389721
 20
87.684200217170201
 11
443.70658671134049
 21
72.123987919726915
  0
LINE
  8
_0-0_
  6
CONTINUOUS
 62
    4
 10
447.57661544700466
 20
68.253959184062637
 11
454.08036738790463
 21
61.750207243162663
  0
LINE
  8
_0-0_
  6
CONTINUOUS
 62
    4
 10
428.67878422561466
 20
88.283161255352525
 11
444.12069718350506
 21
72.841248297462187
  0
LINE
  8
_0-0_
  6
CONTINUOUS
 62
    4
 10
448.70798629690387
 20
68.253959184063547
 11
452.52250921356915
 21
64.439436267398492
  0
LINE
  8
_0-0_
  6
CONTINUOUS
 62
    4
 10
429.23454589901621
 20
88.858770431843823
 11
444.53480765566712
 21
73.558508675192854
  0
LINE
  8
_0-0_
  6
CONTINUOUS
 62
    4
 10
449.8393571467974
 20
68.253959184062865
 11
450.96465103923413
 21
67.128665291626362
  0
LINE
  8
_0-0_
  6
CONTINUOUS
 62
    4
 10
429.69737942852055
 20
89.527307752239267
 11
444.94891812783146
 21
74.275769052928808
  0
LINE
  8
_0-0_
  6
CONTINUOUS
 62
    4
 10
430.29438988311438
 20
90.061668147546243
 11
445.36302859999648
 21
74.993029430664137
  0
LINE
  8
_0-0_
  6
CONTINUOUS
 62
    4
 10
431.2926582800842
 20
90.194770600476204
 11
445.77713907216128
 21
75.710289808399011
  0
LINE
  8
_0-0_
  6
CONTINUOUS
 62
    4
 10
432.24872593153304
 20
90.370073798927933
 11
444.37615705221435
 21
78.242642678246625
  0
LINE
  8
_0-0_
  6
CONTINUOUS
 62
    4
 10
433.19761761208792
 20
90.552552968265445
 11
442.66652999014048
 21
81.083640590212838
  0
LINE
  8
_0-0_
  6
CONTINUOUS
 62
    4
 10
434.24178777334134
 20
90.63975365691249
 11
440.95690292807069
 21
83.92463850218337
  0
LINE
  8
_0-0_
  6
CONTINUOUS
 62
    4
 10
435.74971470801256
 20
90.263197572141053
 11
438.95268772294014
 21
87.060224557213132
  0
LINE
  8
_0-0_
  6
CONTINUOUS
 62
    7
 10
462.79615077241522
 20
80.484628750436968
 11
462.79615077241522
 21
92.180723331915999
  0
LINE
  8
_0-0_
  6
CONTINUOUS
 62
    7
 10
461.99615077241504
 20
80.652164226292371
 11
461.99615077241504
 21
92.013187856060483
  0
LINE
  8
_0-0_
  6
CONTINUOUS
 62
    7
 10
461.19615077241508
 20
80.942242677945615
 11
461.19615077241508
 21
91.723109404407239
  0
LINE
  8
_0-0_
  6
CONTINUOUS
 62
    7
 10
460.39615077241513
 20
81.376333719690592
 11
460.39615077241513
 21
91.289018362662375
  0
LINE
  8
_0-0_
  6
CONTINUOUS
 62
    7
 10
459.59615077241517
 20
81.997484399271343
 11
459.59615077241517
 21
90.667867683081624
  0
LINE
  8
_0-0_
  6
CONTINUOUS
 62
    7
 10
458.79615077241522
 20
82.905951083379534
 11
458.79615077241522
 21
89.759400998973433
  0
LINE
  8
_0-0_
  6
CONTINUOUS
 62
    7
 10
457.99615077241526
 20
84.485786412453649
 11
457.99615077241526
 21
88.179565669899489
  0
LINE
  8
_0-0_
  6
CONTINUOUS
 62
    7
 10
441.55998633164631
 20
68.405966998549275
 11
458.58446282642194
 21
68.405966998549275
  0
LINE
  8
_0-0_
  6
CONTINUOUS
 62
    7
 10
442.0218665469979
 20
69.205966998549229
 11
458.12258261107036
 21
69.205966998549229
  0
LINE
  8
_0-0_
  6
CONTINUOUS
 62
    7
 10
442.4837467623496
 20
70.005966998549184
 11
457.66070239571854
 21
70.005966998549184
  0
LINE
  8
_0-0_
  6
CONTINUOUS
 62
    7
 10
442.94562697770129
 20
70.805966998549252
 11
457.19882218036685
 21
70.805966998549252
  0
LINE
  8
_0-0_
  6
CONTINUOUS
 62
    7
 10
443.40750719305311
 20
71.605966998549206
 11
456.73694196501515
 21
71.605966998549206
  0
LINE
  8
_0-0_
  6
CONTINUOUS
 62
    7
 10
443.8693874084048
 20
72.405966998549275
 11
456.27506174966334
 21
72.405966998549275
  0
LINE
  8
_0-0_
  6
CONTINUOUS
 62
    7
 10
444.33126762375639
 20
73.205966998549172
 11
455.81318153431175
 21
73.205966998549172
  0
LINE
  8
_0-0_
  6
CONTINUOUS
 62
    7
 10
444.7931478391082
 20
74.005966998549241
 11
455.35130131895994
 21
74.005966998549241
  0
LINE
  8
_0-0_
  6
CONTINUOUS
 62
    7
 10
445.2550280544599
 20
74.805966998549195
 11
454.88942110360824
 21
74.805966998549195
  0
LINE
  8
_0-0_
  6
CONTINUOUS
 62
    7
 10
445.7169082698116
 20
75.605966998549263
 11
454.42754088825654
 21
75.605966998549263
  0
LINE
  8
_0-0_
  6
CONTINUOUS
 62
    7
 10
446.1787884851633
 20
76.405966998549161
 11
453.96566067290485
 21
76.405966998549161
  0
LINE
  8
_0-0_
  6
CONTINUOUS
 62
    7
 10
446.64066870051499
 20
77.205966998549229
 11
453.50378045755315
 21
77.205966998549229
  0
LINE
  8
_0-0_
  6
CONTINUOUS
 62
    7
 10
447.10254891586669
 20
78.005966998549184
 11
453.04190024220134
 21
78.005966998549184
  0
LINE
  8
_0-0_
  6
CONTINUOUS
 62
    7
 10
447.5644291312185
 20
78.805966998549195
 11
452.58002002684964
 21
78.805966998549195
  0
LINE
  8
_0-0_
  6
CONTINUOUS
 62
    7
 10
448.02630934657009
 20
79.605966998549263
 11
452.11813981149794
 21
79.605966998549263
  0
LINE
  8
_0-0_
  6
CONTINUOUS
 62
    7
 10
448.48818956192179
 20
80.405966998549161
 11
451.65625959614624
 21
80.405966998549161
  0
LINE
  8
_0-0_
  6
CONTINUOUS
 62
    7
 10
448.95006977727348
 20
81.205966998549229
 11
451.19437938079454
 21
81.205966998549229
  0
LINE
  8
_0-0_
  6
CONTINUOUS
 62
    7
 10
449.4119499926253
 20
82.005966998549184
 11
450.73249916544273
 21
82.005966998549184
  0
LINE
  8
_0-0_
  6
CONTINUOUS
 62
    7
 10
449.87383020797699
 20
82.805966998549252
 11
450.27061895009115
 21
82.805966998549252
  0
LINE
  8
_0-0_
  6
CONTINUOUS
 62
    7
 10
457.99615077241504
 20
68.253959184063774
 11
457.99615077241504
 21
69.424953366794512
  0
LINE
  8
_0-0_
  6
CONTINUOUS
 62
    7
 10
457.19615077241497
 20
68.253959184063774
 11
457.19615077241497
 21
70.810594012849606
  0
LINE
  8
_0-0_
  6
CONTINUOUS
 62
    7
 10
456.39615077241501
 20
68.253959184063774
 11
456.39615077241501
 21
72.1962346589047
  0
LINE
  8
_0-0_
  6
CONTINUOUS
 62
    7
 10
455.59615077241506
 20
68.253959184063774
 11
455.59615077241506
 21
73.581875304959624
  0
LINE
  8
_0-0_
  6
CONTINUOUS
 62
    7
 10
454.7961507724151
 20
68.253959184063774
 11
454.7961507724151
 21
74.967515951014718
  0
LINE
  8
_0-0_
  6
CONTINUOUS
 62
    7
 10
453.99615077241504
 20
68.253959184063774
 11
453.99615077241504
 21
76.353156597069756
  0
LINE
  8
_0-0_
  6
CONTINUOUS
 62
    7
 10
453.19615077241497
 20
68.253959184063774
 11
453.19615077241497
 21
77.738797243124793
  0
LINE
  8
_0-0_
  6
CONTINUOUS
 62
    7
 10
452.39615077241501
 20
68.253959184063774
 11
452.39615077241501
 21
79.124437889179831
  0
LINE
  8
_0-0_
  6
CONTINUOUS
 62
    7
 10
451.59615077241506
 20
68.253959184063774
 11
451.59615077241506
 21
80.510078535234811
  0
LINE
  8
_0-0_
  6
CONTINUOUS
 62
    7
 10
450.7961507724151
 20
68.253959184063774
 11
450.7961507724151
 21
81.895719181289905
  0
LINE
  8
_0-0_
  6
CONTINUOUS
 62
    7
 10
449.99615077241504
 20
68.253959184063774
 11
449.99615077241504
 21
83.017832430966507
  0
LINE
  8
_0-0_
  6
CONTINUOUS
 62
    7
 10
449.19615077241497
 20
68.253959184063774
 11
449.19615077241497
 21
81.632191784911413
  0
LINE
  8
_0-0_
  6
CONTINUOUS
 62
    7
 10
448.39615077241501
 20
68.253959184063774
 11
448.39615077241501
 21
80.246551138856205
  0
LINE
  8
_0-0_
  6
CONTINUOUS
 62
    7
 10
447.59615077241506
 20
68.253959184063774
 11
447.59615077241506
 21
78.860910492801338
  0
LINE
  8
_0-0_
  6
CONTINUOUS
 62
    7
 10
446.7961507724151
 20
68.253959184063774
 11
446.7961507724151
 21
77.47526984674613
  0
LINE
  8
_0-0_
  6
CONTINUOUS
 62
    7
 10
445.99615077241504
 20
68.253959184063774
 11
445.99615077241504
 21
76.089629200691036
  0
LINE
  8
_0-0_
  6
CONTINUOUS
 62
    7
 10
445.19615077241497
 20
68.253959184063774
 11
445.19615077241497
 21
74.703988554635998
  0
LINE
  8
_0-0_
  6
CONTINUOUS
 62
    7
 10
444.39615077241501
 20
68.253959184063774
 11
444.39615077241501
 21
73.318347908580904
  0
LINE
  8
_0-0_
  6
CONTINUOUS
 62
    7
 10
443.59615077241506
 20
68.253959184063774
 11
443.59615077241506
 21
71.932707262525923
  0
LINE
  8
_0-0_
  6
CONTINUOUS
 62
    7
 10
442.7961507724151
 20
68.253959184063774
 11
442.7961507724151
 21
70.547066616470829
  0
LINE
  8
_0-0_
  6
CONTINUOUS
 62
    7
 10
441.99615077241504
 20
68.253959184063774
 11
441.99615077241504
 21
69.161425970415735
  0
TEXT
  8
_0-0_
 62
    4
 10
983.5
 20
65.999999995499707
 40
10
 41
1
 50
0
  1
SCALE
  0
LINE
  8
_0-0_
  6
CONTINUOUS
 62
    2
 10
966
 20
76.999999995499593
 11
966
 21
32
  0
LINE
  8
ADD_LINE
  6
DOT
 62
    7
 10
996
 20
76.999999995499593
 11
996
 21
32
  0
LINE
  8
_0-0_
  6
CONTINUOUS
 62
    2
 10
1026
 20
76.999999995499593
 11
1026
 21
32
  0
LINE
  8
ADD_LINE
  6
DOT
 62
    7
 10
1046
 20
76.999999995499593
 11
1046
 21
32
  0
LINE
  8
_0-0_
  6
CONTINUOUS
 62
    2
 10
1146
 20
64.999999995499707
 11
886
 21
64.999999995499707
  0
LINE
  8
ADD_LINE
  6
DOT
 62
    7
 10
886
 20
70.999999995499707
 11
1146
 21
70.999999995499707
  0
LINE
  8
ADD_LINE
  6
DOT
 62
    7
 10
886
 20
49.999999998199996
 11
616.21377219623469
 21
49.999999998199996
  0
LINE
  8
ADD_LINE
  6
DOT
 62
    7
 10
886
 20
48.499999997749796
 11
1146
 21
48.499999997749796
  0
LINE
  8
ADD_LINE
  6
DOT
 62
    7
 10
926
 20
76.999999995499593
 11
926
 21
32
  0
LINE
  8
_0-0_
  6
CONTINUOUS
 62
    2
 10
1066
 20
103.99999999279964
 11
1066
 21
32
  0
LINE
  8
ADD_LINE
  6
DOT
 62
    7
 10
1086
 20
103.99999999279964
 11
1086
 21
32
  0
LINE
  8
_0-0_
  6
CONTINUOUS
 62
    2
 10
1106
 20
103.99999999279964
 11
1106
 21
32
  0
LINE
  8
ADD_LINE
  6
DOT
 62
    7
 10
1126
 20
103.99999999279964
 11
1126
 21
32
  0
LINE
  8
_0-0_
  6
CONTINUOUS
 62
    2
 10
1146
 20
90.499999994149675
 11
1106
 21
90.499999994149675
  0
LINE
  8
ADD_LINE
  6
DOT
 62
    7
 10
886
 20
90.499999994149675
 11
1106
 21
90.499999994149675
  0
LINE
  8
ADD_LINE
  6
DOT
 62
    7
 10
1106
 20
97.24999999347466
 11
1146
 21
97.24999999347466
  0
LINE
  8
ADD_LINE
  6
DOT
 62
    7
 10
1106
 20
83.749999994824634
 11
1146
 21
83.749999994824634
  0
LINE
  8
_0-0_
  6
CONTINUOUS
 62
    1
 10
1146
 20
76.999999995499593
 11
886
 21
76.999999995499593
  0
LINE
  8
ADD_LINE
  6
DOT
 62
    7
 10
1076
 20
103.99999999279964
 11
1076
 21
32
  0
CIRCLE
  8
_0-0_
  6
CONTINUOUS
 62
    2
 10
1076
 20
90.499999994149675
 40
8
  0
CIRCLE
  8
_0-0_
  6
CONTINUOUS
 62
    2
 10
1076
 20
90.499999994149675
 40
4
  0
LINE
  8
_0-0_
  6
CENTER1
 62
    7
 10
1076
 20
100.49999999414968
 11
1076
 21
80.499999994149675
  0
TEXT
  8
_0-0_
 62
    4
 10
916
 20
65.999999995499707
 40
10
 41
1
 50
0
  1
日付
  0
TEXT
  8
_0-0_
 62
    4
 10
1116
 20
92.24999999347466
 40
10
 41
1
 50
0
  1
単位
  0
TEXT
  8
_0-0_
 62
    4
 10
1121
 20
78.749999994824634
 40
10
 41
1
 50
0
  1
mm
  0
LINE
  8
_0-0_
  6
CONTINUOUS
 62
    2
 10
1088
 20
94.499999994149618
 11
1102
 21
98.499999994149618
  0
LINE
  8
_0-0_
  6
CONTINUOUS
 62
    2
 10
1102
 20
98.499999994149618
 11
1102
 21
82.499999994149675
  0
LINE
  8
_0-0_
  6
CONTINUOUS
 62
    2
 10
1088
 20
86.499999994149675
 11
1102
 21
82.499999994149675
  0
LINE
  8
_0-0_
  6
CONTINUOUS
 62
    2
 10
1088
 20
94.499999994149618
 11
1088
 21
86.499999994149675
  0
LINE
  8
_0-0_
  6
CENTER1
 62
    7
 10
1066
 20
90.499999994149675
 11
1104
 21
90.499999994149675
  0
LINE
  8
_0-0_
  6
CONTINUOUS
 62
    1
 10
886
 20
67.999999996399879
 11
616.21377219623469
 21
67.999999996399879
  0
LINE
  8
_0-0_
  6
CONTINUOUS
 62
    1
 10
616.21377219623469
 20
32
 11
616.21377219623469
 21
103.99999999279964
  0
LINE
  8
ADD_LINE
  6
DOT
 62
    7
 10
886
 20
85.999999994599762
 11
616.21377219623469
 21
85.999999994599762
  0
LINE
  8
ADD_LINE
  6
DOT
 62
    7
 10
751.10688609811734
 20
32
 11
751.10688609811734
 21
103.99999999279964
  0
TEXT
  8
_0-0_
 62
    4
 10
620.21377219623469
 20
89.999999992799644
 40
10
 41
1
 50
0
  1
品番
  0
TEXT
  8
_0-0_
 62
    4
 10
620.21377219623469
 20
53.999999996399879
 40
10
 41
1
 50
0
  1
名称
  0
LINE
  8
_0-0_
  6
CONTINUOUS
 62
    1
 10
376.21377219623469
 20
103.99999999279964
 11
376.21377219623469
 21
32
  0
LINE
  8
_0-0_
  6
CONTINUOUS
 62
    7
 10
827.04417635185143
 20
312.36640009212977
 11
769.31167074364259
 21
312.36640009212977
  0
LINE
  8
_0-0_
  6
CONTINUOUS
 62
    7
 10
827.04417635185143
 20
545.64849530135552
 11
769.31167074364259
 21
545.64849530135552
  0
LINE
  8
_0-0_
  6
CONTINUOUS
 62
    7
 10
827.04417635185143
 20
517.61538533495548
 11
827.04417635185143
 21
373.9461421445672
  0
LINE
  8
_0-0_
  6
CONTINUOUS
 62
    7
 10
827.04417635185143
 20
345.54663695297967
 11
827.04417635185143
 21
312.36640009212977
  0
LINE
  8
_0-0_
  6
CONTINUOUS
 62
    7
 10
827.04417635185143
 20
531.63194031815556
 11
827.04417635185143
 21
545.64849530135552
  0
LINE
  8
_0-0_
  6

 62
    8
 10
994.93584789348915
 20
340.46229012729475
 11
995.36496753352685
 21
338.02863171538934
  0
LINE
  8
_0-0_
  6

 62
    8
 10
994.93584789348915
 20
340.46229012729475
 11
994.93584789348915
 21
338.35664444829649
  0
LINE
  8
_0-0_
  6
CONTINUOUS
 62
    7
 10
215.34426516546728
 20
209.84644533379333
 11
215.34426516546728
 21
244.88783279179336
  0
LINE
  8
_0-0_
  6
CONTINUOUS
 62
    7
 10
234.86732389206725
 20
273.3214157577134
 11
234.86732389206725
 21
303.35689072171334
  0
LINE
  8
_0-0_
  6
CONTINUOUS
 62
    7
 10
246.13062700356721
 20
306.43938473064526
 11
246.13062700356721
 21
319.97652020179333
  0
LINE
  8
_0-0_
  6
CONTINUOUS
 62
    2
 10
247.06623204869584
 20
306.66079296775337
 11
247.06623204869584
 21
320.47711145119337
  0
LINE
  8
_0-0_
  6
CONTINUOUS
 62
    7
 10
248.38328762586724
 20
209.84644533379333
 11
248.38328762586724
 21
244.88783279179336
  0
LINE
  8
_0-0_
  6
CONTINUOUS
 62
    7
 10
248.48340587574722
 20
239.38132904839335
 11
248.48340587574722
 21
215.35294907719339
  0
LINE
  8
_0-0_
  6
CONTINUOUS
 62
    7
 10
248.88387887526733
 20
209.84644533379333
 11
248.88387887526733
 21
244.88783279179336
  0
LINE
  8
_0-0_
  6
CONTINUOUS
 62
    7
 10
246.13062700356721
 20
319.97652020179333
 11
246.6312182529673
 21
320.47711145119337
  0
LINE
  8
_0-0_
  6
CONTINUOUS
 62
    7
 10
251.88742637166729
 20
271.31905076011338
 11
251.88742637166729
 21
270.58818753598939
  0
LINE
  8
_0-0_
  6
CONTINUOUS
 62
    7
 10
254.94103299300724
 20
268.08523128898935
 11
254.94103299300724
 21
244.88783279179336
  0
LINE
  8
_0-0_
  6
CONTINUOUS
 62
    2
 10
265.71926318383873
 20
306.66079296775337
 11
265.71926318383873
 21
320.47711145119337
  0
LINE
  8
_0-0_
  6
CONTINUOUS
 62
    7
 10
266.6548682289673
 20
306.43938473064526
 11
266.6548682289673
 21
319.97652020179333
  0
LINE
  8
_0-0_
  6
CONTINUOUS
 62
    7
 10
277.86811221552733
 20
268.08523128898935
 11
277.86811221552733
 21
244.88783279179336
  0
LINE
  8
_0-0_
  6
CONTINUOUS
 62
    7
 10
280.92171883686729
 20
271.31905076011338
 11
280.92171883686729
 21
270.58818753598939
  0
LINE
  8
_0-0_
  6
CONTINUOUS
 62
    7
 10
297.94182131646733
 20
273.3214157577134
 11
297.94182131646733
 21
303.35689072171334
  0
LINE
  8
_0-0_
  6
CONTINUOUS
 62
    7
 10
252.52174960629321
 20
303.35689072171334
 11
251.48522592867823
 21
305.57972292132649
  0
LINE
  8
_0-0_
  6
CONTINUOUS
 62
    7
 10
254.23400773258976
 20
303.35689072171334
 11
253.14770394503461
 21
305.68647671209447
  0
LINE
  8
_0-0_
  6
CONTINUOUS
 62
    7
 10
361.01631874086723
 20
119.74002044179338
 11
321.97020128766729
 21
119.74002044179338
  0
LINE
  8
_0-0_
  6
CONTINUOUS
 62
    9
 10
321.46961003826726
 20
120.24061169119335
 11
361.51690999026727
 21
120.24061169119335
  0
LINE
  8
_0-0_
  6
CONTINUOUS
 62
    9
 10
255.33869039474592
 20
303.35689072171334
 11
254.23615994320676
 21
305.72127490458712
  0
LINE
  8
_0-0_
  6
CONTINUOUS
 62
    9
 10
264.94942955441246
 20
303.35689072171334
 11
263.70071057110249
 21
306.03477722239353
  0
LINE
  8
_0-0_
  6
CONTINUOUS
 62
    7
 10
264.72046877834811
 20
306.21689830326613
 11
266.05411221611359
 21
303.35689072171334
  0
LINE
  8
_0-0_
  6
CONTINUOUS
 62
    7
 10
267.76637034241026
 20
303.35689072171334
 11
266.49847452885024
 21
306.07590206821914
  0
LINE
  8
_0-0_
  6
CONTINUOUS
 62
    7
 10
317.4648800430673
 20
219.85827032179333
 11
317.4648800430673
 21
225.86536531459336
  0
LINE
  8
_0-0_
  6
CONTINUOUS
 62
    7
 10
321.46961003826726
 20
120.24061169119335
 11
321.46961003826726
 21
209.84644533379333
  0
LINE
  8
_0-0_
  6
CONTINUOUS
 62
    9
 10
321.97020128766729
 20
119.74002044179338
 11
321.97020128766729
 21
209.84644533379333
  0
LINE
  8
_0-0_
  6
CONTINUOUS
 62
    7
 10
337.48853001906724
 20
219.85827032179333
 11
337.48853001906724
 21
225.86536531459336
  0
LINE
  8
_0-0_
  6
CONTINUOUS
 62
    9
 10
361.01631874086723
 20
119.74002044179338
 11
361.01631874086723
 21
209.84644533379333
  0
LINE
  8
_0-0_
  6
CONTINUOUS
 62
    7
 10
361.51690999026727
 20
120.24061169119335
 11
361.51690999026727
 21
209.84644533379333
  0
LINE
  8
_0-0_
  6
CONTINUOUS
 62
    7
 10
416.33165179956723
 20
319.97652020179333
 11
416.83224304896726
 21
320.47711145119337
  0
LINE
  8
_0-0_
  6
CONTINUOUS
 62
    7
 10
266.6548682289673
 20
319.97652020179333
 11
266.15427697956727
 21
320.47711145119337
  0
LINE
  8
_0-0_
  6
CONTINUOUS
 62
    7
 10
385.0446987120672
 20
273.3214157577134
 11
385.0446987120672
 21
303.35689072171334
  0
LINE
  8
_0-0_
  6
CONTINUOUS
 62
    7
 10
415.2201496856693
 20
303.35689072171334
 11
416.48804549922914
 21
306.07590206821914
  0
LINE
  8
_0-0_
  6
CONTINUOUS
 62
    7
 10
416.93240781196579
 20
303.35689072171334
 11
418.26605124973145
 21
306.21689830326613
  0
LINE
  8
_0-0_
  6
CONTINUOUS
 62
    9
 10
418.03709047366692
 20
303.35689072171334
 11
419.28580945697689
 21
306.03477722239353
  0
LINE
  8
_0-0_
  6
CONTINUOUS
 62
    7
 10
402.06480119166724
 20
271.31905076011338
 11
402.06480119166724
 21
270.58818753598939
  0
LINE
  8
_0-0_
  6
CONTINUOUS
 62
    7
 10
405.11840781300725
 20
268.08523128898935
 11
405.11840781300725
 21
244.88783279179336
  0
LINE
  8
_0-0_
  6
CONTINUOUS
 62
    9
 10
427.64782963333346
 20
303.35689072171334
 11
428.75036008487274
 21
305.72127490458712
  0
LINE
  8
_0-0_
  6
CONTINUOUS
 62
    7
 10
429.83881608304489
 20
305.68647671209447
 11
428.75251229548962
 21
303.35689072171334
  0
LINE
  8
_0-0_
  6
CONTINUOUS
 62
    7
 10
430.46477042178628
 20
303.35689072171334
 11
431.50129409940115
 21
305.57972292132649
  0
LINE
  8
_0-0_
  6
CONTINUOUS
 62
    7
 10
434.1026411532672
 20
209.84644533379333
 11
248.88387887526733
 21
209.84644533379333
  0
LINE
  8
_0-0_
  6
CONTINUOUS
 62
    7
 10
248.38328762586724
 20
209.84644533379333
 11
215.34426516546728
 21
209.84644533379333
  0
LINE
  8
_0-0_
  6
CONTINUOUS
 62
    7
 10
436.30524265062729
 20
209.84644533379333
 11
469.3442651110272
 21
209.84644533379333
  0
LINE
  8
_0-0_
  6
CONTINUOUS
 62
    7
 10
436.10500615086721
 20
209.94656358367337
 11
434.1026411532672
 21
209.94656358367337
  0
LINE
  8
_0-0_
  6
CONTINUOUS
 62
    7
 10
436.30524265062729
 20
210.94774608247337
 11
436.10500615086721
 21
210.94774608247337
  0
LINE
  8
_0-0_
  6
CONTINUOUS
 62
    7
 10
248.48340587574722
 20
215.35294907719339
 11
248.88387887526733
 21
215.35294907719339
  0
LINE
  8
_0-0_
  6
CONTINUOUS
 62
    7
 10
248.38328762586724
 20
215.50312645201336
 11
248.48340587574722
 21
215.50312645201336
  0
LINE
  8
_0-0_
  6
CONTINUOUS
 62
    7
 10
317.4648800430673
 20
219.85827032179333
 11
337.48853001906724
 21
219.85827032179333
  0
LINE
  8
_0-0_
  6
CONTINUOUS
 62
    7
 10
416.33165179956723
 20
306.43938473064526
 11
416.33165179956723
 21
319.97652020179333
  0
LINE
  8
_0-0_
  6
CONTINUOUS
 62
    2
 10
417.26725684469585
 20
306.66079296775337
 11
417.26725684469585
 21
320.47711145119337
  0
LINE
  8
_0-0_
  6
CONTINUOUS
 62
    7
 10
633.8385496638673
 20
223.26229081771334
 11
599.79834470466722
 21
223.26229081771334
  0
LINE
  8
_0-0_
  6
CONTINUOUS
 62
    7
 10
563.75577474786724
 20
223.26229081771334
 11
598.79716220586715
 21
223.26229081771334
  0
LINE
  8
_0-0_
  6
CONTINUOUS
 62
    9
 10
599.2977534552673
 20
223.76288206711337
 11
634.33914091326722
 21
223.76288206711337
  0
LINE
  8
_0-0_
  6
CONTINUOUS
 62
    7
 10
317.4648800430673
 20
225.86536531459336
 11
337.48853001906724
 21
225.86536531459336
  0
LINE
  8
_0-0_
  6
CONTINUOUS
 62
    7
 10
454.50784157886835
 20
225.86536531459336
 11
454.55943555389587
 21
225.86536531459336
  0
LINE
  8
_0-0_
  6
CONTINUOUS
 62
    7
 10
454.50784157886835
 20
228.86891281099338
 11
454.55958751838142
 21
228.86891281099338
  0
LINE
  8
_0-0_
  6
CONTINUOUS
 62
    7
 10
572.76641731397626
 20
233.84921228294343
 11
573.4719786467092
 21
233.84921228294343
  0
LINE
  8
_0-0_
  6
CONTINUOUS
 62
    2
 10
570.36357945975226
 20
237.27884575494994
 11
569.16216041340863
 21
237.27884575494994
  0
LINE
  8
_0-0_
  6
CONTINUOUS
 62
    6
 10
570.97461656972268
 20
237.27884575494994
 11
570.36357945975226
 21
237.27884575494994
  0
LINE
  8
_0-0_
  6
CONTINUOUS
 62
    6
 10
569.16216041340863
 20
237.27884575494994
 11
568.5511233034382
 21
237.27884575494994
  0
LINE
  8
_0-0_
  6
CONTINUOUS
 62
    2
 10
564.35648446695234
 20
237.27884575494994
 11
563.15506542060859
 21
237.27884575494994
  0
LINE
  8
_0-0_
  6
CONTINUOUS
 62
    6
 10
563.15506542060859
 20
237.27884575494994
 11
562.54402831063817
 21
237.27884575494994
  0
LINE
  8
_0-0_
  6
CONTINUOUS
 62
    6
 10
564.96752157692276
 20
237.27884575494994
 11
564.35648446695234
 21
237.27884575494994
  0
LINE
  8
_0-0_
  6
CONTINUOUS
 62
    7
 10
564.96752157692276
 20
237.27884580091336
 11
565.01580208977657
 21
237.27884580091336
  0
LINE
  8
_0-0_
  6
CONTINUOUS
 62
    2
 10
575.16925516774518
 20
237.27884575494994
 11
576.37067421408881
 21
237.27884575494994
  0
LINE
  8
_0-0_
  6
CONTINUOUS
 62
    6
 10
574.55821805777475
 20
237.27884575494994
 11
575.16925516774518
 21
237.27884575494994
  0
LINE
  8
_0-0_
  6
CONTINUOUS
 62
    6
 10
576.37067421408881
 20
237.27884575494994
 11
576.98171132405923
 21
237.27884575494994
  0
LINE
  8
_0-0_
  6
CONTINUOUS
 62
    2
 10
581.1763501605451
 20
237.27884575494994
 11
582.37776920688896
 21
237.27884575494994
  0
LINE
  8
_0-0_
  6
CONTINUOUS
 62
    6
 10
580.56531305057467
 20
237.27884575494994
 11
581.1763501605451
 21
237.27884575494994
  0
LINE
  8
_0-0_
  6
CONTINUOUS
 62
    6
 10
582.37776920688896
 20
237.27884575494994
 11
582.98880631685938
 21
237.27884575494994
  0
LINE
  8
_0-0_
  6
CONTINUOUS
 62
    7
 10
428.04548703552729
 20
268.08523128898935
 11
428.04548703552729
 21
244.88783279179336
  0
LINE
  8
_0-0_
  6
CONTINUOUS
 62
    7
 10
431.09909365686724
 20
271.31905076011338
 11
431.09909365686724
 21
270.58818753598939
  0
LINE
  8
_0-0_
  6
CONTINUOUS
 62
    7
 10
434.1026411532672
 20
209.84644533379333
 11
434.1026411532672
 21
244.88783279179336
  0
LINE
  8
_0-0_
  6
CONTINUOUS
 62
    2
 10
435.92028797983869
 20
306.66079296775337
 11
435.92028797983869
 21
320.47711145119337
  0
LINE
  8
_0-0_
  6
CONTINUOUS
 62
    7
 10
436.10500615086721
 20
244.78771454191332
 11
436.10500615086721
 21
209.94656358367337
  0
LINE
  8
_0-0_
  6
CONTINUOUS
 62
    7
 10
436.30524265062729
 20
244.88783279179336
 11
436.30524265062729
 21
209.84644533379333
  0
LINE
  8
_0-0_
  6
CONTINUOUS
 62
    7
 10
436.85589302496732
 20
306.43938473064526
 11
436.85589302496732
 21
319.97652020179333
  0
LINE
  8
_0-0_
  6
CONTINUOUS
 62
    7
 10
608.00061153509478
 20
308.86126943478087
 11
608.000081405321
 21
308.86102162390915
  0
LINE
  8
_0-0_
  6
CONTINUOUS
 62
    7
 10
608.00061149823296
 20
304.85653942228777
 11
608.0000738832548
 21
304.85628811000777
  0
LINE
  8
_0-0_
  6
CONTINUOUS
 62
    7
 10
623.01834901709469
 20
308.86126943478087
 11
623.01781888732091
 21
308.86102162390915
  0
LINE
  8
_0-0_
  6
CONTINUOUS
 62
    7
 10
608.00061165796717
 20
306.85890449452131
 11
608.00040515952594
 21
306.85880801056396
  0
LINE
  8
_0-0_
  6
CONTINUOUS
 62
    7
 10
610.61854537100839
 20
307.36374575634744
 11
610.61837923569476
 21
307.36366817153004
  0
LINE
  8
_0-0_
  6
CONTINUOUS
 62
    7
 10
555.2457237042081
 20
238.28002844078907
 11
590.28711116220802
 21
238.28002844078907
  0
LINE
  8
_0-0_
  6
CONTINUOUS
 62
    9
 10
555.54607845384794
 20
238.48026494054903
 11
589.98675641256796
 21
238.48026494054903
  0
LINE
  8
_0-0_
  6
CONTINUOUS
 62
    9
 10
555.44596020396796
 20
238.58038319042907
 11
555.2457237042081
 21
238.58038319042907
  0
LINE
  8
_0-0_
  6
CONTINUOUS
 62
    9
 10
590.08687466244794
 20
238.58038319042907
 11
590.28711116220802
 21
238.58038319042907
  0
LINE
  8
_0-0_
  6
CONTINUOUS
 62
    7
 10
248.38328762586724
 20
239.23115167357338
 11
248.48340587574722
 21
239.23115167357338
  0
LINE
  8
_0-0_
  6
CONTINUOUS
 62
    7
 10
248.48340587574722
 20
239.38132904839335
 11
248.88387887526733
 21
239.38132904839335
  0
LINE
  8
_0-0_
  6
CONTINUOUS
 62
    7
 10
599.2977534552673
 20
239.78180204791335
 11
598.79716220586715
 21
239.78180204791335
  0
LINE
  8
_0-0_
  6
CONTINUOUS
 62
    7
 10
436.30524265062729
 20
243.78653204311331
 11
436.10500615086721
 21
243.78653204311331
  0
LINE
  8
_0-0_
  6
CONTINUOUS
 62
    7
 10
436.10500615086721
 20
244.78771454191332
 11
434.1026411532672
 21
244.78771454191332
  0
LINE
  8
_0-0_
  6
CONTINUOUS
 62
    7
 10
434.1026411532672
 20
244.88783279179336
 11
248.88387887526733
 21
244.88783279179336
  0
LINE
  8
_0-0_
  6
CONTINUOUS
 62
    7
 10
248.38328762586724
 20
244.88783279179336
 11
215.34426516546728
 21
244.88783279179336
  0
LINE
  8
_0-0_
  6
CONTINUOUS
 62
    7
 10
436.30524265062729
 20
244.88783279179336
 11
469.3442651110272
 21
244.88783279179336
  0
LINE
  8
_0-0_
  6
CONTINUOUS
 62
    7
 10
599.2977534552673
 20
251.79599203351336
 11
598.79716220586715
 21
251.79599203351336
  0
LINE
  8
_0-0_
  6
CONTINUOUS
 62
    9
 10
555.44596020396796
 20
252.99741117314903
 11
555.2457237042081
 21
252.99741117314903
  0
LINE
  8
_0-0_
  6
CONTINUOUS
 62
    9
 10
590.08687466244794
 20
252.99741117314903
 11
590.28711116220802
 21
252.99741117314903
  0
LINE
  8
_0-0_
  6
CONTINUOUS
 62
    9
 10
589.98675641256796
 20
253.09752942302907
 11
555.54607845384794
 21
253.09752942302907
  0
LINE
  8
_0-0_
  6
CONTINUOUS
 62
    7
 10
555.2457237042081
 20
253.29776592278904
 11
590.28711116220802
 21
253.29776592278904
  0
LINE
  8
_0-0_
  6
CONTINUOUS
 62
    7
 10
448.11919613646728
 20
273.3214157577134
 11
448.11919613646728
 21
303.35689072171334
  0
LINE
  8
_0-0_
  6
CONTINUOUS
 62
    7
 10
623.01834898023299
 20
304.85653942228777
 11
623.01781136525483
 21
304.85628811000777
  0
LINE
  8
_0-0_
  6
CONTINUOUS
 62
    7
 10
623.01834913996709
 20
306.85890449452131
 11
623.01814264152586
 21
306.85880801056396
  0
LINE
  8
_0-0_
  6
CONTINUOUS
 62
    7
 10
625.63628285300831
 20
307.36374575634744
 11
625.63611671769468
 21
307.36366817153004
  0
LINE
  8
_0-0_
  6
CONTINUOUS
 62
    7
 10
563.75577474786724
 20
254.29894828051334
 11
565.01580208977657
 21
254.29894828051334
  0
LINE
  8
_0-0_
  6
CONTINUOUS
 62
    7
 10
428.59613740986731
 20
268.08523128898935
 11
404.56775743866734
 21
268.08523128898935
  0
LINE
  8
_0-0_
  6
CONTINUOUS
 62
    7
 10
278.41876258986724
 20
268.08523128898935
 11
254.39038261866722
 21
268.08523128898935
  0
LINE
  8
_0-0_
  6
CONTINUOUS
 62
    7
 10
598.79716220586715
 20
268.31550326371331
 11
563.75577474786724
 21
268.31550326371331
  0
LINE
  8
_0-0_
  6
CONTINUOUS
 62
    7
 10
469.3442651110272
 20
244.88783279179336
 11
469.3442651110272
 21
209.84644533379333
  0
LINE
  8
_0-0_
  6
CONTINUOUS
 62
    9
 10
251.88742637166729
 20
270.58818753598939
 11
280.92171883686729
 21
270.58818753598939
  0
LINE
  8
_0-0_
  6
CONTINUOUS
 62
    9
 10
402.06480119166724
 20
270.58818753598939
 11
431.09909365686724
 21
270.58818753598939
  0
LINE
  8
_0-0_
  6
CONTINUOUS
 62
    7
 10
236.86968888966726
 20
271.31905076011338
 11
295.93945631886731
 21
271.31905076011338
  0
LINE
  8
_0-0_
  6
CONTINUOUS
 62
    7
 10
387.04706370966721
 20
271.31905076011338
 11
446.11683113886727
 21
271.31905076011338
  0
LINE
  8
_0-0_
  6
CONTINUOUS
 62
    9
 10
234.86732389206725
 20
273.3214157577134
 11
297.94182131646733
 21
273.3214157577134
  0
LINE
  8
_0-0_
  6
CONTINUOUS
 62
    9
 10
385.0446987120672
 20
273.3214157577134
 11
448.11919613646728
 21
273.3214157577134
  0
LINE
  8
_0-0_
  6
CONTINUOUS
 62
    7
 10
234.86742559127532
 20
303.35689072171334
 11
297.94171961680405
 21
303.35689072171334
  0
LINE
  8
_0-0_
  6
CONTINUOUS
 62
    7
 10
385.04480041127533
 20
303.35689072171334
 11
448.11909443680418
 21
303.35689072171334
  0
LINE
  8
_0-0_
  6
CONTINUOUS
 62
    7
 10
599.2977534552673
 20
303.35689072171334
 11
634.33914091326722
 21
303.35689072171334
  0
LINE
  8
_0-0_
  6
CONTINUOUS
 62
    9
 10
246.58216534146817
 20
305.94120262441669
 11
263.35872640286681
 21
305.94120262441669
  0
LINE
  8
_0-0_
  6
CONTINUOUS
 62
    9
 10
417.36030632472745
 20
305.94120262123113
 11
418.13749224295776
 21
305.94120262441669
  0
LINE
  8
_0-0_
  6
CONTINUOUS
 62
    9
 10
419.62779362521258
 20
305.94120262441669
 11
436.40435468661133
 21
305.94120262441669
  0
LINE
  8
_0-0_
  6
CONTINUOUS
 62
    9
 10
265.62621391769596
 20
305.94120262896752
 11
264.84902778557677
 21
305.94120262032095
  0
LINE
  8
_0-0_
  6
CONTINUOUS
 62
    9
 10
266.6548682289673
 20
306.43938473064526
 11
264.56682173868131
 21
306.43938473064526
  0
LINE
  8
_0-0_
  6
CONTINUOUS
 62
    9
 10
264.13849541745225
 20
306.43938473064526
 11
246.13062700356721
 21
306.43938473064526
  0
LINE
  8
_0-0_
  6
CONTINUOUS
 62
    9
 10
416.33165179956723
 20
306.43938473064526
 11
418.41969828939824
 21
306.43938473064526
  0
LINE
  8
_0-0_
  6
CONTINUOUS
 62
    9
 10
418.84802461062714
 20
306.43938473064526
 11
436.85589302496732
 21
306.43938473064526
  0
LINE
  8
_0-0_
  6
CONTINUOUS
 62
    7
 10
246.13062700356721
 20
306.66079277661851
 11
266.6548682289673
 21
306.66079277661851
  0
LINE
  8
_0-0_
  6
CONTINUOUS
 62
    7
 10
416.33165179956723
 20
306.66079277661851
 11
436.85589302496732
 21
306.66079277661851
  0
LINE
  8
_0-0_
  6
CONTINUOUS
 62
    7
 10
612.26306681472727
 20
309.36398571451338
 11
606.35609007180722
 21
309.36398571451338
  0
LINE
  8
_0-0_
  6
CONTINUOUS
 62
    7
 10
621.37382755380725
 20
309.36398571451338
 11
627.2808042967273
 21
309.36398571451338
  0
LINE
  8
_0-0_
  6
CONTINUOUS
 62
    7
 10
628.23192767058731
 20
310.36516821331338
 11
620.42270417994723
 21
310.36516821331338
  0
LINE
  8
_0-0_
  6
CONTINUOUS
 62
    7
 10
613.21419018858728
 20
310.36516821331338
 11
605.4049666979472
 21
310.36516821331338
  0
LINE
  8
_0-0_
  6
CONTINUOUS
 62
    7
 10
436.85589302496732
 20
319.97652020179333
 11
436.35530177556723
 21
320.47711145119337
  0
LINE
  8
_0-0_
  6
CONTINUOUS
 62
    7
 10
606.28885287826802
 20
339.68952118915098
 11
607.11950495412827
 21
340.99292688077691
  0
LINE
  8
_0-0_
  6
CONTINUOUS
 62
    7
 10
606.388971128148
 20
339.68952118915098
 11
607.21962320400837
 21
340.99292688077691
  0
LINE
  8
_0-0_
  6
CONTINUOUS
 62
    7
 10
266.6548682289673
 20
319.97652020179333
 11
246.13062700356721
 21
319.97652020179333
  0
LINE
  8
_0-0_
  6
CONTINUOUS
 62
    7
 10
416.33165179956723
 20
319.97652020179333
 11
436.85589302496732
 21
319.97652020179333
  0
LINE
  8
_0-0_
  6
CONTINUOUS
 62
    7
 10
266.15427697956727
 20
320.47711145119337
 11
246.6312182529673
 21
320.47711145119337
  0
LINE
  8
_0-0_
  6
CONTINUOUS
 62
    7
 10
416.83224304896726
 20
320.47711145119337
 11
436.35530177556723
 21
320.47711145119337
  0
LINE
  8
_0-0_
  6
CONTINUOUS
 62
    7
 10
606.30603094686728
 20
320.73607283831672
 11
612.3131259396672
 21
320.73607283831672
  0
LINE
  8
_0-0_
  6
CONTINUOUS
 62
    7
 10
621.32376842886731
 20
320.73607283831672
 11
627.33086342166723
 21
320.73607283831672
  0
LINE
  8
_0-0_
  6
CONTINUOUS
 62
    7
 10
622.69890580384754
 20
322.78217386672753
 11
622.52549590859326
 21
322.78217386672753
  0
LINE
  8
_0-0_
  6
CONTINUOUS
 62
    7
 10
612.33030400781138
 20
322.78217386672753
 11
612.23018575793139
 21
322.78217386672753
  0
LINE
  8
_0-0_
  6
CONTINUOUS
 62
    7
 10
606.388971128148
 20
322.78217386672753
 11
606.28885287826802
 21
322.78217386672753
  0
LINE
  8
_0-0_
  6
CONTINUOUS
 62
    7
 10
608.95662378549002
 20
338.39827817971337
 11
609.66253310058937
 21
338.39827817971337
  0
LINE
  8
_0-0_
  6
CONTINUOUS
 62
    7
 10
621.78626955266532
 20
338.39827817971337
 11
621.81090187367988
 21
338.39827817971337
  0
LINE
  8
_0-0_
  6
CONTINUOUS
 62
    7
 10
625.2915619364843
 20
338.39827817971337
 11
625.89710306195377
 21
338.39827817971337
  0
LINE
  8
_0-0_
  6
CONTINUOUS
 62
    7
 10
622.69890580384754
 20
339.68952118915098
 11
622.52549590859326
 21
339.68952118915098
  0
LINE
  8
_0-0_
  6
CONTINUOUS
 62
    7
 10
612.33030400781138
 20
339.68952118915098
 11
612.23018575793139
 21
339.68952118915098
  0
LINE
  8
_0-0_
  6
CONTINUOUS
 62
    7
 10
606.388971128148
 20
339.68952118915098
 11
606.28885287826802
 21
339.68952118915098
  0
LINE
  8
_0-0_
  6
CONTINUOUS
 62
    7
 10
606.91557805517539
 20
344.01373778202145
 11
611.70357883090412
 21
344.01373778202145
  0
LINE
  8
_0-0_
  6
CONTINUOUS
 62
    7
 10
621.93342317840154
 20
344.01373778202145
 11
626.72120867167791
 21
344.01373778202145
  0
LINE
  8
_0-0_
  6
CONTINUOUS
 62
    7
 10
626.71095379917142
 20
344.40537317251335
 11
621.94367805090815
 21
344.40537317251335
  0
LINE
  8
_0-0_
  6
CONTINUOUS
 62
    7
 10
611.69332349739852
 20
344.40537317251335
 11
606.92583338868087
 21
344.40537317251335
  0
LINE
  8
_0-0_
  6
CONTINUOUS
 62
    9
 10
607.01862190821885
 20
347.94882377190078
 11
611.60053497786066
 21
347.94882377190078
  0
LINE
  8
_0-0_
  6
CONTINUOUS
 62
    9
 10
622.03635939021876
 20
347.94882377736178
 11
626.61827245986058
 21
347.94882377736178
  0
LINE
  8
_0-0_
  6
CONTINUOUS
 62
    7
 10
608.51988103632721
 20
349.41128566651338
 11
610.09927585020728
 21
349.41128566651338
  0
LINE
  8
_0-0_
  6
CONTINUOUS
 62
    7
 10
623.53765377223829
 20
349.41128566651338
 11
625.11697807829603
 21
349.41128566651338
  0
LINE
  8
_0-0_
  6
CONTINUOUS
 62
    7
 10
555.2457237042081
 20
238.28002844078907
 11
555.2457237042081
 21
253.29776592278904
  0
LINE
  8
_0-0_
  6
CONTINUOUS
 62
    9
 10
555.44596020396796
 20
252.99741117314903
 11
555.44596020396796
 21
238.58038319042907
  0
LINE
  8
_0-0_
  6
CONTINUOUS
 62
    9
 10
555.54607845384794
 20
238.48026494054903
 11
555.54607845384794
 21
238.28002844078907
  0
LINE
  8
_0-0_
  6
CONTINUOUS
 62
    9
 10
555.54607845384794
 20
253.09752942302907
 11
555.54607845384794
 21
253.29776592278904
  0
LINE
  8
_0-0_
  6
CONTINUOUS
 62
    7
 10
563.75577474786724
 20
268.31550326371331
 11
563.75577474786724
 21
254.29894828051334
  0
LINE
  8
_0-0_
  6
CONTINUOUS
 62
    7
 10
563.75577474786724
 20
237.27884580091336
 11
563.75577474786724
 21
223.26229081771334
  0
LINE
  8
_0-0_
  6
CONTINUOUS
 62
    7
 10
610.61854525359695
 20
307.86008698194433
 11
610.61869297124838
 21
307.8600179677041
  0
LINE
  8
_0-0_
  6
CONTINUOUS
 62
    7
 10
610.61854531230256
 20
303.85535695898426
 11
610.61900265201302
 21
303.85514319605386
  0
LINE
  8
_0-0_
  6
CONTINUOUS
 62
    7
 10
610.61854531093741
 20
305.8577219570393
 11
610.61891666863971
 21
305.85754840341838
  0
LINE
  8
_0-0_
  6
CONTINUOUS
 62
    7
 10
572.76641731397626
 20
238.28002844078907
 11
572.76641731397626
 21
233.84921228294343
  0
LINE
  8
_0-0_
  6
CONTINUOUS
 62
    7
 10
622.52549590859326
 20
339.68952118915098
 11
623.0050731082539
 21
340.99292688077691
  0
LINE
  8
_0-0_
  6
CONTINUOUS
 62
    7
 10
622.69890580384754
 20
339.68952118915098
 11
623.17848300350818
 21
340.99292688077691
  0
LINE
  8
_0-0_
  6
CONTINUOUS
 62
    7
 10
625.63628273559686
 20
307.86008698194433
 11
625.63643045324829
 21
307.8600179677041
  0
LINE
  8
_0-0_
  6
CONTINUOUS
 62
    7
 10
625.6362827943027
 20
303.85535695898426
 11
625.63674013401305
 21
303.85514319605386
  0
LINE
  8
_0-0_
  6
CONTINUOUS
 62
    7
 10
625.63628279293744
 20
305.8577219570393
 11
625.63665415063974
 21
305.85754840341838
  0
LINE
  8
_0-0_
  6
CONTINUOUS
 62
    9
 10
589.98675641256796
 20
238.48026494054903
 11
589.98675641256796
 21
238.28002844078907
  0
LINE
  8
_0-0_
  6
CONTINUOUS
 62
    9
 10
589.98675641256796
 20
253.09752942302907
 11
589.98675641256796
 21
253.29776592278904
  0
LINE
  8
_0-0_
  6
CONTINUOUS
 62
    9
 10
590.08687466244794
 20
238.58038319042907
 11
590.08687466244794
 21
252.99741117314903
  0
LINE
  8
_0-0_
  6
CONTINUOUS
 62
    7
 10
590.28711116220802
 20
238.28002844078907
 11
590.28711116220802
 21
253.29776592278904
  0
LINE
  8
_0-0_
  6
CONTINUOUS
 62
    7
 10
598.79716220586715
 20
223.26229081771334
 11
598.79716220586715
 21
268.31550326371331
  0
LINE
  8
_0-0_
  6
CONTINUOUS
 62
    7
 10
599.2977534552673
 20
223.76288206711337
 11
599.2977534552673
 21
303.35689072171334
  0
LINE
  8
_0-0_
  6
CONTINUOUS
 62
    9
 10
599.79834470466722
 20
223.26229081771334
 11
599.79834470466722
 21
303.35689072171334
  0
LINE
  8
_0-0_
  6
CONTINUOUS
 62
    7
 10
605.80227187958712
 20
310.36516821331338
 11
606.27793637430716
 21
320.42590805702724
  0
LINE
  8
_0-0_
  6
CONTINUOUS
 62
    7
 10
605.4049666979472
 20
310.36516821331338
 11
605.67934693903942
 21
315.63214117912469
  0
LINE
  8
_0-0_
  6
CONTINUOUS
 62
    7
 10
605.67934693903942
 20
315.63214117912469
 11
606.30603094686728
 21
320.73607283831672
  0
LINE
  8
_0-0_
  6
CONTINUOUS
 62
    7
 10
611.85712393699509
 20
320.82854984538108
 11
612.23018575793139
 21
322.78217386672753
  0
LINE
  8
_0-0_
  6
CONTINUOUS
 62
    7
 10
611.95724218687508
 20
320.82854984538108
 11
612.33030400781138
 21
322.78217386672753
  0
LINE
  8
_0-0_
  6
CONTINUOUS
 62
    7
 10
613.21419018858728
 20
310.36516821331338
 11
612.93980994703998
 21
315.63214117912469
  0
LINE
  8
_0-0_
  6
CONTINUOUS
 62
    7
 10
612.81688500649238
 20
310.36516821331338
 11
612.34122051222721
 21
320.42590805702724
  0
LINE
  8
_0-0_
  6
CONTINUOUS
 62
    7
 10
612.07055588601941
 20
310.36516821331338
 11
611.8595585875662
 21
315.82772765991911
  0
LINE
  8
_0-0_
  6
CONTINUOUS
 62
    7
 10
612.3131259396672
 20
320.73607283831672
 11
612.26807963902115
 21
322.45632164879117
  0
LINE
  8
_0-0_
  6
CONTINUOUS
 62
    7
 10
611.79480934800927
 20
340.52978489004954
 11
611.70357883090412
 21
344.01373778202145
  0
LINE
  8
_0-0_
  6
CONTINUOUS
 62
    7
 10
611.69332349739852
 20
344.40537317251335
 11
611.60053497786066
 21
347.94882377190078
  0
LINE
  8
_0-0_
  6
CONTINUOUS
 62
    7
 10
609.66373911456049
 20
310.36516821331338
 11
609.55588142361012
 21
320.42590805702724
  0
LINE
  8
_0-0_
  6
CONTINUOUS
 62
    7
 10
609.66253310058937
 20
338.39827817971337
 11
609.74942533555839
 21
321.89925482551496
  0
LINE
  8
_0-0_
  6
CONTINUOUS
 62
    7
 10
605.4049666979472
 20
310.36516821331338
 11
605.4049666979472
 21
309.572602746629
  0
LINE
  8
_0-0_
  6
CONTINUOUS
 62
    7
 10
605.80227187958712
 20
310.36516821331338
 11
605.80227187958712
 21
309.44201855017229
  0
LINE
  8
_0-0_
  6
CONTINUOUS
 62
    7
 10
606.28885287826802
 20
322.78217386672753
 11
606.28885287826802
 21
339.68952118915098
  0
LINE
  8
_0-0_
  6
CONTINUOUS
 62
    7
 10
606.388971128148
 20
322.78217386672753
 11
606.388971128148
 21
339.68952118915098
  0
LINE
  8
_0-0_
  6
CONTINUOUS
 62
    7
 10
606.54860100005999
 20
310.36516821331338
 11
606.54860100005999
 21
309.572602746629
  0
LINE
  8
_0-0_
  6
CONTINUOUS
 62
    7
 10
607.30721344566723
 20
344.40537317251335
 11
607.30721344566723
 21
344.01373778202145
  0
LINE
  8
_0-0_
  6
CONTINUOUS
 62
    7
 10
608.20827769458731
 20
309.36398571451338
 11
608.20827769458731
 21
308.96005151878524
  0
LINE
  8
_0-0_
  6
CONTINUOUS
 62
    7
 10
608.20827769458731
 20
308.36280321571331
 11
608.20827769458731
 21
306.95768652118528
  0
LINE
  8
_0-0_
  6
CONTINUOUS
 62
    7
 10
608.20827769458731
 20
306.3604382181133
 11
608.20827769458731
 21
304.95532152358527
  0
LINE
  8
_0-0_
  6
CONTINUOUS
 62
    7
 10
608.20827769458731
 20
304.35807322051335
 11
608.20827769458731
 21
303.35689072171334
  0
LINE
  8
_0-0_
  6
CONTINUOUS
 62
    7
 10
608.955417771974
 20
310.36516821331338
 11
608.955417771974
 21
309.44201855017229
  0
LINE
  8
_0-0_
  6
CONTINUOUS
 62
    7
 10
609.30957844326724
 20
309.572602746629
 11
609.30957844326724
 21
315.63214117912469
  0
LINE
  8
_0-0_
  6
CONTINUOUS
 62
    7
 10
609.66373911456049
 20
310.36516821331338
 11
609.66373911456049
 21
309.44201855017229
  0
LINE
  8
_0-0_
  6
CONTINUOUS
 62
    7
 10
610.41087919194729
 20
309.26732851976573
 11
610.41087919194729
 21
307.86221196631334
  0
LINE
  8
_0-0_
  6
CONTINUOUS
 62
    7
 10
610.41087919194729
 20
307.26496352262086
 11
610.41087919194729
 21
305.85984696871333
  0
LINE
  8
_0-0_
  6
CONTINUOUS
 62
    7
 10
610.41087919194729
 20
305.26259852502079
 11
610.41087919194729
 21
303.85748197111332
  0
LINE
  8
_0-0_
  6
CONTINUOUS
 62
    7
 10
611.31194344086725
 20
344.40537317251335
 11
611.31194344086725
 21
344.01373778202145
  0
LINE
  8
_0-0_
  6
CONTINUOUS
 62
    7
 10
612.07055588601941
 20
310.36516821331338
 11
612.07055588601941
 21
309.572602746629
  0
LINE
  8
_0-0_
  6
CONTINUOUS
 62
    7
 10
612.23018575793139
 20
322.78217386672753
 11
612.23018575793139
 21
339.68952118915098
  0
LINE
  8
_0-0_
  6
CONTINUOUS
 62
    7
 10
612.33030400781138
 20
322.78217386672753
 11
612.33030400781138
 21
339.68952118915098
  0
LINE
  8
_0-0_
  6
CONTINUOUS
 62
    7
 10
612.81688500649238
 20
310.36516821331338
 11
612.81688500649238
 21
309.44201855017229
  0
LINE
  8
_0-0_
  6
CONTINUOUS
 62
    7
 10
613.21419018858728
 20
310.36516821331338
 11
613.21419018858728
 21
309.572602746629
  0
LINE
  8
_0-0_
  6
CONTINUOUS
 62
    7
 10
608.86973155052101
 20
321.89925482551496
 11
608.95662378549002
 21
338.39827817971337
  0
LINE
  8
_0-0_
  6
CONTINUOUS
 62
    7
 10
608.955417771974
 20
310.36516821331338
 11
609.06327546246928
 21
320.42590805702724
  0
LINE
  8
_0-0_
  6
CONTINUOUS
 62
    7
 10
606.30603094686728
 20
320.73607283831672
 11
606.35107724705824
 21
322.45632164879117
  0
LINE
  8
_0-0_
  6
CONTINUOUS
 62
    7
 10
606.82434753807013
 20
340.52978489004954
 11
606.91557805517539
 21
344.01373778202145
  0
LINE
  8
_0-0_
  6
CONTINUOUS
 62
    7
 10
606.92583338868087
 20
344.40537317251335
 11
607.01862190821885
 21
347.94882377190078
  0
LINE
  8
_0-0_
  6
CONTINUOUS
 62
    7
 10
606.54860100005999
 20
310.36516821331338
 11
606.7595982989684
 21
315.82772765991911
  0
LINE
  8
_0-0_
  6
CONTINUOUS
 62
    7
 10
620.82000936158704
 20
310.36516821331338
 11
621.2956738563073
 21
320.42590805702724
  0
LINE
  8
_0-0_
  6
CONTINUOUS
 62
    7
 10
620.42270417994723
 20
310.36516821331338
 11
620.69708442103934
 21
315.63214117912469
  0
LINE
  8
_0-0_
  6
CONTINUOUS
 62
    7
 10
620.69708442103934
 20
315.63214117912469
 11
621.32376842886731
 21
320.73607283831672
  0
LINE
  8
_0-0_
  6
CONTINUOUS
 62
    7
 10
627.3267713771811
 20
320.82854984538108
 11
627.75754606245084
 21
322.78217386672753
  0
LINE
  8
_0-0_
  6
CONTINUOUS
 62
    7
 10
628.23192767058731
 20
310.36516821331338
 11
627.95754742904001
 21
315.63214117912469
  0
LINE
  8
_0-0_
  6
CONTINUOUS
 62
    7
 10
627.8346224884923
 20
310.36516821331338
 11
627.35895799422724
 21
320.42590805702724
  0
LINE
  8
_0-0_
  6
CONTINUOUS
 62
    7
 10
627.08829336801944
 20
310.36516821331338
 11
626.87729606956611
 21
315.82772765991911
  0
LINE
  8
_0-0_
  6
CONTINUOUS
 62
    7
 10
627.33086342166723
 20
320.73607283831672
 11
627.32844068107215
 21
320.8285935574641
  0
LINE
  8
_0-0_
  6
CONTINUOUS
 62
    7
 10
626.80049383236963
 20
340.99007030232053
 11
626.72131631290404
 21
344.01373778202145
  0
LINE
  8
_0-0_
  6
CONTINUOUS
 62
    7
 10
626.71106097939844
 20
344.40537317251335
 11
626.61827245986058
 21
347.94882377781687
  0
LINE
  8
_0-0_
  6
CONTINUOUS
 62
    7
 10
624.68147659656063
 20
310.36516821331338
 11
624.57361890561003
 21
320.42590805702724
  0
LINE
  8
_0-0_
  6
CONTINUOUS
 62
    7
 10
620.42270417994723
 20
310.36516821331338
 11
620.42270417994723
 21
309.572602746629
  0
LINE
  8
_0-0_
  6
CONTINUOUS
 62
    7
 10
620.82000936158704
 20
310.36516821331338
 11
620.82000936158704
 21
309.44201855017229
  0
LINE
  8
_0-0_
  6
CONTINUOUS
 62
    7
 10
621.56633848206002
 20
310.36516821331338
 11
621.56633848206002
 21
309.572602746629
  0
LINE
  8
_0-0_
  6
CONTINUOUS
 62
    7
 10
622.32495092766726
 20
344.40537317251335
 11
622.32495092766726
 21
344.01373778202145
  0
LINE
  8
_0-0_
  6
CONTINUOUS
 62
    7
 10
622.52549590859326
 20
322.78217386672753
 11
622.52549590859326
 21
339.68952118915098
  0
LINE
  8
_0-0_
  6
CONTINUOUS
 62
    7
 10
622.69890580384754
 20
322.78217386672753
 11
622.69890580384754
 21
339.68952118915098
  0
LINE
  8
_0-0_
  6
CONTINUOUS
 62
    7
 10
623.22601517658734
 20
309.36398571451338
 11
623.22601517658734
 21
308.96005151878524
  0
LINE
  8
_0-0_
  6
CONTINUOUS
 62
    7
 10
623.22601517658734
 20
308.36280321571331
 11
623.22601517658734
 21
306.95768652118528
  0
LINE
  8
_0-0_
  6
CONTINUOUS
 62
    7
 10
623.22601517658734
 20
306.3604382181133
 11
623.22601517658734
 21
304.95532152358527
  0
LINE
  8
_0-0_
  6
CONTINUOUS
 62
    7
 10
623.22601517658734
 20
304.35807322051335
 11
623.22601517658734
 21
303.35689072171334
  0
LINE
  8
_0-0_
  6
CONTINUOUS
 62
    7
 10
623.97315525397391
 20
310.36516821331338
 11
623.97315525397391
 21
309.44201855017229
  0
LINE
  8
_0-0_
  6
CONTINUOUS
 62
    7
 10
624.32731592526727
 20
309.572602746629
 11
624.32731592526727
 21
315.63214117912469
  0
LINE
  8
_0-0_
  6
CONTINUOUS
 62
    7
 10
624.68147659656063
 20
310.36516821331338
 11
624.68147659656063
 21
309.44201855017229
  0
LINE
  8
_0-0_
  6
CONTINUOUS
 62
    7
 10
625.4286166739472
 20
324.34685306177687
 11
625.4286166739472
 21
323.88113194711337
  0
LINE
  8
_0-0_
  6
CONTINUOUS
 62
    7
 10
625.4286166739472
 20
309.26732851976573
 11
625.4286166739472
 21
307.86221196631334
  0
LINE
  8
_0-0_
  6
CONTINUOUS
 62
    7
 10
625.4286166739472
 20
307.26496352262086
 11
625.4286166739472
 21
305.85984696871333
  0
LINE
  8
_0-0_
  6
CONTINUOUS
 62
    7
 10
625.4286166739472
 20
305.26259852502079
 11
625.4286166739472
 21
303.85748197111332
  0
LINE
  8
_0-0_
  6
CONTINUOUS
 62
    7
 10
626.32968092286728
 20
344.40537317251335
 11
626.32968092286728
 21
344.01373778202145
  0
LINE
  8
_0-0_
  6
CONTINUOUS
 62
    7
 10
627.08829336801944
 20
310.36516821331338
 11
627.08829336801944
 21
309.572602746629
  0
LINE
  8
_0-0_
  6
CONTINUOUS
 62
    7
 10
627.75754606245084
 20
322.78217386672753
 11
627.75754606245084
 21
339.68952118915098
  0
LINE
  8
_0-0_
  6
CONTINUOUS
 62
    7
 10
627.8346224884923
 20
310.36516821331338
 11
627.8346224884923
 21
309.44201855017229
  0
LINE
  8
_0-0_
  6
CONTINUOUS
 62
    7
 10
628.23192767058731
 20
310.36516821331338
 11
628.23192767058731
 21
309.572602746629
  0
LINE
  8
_0-0_
  6
CONTINUOUS
 62
    9
 10
633.8385496638673
 20
223.26229081771334
 11
633.8385496638673
 21
303.35689072171334
  0
LINE
  8
_0-0_
  6
CONTINUOUS
 62
    7
 10
623.97315525397391
 20
310.36516821331338
 11
624.08101294446942
 21
320.42590805702724
  0
LINE
  8
_0-0_
  6
CONTINUOUS
 62
    7
 10
621.32376842886731
 20
320.73607283831672
 11
621.35339893916296
 21
321.86761639047324
  0
LINE
  8
_0-0_
  6
CONTINUOUS
 62
    7
 10
621.78626955266532
 20
338.39827817971337
 11
621.9333155371753
 21
344.01373778202145
  0
LINE
  8
_0-0_
  6
CONTINUOUS
 62
    7
 10
621.9435708706809
 20
344.40537317251335
 11
622.03635939067397
 21
347.94882377781687
  0
LINE
  8
_0-0_
  6
CONTINUOUS
 62
    7
 10
621.56633848206002
 20
310.36516821331338
 11
621.77733578096843
 21
315.82772765991911
  0
LINE
  8
_0-0_
  6
CONTINUOUS
 62
    7
 10
606.66191469920432
 20
320.82854984538108
 11
606.28885287826802
 21
322.78217386672753
  0
LINE
  8
_0-0_
  6
CONTINUOUS
 62
    7
 10
606.76203294908441
 20
320.82854984538108
 11
606.388971128148
 21
322.78217386672753
  0
LINE
  8
_0-0_
  6
CONTINUOUS
 62
    7
 10
612.93980994703998
 20
315.63214117912469
 11
612.3131259396672
 21
320.73607283831672
  0
LINE
  8
_0-0_
  6
CONTINUOUS
 62
    7
 10
622.74088325122807
 20
320.82854984538108
 11
622.52549590859326
 21
322.78217386672753
  0
LINE
  8
_0-0_
  6
CONTINUOUS
 62
    7
 10
622.91429314693755
 20
320.82854984538108
 11
622.69890580384754
 21
322.78217386672753
  0
LINE
  8
_0-0_
  6
CONTINUOUS
 62
    7
 10
634.33914091326722
 20
223.76288206711337
 11
634.33914091326722
 21
303.35689072171334
  0
LINE
  8
_0-0_
  6
CONTINUOUS
 62
    7
 10
627.75754606245084
 20
339.68952118915098
 11
626.79839166358454
 21
340.99292688077691
  0
LINE
  8
_0-0_
  6
CONTINUOUS
 62
    7
 10
612.23018575793139
 20
339.68952118915098
 11
611.39953368207102
 21
340.99292688077691
  0
LINE
  8
_0-0_
  6
CONTINUOUS
 62
    7
 10
612.33030400781138
 20
339.68952118915098
 11
611.49965193195112
 21
340.99292688077691
  0
LINE
  8
_0-0_
  6
CONTINUOUS
 62
    7
 10
627.95754742904001
 20
315.63214117912469
 11
627.33086342166723
 21
320.73607283831672
  0
LINE
  8
_0-0_
  6
CONTINUOUS
 62
    7
 10
898.44971152783592
 20
305.8908043470849
 11
916.42855048269178
 21
305.8908043470849
  0
LINE
  8
_0-0_
  6
CONTINUOUS
 62
    9
 10
897.44990111506422
 20
306.83958900277071
 11
917.42836089591856
 21
306.83958900277071
  0
LINE
  8
_0-0_
  6
CONTINUOUS
 62
    7
 10
1007.6441502940263
 20
342.68545317085022
 11
982.4277819927122
 21
338.23912708419437
  0
LINE
  8
_0-0_
  6
CONTINUOUS
 62
    7
 10
1008.7178806997694
 20
343.58641995829464
 11
1000.1591871629935
 21
342.07729136827521
  0
LINE
  8
_0-0_
  6
CONTINUOUS
 62
    7
 10
989.66935020084225
 20
340.22765008844078
 11
981.11065666406603
 21
338.71852149842141
  0
LINE
  8
_0-0_
  6
CONTINUOUS
 62
    7
 10
999.67239731673305
 20
344.83801377161797
 11
989.18256035503691
 21
342.98837249223868
  0
LINE
  8
_0-0_
  6
CONTINUOUS
 62
    7
 10
982.58622347965638
 20
348.94165179548492
 11
979.40689220283753
 21
348.38104991103125
  0
LINE
  8
_0-0_
  6
CONTINUOUS
 62
    7
 10
856.97953306597151
 20
327.41622807128488
 11
826.94405810197134
 21
327.41622807128488
  0
LINE
  8
_0-0_
  6
CONTINUOUS
 62
    7
 10
918.95272974169143
 20
335.9262793110849
 11
895.92553226929135
 21
335.9262793110849
  0
LINE
  8
_0-0_
  6
CONTINUOUS
 62
    7
 10
918.20184286759127
 20
337.92864430868491
 11
896.67641914339129
 21
337.92864430868491
  0
LINE
  8
_0-0_
  6
CONTINUOUS
 62
    7
 10
885.41311603189138
 20
341.4327830544849
 11
920.45450348989129
 21
341.4327830544849
  0
LINE
  8
_0-0_
  6
CONTINUOUS
 62
    7
 10
810.32442862189146
 20
348.6913561707849
 11
809.82383737249143
 21
349.19194742018487
  0
LINE
  8
_0-0_
  6
CONTINUOUS
 62
    7
 10
858.98189806357141
 20
344.43633055088486
 11
859.71276128769546
 21
344.43633055088486
  0
LINE
  8
_0-0_
  6
CONTINUOUS
 62
    7
 10
862.21571753469539
 20
347.48993717222487
 11
885.41311603189138
 21
347.48993717222487
  0
LINE
  8
_0-0_
  6
CONTINUOUS
 62
    7
 10
823.86156409303953
 20
348.6913561707849
 11
810.32442862189146
 21
348.6913561707849
  0
LINE
  8
_0-0_
  6
CONTINUOUS
 62
    7
 10
1010.0603371324913
 20
348.94165179548492
 11
920.45450348989129
 21
348.94165179548492
  0
LINE
  8
_0-0_
  6
CONTINUOUS
 62
    9
 10
1010.5609283818915
 20
349.44224304488489
 11
920.45450348989129
 21
349.44224304488489
  0
LINE
  8
_0-0_
  6
CONTINUOUS
 62
    2
 10
823.64015585593143
 20
349.62696121591347
 11
809.82383737249143
 21
349.62696121591347
  0
LINE
  8
_0-0_
  6
CONTINUOUS
 62
    7
 10
826.94405810197134
 20
352.04531754176492
 11
824.57967391864258
 21
352.04531754176492
  0
LINE
  8
_0-0_
  6
CONTINUOUS
 62
    9
 10
826.94405810197134
 20
353.04650004056492
 11
824.61447211159032
 21
353.04650004056492
  0
LINE
  8
_0-0_
  6
CONTINUOUS
 62
    7
 10
826.94405810197134
 20
354.59085922742707
 11
824.69503914130019
 21
354.59085922742707
  0
LINE
  8
_0-0_
  6
CONTINUOUS
 62
    7
 10
780.88966315717153
 20
523.8340006735267
 11
780.88966315717153
 21
525.41332497958444
  0
LINE
  8
_0-0_
  6
CONTINUOUS
 62
    9
 10
782.35212504632295
 20
522.33270629196215
 11
782.35212504632295
 21
526.91461936114888
  0
LINE
  8
_0-0_
  6
CONTINUOUS
 62
    7
 10
826.94405810197134
 20
363.31609433999779
 11
824.69503914130019
 21
363.31609433999779
  0
LINE
  8
_0-0_
  6
CONTINUOUS
 62
    9
 10
826.94405810197134
 20
364.86045352640491
 11
824.61447211159032
 21
364.86045352640491
  0
LINE
  8
_0-0_
  6
CONTINUOUS
 62
    7
 10
826.94405810197134
 20
365.86163602520492
 11
824.57967391864258
 21
365.86163602520492
  0
LINE
  8
_0-0_
  6
CONTINUOUS
 62
    2
 10
823.64015585593143
 20
368.27999235105631
 11
809.82383737249143
 21
368.27999235105631
  0
LINE
  8
_0-0_
  6
CONTINUOUS
 62
    9
 10
1010.5609283818915
 20
368.46471052208489
 11
920.45450348989129
 21
368.46471052208489
  0
LINE
  8
_0-0_
  6
CONTINUOUS
 62
    7
 10
1010.0603371324913
 20
368.96530177148486
 11
920.45450348989129
 21
368.96530177148486
  0
LINE
  8
_0-0_
  6
CONTINUOUS
 62
    7
 10
823.86156409303953
 20
369.21559739618488
 11
810.32442862189146
 21
369.21559739618488
  0
LINE
  8
_0-0_
  6
CONTINUOUS
 62
    7
 10
862.21571753469539
 20
370.41701639474491
 11
885.41311603189138
 21
370.41701639474491
  0
LINE
  8
_0-0_
  6
CONTINUOUS
 62
    7
 10
858.98189806357141
 20
373.47062301608491
 11
859.71276128769546
 21
373.47062301608491
  0
LINE
  8
_0-0_
  6
CONTINUOUS
 62
    7
 10
920.45450348989129
 20
376.47417051248487
 11
885.41311603189138
 21
376.47417051248487
  0
LINE
  8
_0-0_
  6
CONTINUOUS
 62
    7
 10
910.44267850189135
 20
379.92825013334487
 11
904.43558350909143
 21
379.92825013334487
  0
LINE
  8
_0-0_
  6
CONTINUOUS
 62
    9
 10
897.92789726689136
 20
381.2409030619022
 11
904.43558350909143
 21
381.2409030619022
  0
LINE
  8
_0-0_
  6
CONTINUOUS
 62
    9
 10
898.16346961917543
 20
381.66558715992988
 11
904.43558350909143
 21
381.66558715992988
  0
LINE
  8
_0-0_
  6
CONTINUOUS
 62
    7
 10
981.11065666406603
 20
338.71852149842141
 11
982.4277819927122
 21
338.23912708419437
  0
LINE
  8
_0-0_
  6
CONTINUOUS
 62
    7
 10
785.89557565117138
 20
527.00730070091481
 11
785.89557565117138
 21
522.24002495219634
  0
LINE
  8
_0-0_
  6
CONTINUOUS
 62
    7
 10
786.28721104120825
 20
522.22977007968984
 11
786.28721104120825
 21
527.0175555734213
  0
LINE
  8
_0-0_
  6
CONTINUOUS
 62
    7
 10
790.61142763407861
 20
527.64438839155468
 11
790.61142763407861
 21
527.5442701416747
  0
LINE
  8
_0-0_
  6
CONTINUOUS
 62
    7
 10
790.61142763407861
 20
526.42548284322959
 11
790.61142763407861
 21
526.25207294752022
  0
LINE
  8
_0-0_
  6
CONTINUOUS
 62
    7
 10
791.90267064397142
 20
523.05387568941387
 11
791.90267064397142
 21
523.65941681488346
  0
LINE
  8
_0-0_
  6
CONTINUOUS
 62
    7
 10
791.90267064397142
 20
527.14007687768776
 11
791.90267064397142
 21
527.16470919915741
  0
LINE
  8
_0-0_
  6
CONTINUOUS
 62
    7
 10
910.44267850189135
 20
389.94007512134488
 11
904.43558350909143
 21
389.94007512134488
  0
LINE
  8
_0-0_
  6
CONTINUOUS
 62
    7
 10
856.97953306597151
 20
390.4907254956849
 11
826.94405810197134
 21
390.4907254956849
  0
LINE
  8
_0-0_
  6
CONTINUOUS
 62
    7
 10
807.51877495650206
 20
527.64438839155468
 11
807.51877495650206
 21
527.5442701416747
  0
LINE
  8
_0-0_
  6
CONTINUOUS
 62
    7
 10
807.51877495650206
 20
526.42548284322959
 11
807.51877495650206
 21
526.25207294752022
  0
LINE
  8
_0-0_
  6
CONTINUOUS
 62
    7
 10
809.56487598536796
 20
521.6201153301555
 11
809.56487598536796
 21
527.62721032295542
  0
LINE
  8
_0-0_
  6
CONTINUOUS
 62
    7
 10
809.82383737249143
 20
349.19195393606259
 11
809.82383737249143
 21
368.71499963136228
  0
LINE
  8
_0-0_
  6
CONTINUOUS
 62
    7
 10
810.32442862189146
 20
348.6913561707849
 11
810.32442862189146
 21
369.21559739618488
  0
LINE
  8
_0-0_
  6
CONTINUOUS
 62
    7
 10
819.93578061037147
 20
528.5282745718755
 11
819.93578061037147
 21
520.71905108123542
  0
LINE
  8
_0-0_
  6
CONTINUOUS
 62
    7
 10
820.9369631091713
 20
521.67017445509543
 11
820.9369631091713
 21
527.57715119801549
  0
LINE
  8
_0-0_
  6
CONTINUOUS
 62
    7
 10
824.94375241617445
 20
525.93248901488721
 11
824.94381808145909
 21
525.93262962186736
  0
LINE
  8
_0-0_
  6
CONTINUOUS
 62
    7
 10
824.43875924492772
 20
523.31423041858011
 11
824.43897682873467
 21
523.31469592748454
  0
LINE
  8
_0-0_
  6
CONTINUOUS
 62
    7
 10
822.43633482168559
 20
523.31410338672447
 11
822.43661176787816
 21
523.31469579186989
  0
LINE
  8
_0-0_
  6
CONTINUOUS
 62
    7
 10
826.44109755964894
 20
523.31417337393191
 11
826.44134176489843
 21
523.31469579596569
  0
LINE
  8
_0-0_
  6
CONTINUOUS
 62
    7
 10
790.61142763407861
 20
527.64438839155468
 11
789.77116393318022
 21
527.10889373175269
  0
LINE
  8
_0-0_
  6
CONTINUOUS
 62
    7
 10
790.61142763407861
 20
527.5442701416747
 11
789.9349947231691
 21
527.11318379193369
  0
LINE
  8
_0-0_
  6
CONTINUOUS
 62
    7
 10
823.64015604661108
 20
348.6913561707849
 11
823.64015604661108
 21
369.21559739618488
  0
LINE
  8
_0-0_
  6
CONTINUOUS
 62
    9
 10
823.86156409303953
 20
348.6913561707849
 11
823.86156409303953
 21
369.21559739618488
  0
LINE
  8
_0-0_
  6
CONTINUOUS
 62
    9
 10
824.3597461988129
 20
349.14289450914083
 11
824.3597461988129
 21
368.76405905828403
  0
LINE
  8
_0-0_
  6
CONTINUOUS
 62
    7
 10
826.94405810197134
 20
390.4907254956849
 11
826.94405810197134
 21
327.41622807128488
  0
LINE
  8
_0-0_
  6
CONTINUOUS
 62
    7
 10
826.94405810197134
 20
517.11479408555556
 11
826.94405810197134
 21
532.13253156755547
  0
LINE
  8
_0-0_
  6
CONTINUOUS
 62
    7
 10
790.61142763407861
 20
526.42548284322959
 11
789.3080219424528
 21
525.94590564356884
  0
LINE
  8
_0-0_
  6
CONTINUOUS
 62
    7
 10
790.61142763407861
 20
526.25207294752022
 11
789.3080219424528
 21
525.77249574785935
  0
LINE
  8
_0-0_
  6
CONTINUOUS
 62
    9
 10
856.97953306597151
 20
390.4907254956849
 11
856.97953306597151
 21
327.41622807128488
  0
LINE
  8
_0-0_
  6
CONTINUOUS
 62
    7
 10
858.98189806357141
 20
388.48836049808489
 11
858.98189806357141
 21
329.41859306888489
  0
LINE
  8
_0-0_
  6
CONTINUOUS
 62
    7
 10
790.61142763407861
 20
521.19343268891691
 11
789.3080219424528
 21
522.15258708823819
  0
LINE
  8
_0-0_
  6
CONTINUOUS
 62
    7
 10
821.43519913681394
 20
525.93312219774089
 11
821.43542929547311
 21
525.93262980526595
  0
LINE
  8
_0-0_
  6
CONTINUOUS
 62
    7
 10
823.43753568080729
 20
525.93318302321825
 11
823.43779430763561
 21
525.9326297734101
  0
LINE
  8
_0-0_
  6
CONTINUOUS
 62
    7
 10
825.43995242862047
 20
525.93307238936666
 11
825.44015930068474
 21
525.93262978342193
  0
LINE
  8
_0-0_
  6
CONTINUOUS
 62
    7
 10
872.99845304677137
 20
539.14080905915546
 11
873.3657413067242
 21
532.13253156755547
  0
LINE
  8
_0-0_
  6
CONTINUOUS
 62
    7
 10
874.15278757785654
 20
517.11479408555556
 11
874.52282189254424
 21
510.05411875038624
  0
LINE
  8
_0-0_
  6
CONTINUOUS
 62
    9
 10
859.71276128769546
 20
344.43633055088486
 11
859.71276128769546
 21
373.47062301608491
  0
LINE
  8
_0-0_
  6
CONTINUOUS
 62
    7
 10
861.98544555997137
 20
517.11479408555556
 11
861.98544555997137
 21
532.13253156755547
  0
LINE
  8
_0-0_
  6
CONTINUOUS
 62
    7
 10
862.21571753469539
 20
346.9392867978849
 11
862.21571753469539
 21
370.96766676908493
  0
LINE
  8
_0-0_
  6
CONTINUOUS
 62
    7
 10
873.99963554557132
 20
539.14080905915546
 11
873.99963554557132
 21
542.64494780495556
  0
LINE
  8
_0-0_
  6
CONTINUOUS
 62
    2
 10
875.00081804437127
 20
542.64494780495556
 11
875.00081804437127
 21
539.14080905915546
  0
LINE
  8
_0-0_
  6
CONTINUOUS
 62
    7
 10
876.00200054317133
 20
517.11479408555556
 11
876.00200054317133
 21
532.13253156755547
  0
LINE
  8
_0-0_
  6
CONTINUOUS
 62
    7
 10
877.0031830419714
 20
509.10533409515551
 11
877.0031830419714
 21
434.51723791999285
  0
LINE
  8
_0-0_
  6
CONTINUOUS
 62
    7
 10
877.00318290044061
 20
554.15854654115549
 11
877.00318290044061
 21
757.49871204743545
  0
LINE
  8
_0-0_
  6
CONTINUOUS
 62
    9
 10
877.30353765008056
 20
757.69894854719553
 11
877.30353765008056
 21
755.89682004935548
  0
LINE
  8
_0-0_
  6
CONTINUOUS
 62
    9
 10
877.50377414984064
 20
553.65795529175546
 11
877.50377414984064
 21
555.66032028935558
  0
LINE
  8
_0-0_
  6
CONTINUOUS
 62
    7
 10
873.99963554557132
 20
542.64494780495556
 11
877.0031830419714
 21
553.65795529175546
  0
LINE
  8
_0-0_
  6
CONTINUOUS
 62
    7
 10
895.92553226929135
 20
335.9262793110849
 11
897.44990111506422
 21
306.83958900277071
  0
LINE
  8
_0-0_
  6
CONTINUOUS
 62
    7
 10
885.41311603189138
 20
376.47417051248487
 11
885.41311603189138
 21
341.4327830544849
  0
LINE
  8
_0-0_
  6
CONTINUOUS
 62
    9
 10
891.52032913304049
 20
553.65795529175546
 11
891.52032913304049
 21
555.66032028935558
  0
LINE
  8
_0-0_
  6
CONTINUOUS
 62
    9
 10
891.72056563280057
 20
757.69894854719553
 11
891.72056563280057
 21
755.89682004935548
  0
LINE
  8
_0-0_
  6
CONTINUOUS
 62
    7
 10
892.02092052397143
 20
509.10533409515551
 11
892.02092052397143
 21
434.51723791862764
  0
LINE
  8
_0-0_
  6
CONTINUOUS
 62
    7
 10
892.02092038244064
 20
554.15854654115549
 11
892.02092038244064
 21
757.49871204743545
  0
LINE
  8
_0-0_
  6
CONTINUOUS
 62
    6
 10
893.02210306827965
 20
744.09319419832536
 11
893.02210306827965
 21
743.48215708789985
  0
LINE
  8
_0-0_
  6
CONTINUOUS
 62
    6
 10
893.02210306827965
 20
742.28073804201108
 11
893.02210306827965
 21
741.66970093158568
  0
LINE
  8
_0-0_
  6
CONTINUOUS
 62
    2
 10
893.02210306827965
 20
743.48215708789985
 11
893.02210306827965
 21
742.28073804201108
  0
LINE
  8
_0-0_
  6
CONTINUOUS
 62
    2
 10
893.02210306827965
 20
737.4750620950997
 11
893.02210306827965
 21
736.27364304921116
  0
LINE
  8
_0-0_
  6
CONTINUOUS
 62
    6
 10
893.02210306827965
 20
738.08609920552544
 11
893.02210306827965
 21
737.4750620950997
  0
LINE
  8
_0-0_
  6
CONTINUOUS
 62
    6
 10
893.02210306827965
 20
736.27364304921116
 11
893.02210306827965
 21
735.66260593878565
  0
LINE
  8
_0-0_
  6
CONTINUOUS
 62
    6
 10
893.02210306827965
 20
732.07900421272541
 11
893.02210306827965
 21
731.46796710229978
  0
LINE
  8
_0-0_
  6
CONTINUOUS
 62
    6
 10
893.02210306827965
 20
730.26654805641124
 11
893.02210306827965
 21
729.65551094598572
  0
LINE
  8
_0-0_
  6
CONTINUOUS
 62
    2
 10
893.02210306827965
 20
731.46796710229978
 11
893.02210306827965
 21
730.26654805641124
  0
LINE
  8
_0-0_
  6
CONTINUOUS
 62
    2
 10
893.02210306827965
 20
725.46087210949986
 11
893.02210306827965
 21
724.2594530636112
  0
LINE
  8
_0-0_
  6
CONTINUOUS
 62
    6
 10
893.02210306827965
 20
726.07190921992537
 11
893.02210306827965
 21
725.46087210949986
  0
LINE
  8
_0-0_
  6
CONTINUOUS
 62
    6
 10
893.02210306827965
 20
724.2594530636112
 11
893.02210306827965
 21
723.64841595318558
  0
LINE
  8
_0-0_
  6
CONTINUOUS
 62
    6
 10
893.02210306827965
 20
720.06481422712534
 11
893.02210306827965
 21
719.45377711669994
  0
LINE
  8
_0-0_
  6
CONTINUOUS
 62
    6
 10
893.02210306827965
 20
718.25235807081128
 11
893.02210306827965
 21
717.64132096038566
  0
LINE
  8
_0-0_
  6
CONTINUOUS
 62
    2
 10
893.02210306827965
 20
719.45377711669994
 11
893.02210306827965
 21
718.25235807081128
  0
LINE
  8
_0-0_
  6
CONTINUOUS
 62
    7
 10
893.02210302277138
 20
517.11479408555556
 11
893.02210302277138
 21
532.13253156755547
  0
LINE
  8
_0-0_
  6
CONTINUOUS
 62
    6
 10
893.02210306827965
 20
687.60584599638571
 11
893.02210306827965
 21
688.21688310681111
  0
LINE
  8
_0-0_
  6
CONTINUOUS
 62
    6
 10
893.02210306827965
 20
689.41830215269977
 11
893.02210306827965
 21
690.02933926312539
  0
LINE
  8
_0-0_
  6
CONTINUOUS
 62
    2
 10
893.02210306827965
 20
688.21688310681111
 11
893.02210306827965
 21
689.41830215269977
  0
LINE
  8
_0-0_
  6
CONTINUOUS
 62
    6
 10
893.02210306827965
 20
695.4253971454998
 11
893.02210306827965
 21
696.03643425592531
  0
LINE
  8
_0-0_
  6
CONTINUOUS
 62
    2
 10
893.02210306827965
 20
694.22397809961126
 11
893.02210306827965
 21
695.4253971454998
  0
LINE
  8
_0-0_
  6
CONTINUOUS
 62
    6
 10
893.02210306827965
 20
693.61294098918563
 11
893.02210306827965
 21
694.22397809961126
  0
LINE
  8
_0-0_
  6
CONTINUOUS
 62
    6
 10
893.02210306827965
 20
701.43249213829984
 11
893.02210306827965
 21
702.04352924872524
  0
LINE
  8
_0-0_
  6
CONTINUOUS
 62
    2
 10
893.02210306827965
 20
700.23107309241118
 11
893.02210306827965
 21
701.43249213829984
  0
LINE
  8
_0-0_
  6
CONTINUOUS
 62
    6
 10
893.02210306827965
 20
699.62003598198567
 11
893.02210306827965
 21
700.23107309241118
  0
LINE
  8
_0-0_
  6
CONTINUOUS
 62
    6
 10
893.02210306827965
 20
705.6271309747857
 11
893.02210306827965
 21
706.23816808521121
  0
LINE
  8
_0-0_
  6
CONTINUOUS
 62
    6
 10
893.02210306827965
 20
707.43958713109987
 11
893.02210306827965
 21
708.05062424152538
  0
LINE
  8
_0-0_
  6
CONTINUOUS
 62
    2
 10
893.02210306827965
 20
706.23816808521121
 11
893.02210306827965
 21
707.43958713109987
  0
LINE
  8
_0-0_
  6
CONTINUOUS
 62
    6
 10
893.02210306827965
 20
713.44668212389979
 11
893.02210306827965
 21
714.0577192343253
  0
LINE
  8
_0-0_
  6
CONTINUOUS
 62
    2
 10
893.02210306827965
 20
712.24526307801113
 11
893.02210306827965
 21
713.44668212389979
  0
LINE
  8
_0-0_
  6
CONTINUOUS
 62
    6
 10
893.02210306827965
 20
711.63422596758573
 11
893.02210306827965
 21
712.24526307801113
  0
LINE
  8
_0-0_
  6
CONTINUOUS
 62
    2
 10
894.02328552157132
 20
542.64494780495556
 11
894.02328552157132
 21
539.14080905915546
  0
LINE
  8
_0-0_
  6
CONTINUOUS
 62
    7
 10
895.02446802037139
 20
539.14080905915546
 11
895.02446802037139
 21
542.64494780495556
  0
LINE
  8
_0-0_
  6
CONTINUOUS
 62
    7
 10
896.67641914339129
 20
341.4327830544849
 11
896.67641914339129
 21
337.92864430868491
  0
LINE
  8
_0-0_
  6
CONTINUOUS
 62
    7
 10
896.02565051917134
 20
539.14080905915546
 11
895.65836225921862
 21
532.13253156755547
  0
LINE
  8
_0-0_
  6
CONTINUOUS
 62
    7
 10
894.87131598763108
 20
517.11479408555556
 11
894.50128167339858
 21
510.05411875038624
  0
LINE
  8
_0-0_
  6
CONTINUOUS
 62
    7
 10
897.92789726689136
 20
381.2409030619022
 11
897.92789726689136
 21
376.47417051248487
  0
LINE
  8
_0-0_
  6
CONTINUOUS
 62
    7
 10
898.02801551677135
 20
337.92864430868491
 11
898.02801551677135
 21
335.9262793110849
  0
LINE
  8
_0-0_
  6
CONTINUOUS
 62
    7
 10
899.93026226449138
 20
305.8908043470849
 11
899.93026226449138
 21
231.30270817237732
  0
LINE
  8
_0-0_
  6
CONTINUOUS
 62
    7
 10
904.43558350909143
 20
379.92825013334487
 11
904.43558350909143
 21
389.94007512134488
  0
LINE
  8
_0-0_
  6
CONTINUOUS
 62
    7
 10
905.43676600789149
 20
379.92825013334487
 11
905.43676600789149
 21
376.47417051248487
  0
LINE
  8
_0-0_
  6
CONTINUOUS
 62
    7
 10
907.03865800597146
 20
517.11479408555556
 11
907.03865800597146
 21
532.13253156755547
  0
LINE
  8
_0-0_
  6
CONTINUOUS
 62
    7
 10
909.44149600309129
 20
379.92825013334487
 11
909.44149600309129
 21
376.47417051248487
  0
LINE
  8
_0-0_
  6
CONTINUOUS
 62
    7
 10
910.44267850189135
 20
379.92825013334487
 11
910.44267850189135
 21
389.94007512134488
  0
LINE
  8
_0-0_
  6
CONTINUOUS
 62
    7
 10
914.9479997464914
 20
305.8908043470849
 11
914.9479997464914
 21
231.30270817101211
  0
LINE
  8
_0-0_
  6
CONTINUOUS
 62
    7
 10
875.52263230531582
 20
509.10533409515551
 11
893.50147126017168
 21
509.10533409515551
  0
LINE
  8
_0-0_
  6
CONTINUOUS
 62
    9
 10
874.52282189254424
 20
510.05411875038624
 11
894.50128167339858
 21
510.05411875038624
  0
LINE
  8
_0-0_
  6
CONTINUOUS
 62
    7
 10
814.66880764410496
 20
520.99343132232775
 11
809.56487598536796
 21
521.6201153301555
  0
LINE
  8
_0-0_
  6
CONTINUOUS
 62
    7
 10
807.99436443352783
 20
527.5535703657348
 11
807.51877495650206
 21
527.64438839155468
  0
LINE
  8
_0-0_
  6
CONTINUOUS
 62
    7
 10
895.02446802037139
 20
542.64494780495556
 11
892.02092052397143
 21
553.65795529175546
  0
LINE
  8
_0-0_
  6
CONTINUOUS
 62
    7
 10
916.85024649421143
 20
337.92864430868491
 11
916.85024649421143
 21
335.9262793110849
  0
LINE
  8
_0-0_
  6
CONTINUOUS
 62
    7
 10
918.20184286759127
 20
341.4327830544849
 11
918.20184286759127
 21
337.92864430868491
  0
LINE
  8
_0-0_
  6
CONTINUOUS
 62
    7
 10
920.45450348989129
 20
341.4327830544849
 11
920.45450348989129
 21
376.47417051248487
  0
LINE
  8
_0-0_
  6
CONTINUOUS
 62
    7
 10
918.95272974169143
 20
335.9262793110849
 11
917.42836089591856
 21
306.83958900277071
  0
LINE
  8
_0-0_
  6
CONTINUOUS
 62
    7
 10
810.32442862189146
 20
369.21559739618488
 11
809.82383737249143
 21
368.7150061467849
  0
LINE
  8
_0-0_
  6
CONTINUOUS
 62
    7
 10
819.93578061037147
 20
528.5282745718755
 11
814.66880764410496
 21
528.25389433032819
  0
LINE
  8
_0-0_
  6
CONTINUOUS
 62
    7
 10
819.93578061037147
 20
528.1309693897806
 11
809.87504076620235
 21
527.65530489551554
  0
LINE
  8
_0-0_
  6
CONTINUOUS
 62
    7
 10
819.93578061037147
 20
527.38464026976283
 11
814.47322116331054
 21
527.17364297085442
  0
LINE
  8
_0-0_
  6
CONTINUOUS
 62
    7
 10
809.56487598536796
 20
527.62721032295542
 11
807.84462717443853
 21
527.58216402230937
  0
LINE
  8
_0-0_
  6
CONTINUOUS
 62
    7
 10
791.90267064397142
 20
527.16470919915741
 11
786.28721104120825
 21
527.01766321419245
  0
LINE
  8
_0-0_
  6
CONTINUOUS
 62
    7
 10
785.89557565117138
 20
527.00740788068686
 11
782.35212504541278
 21
526.91461936114888
  0
LINE
  8
_0-0_
  6
CONTINUOUS
 62
    7
 10
819.93578061037147
 20
524.97782349784882
 11
809.87504076620235
 21
524.86996580689834
  0
LINE
  8
_0-0_
  6
CONTINUOUS
 62
    7
 10
826.94405810197134
 20
517.11479408555556
 11
876.00200054317133
 21
517.11479408555556
  0
LINE
  8
_0-0_
  6
CONTINUOUS
 62
    7
 10
893.02210302277138
 20
517.11479408555556
 11
907.03865800597146
 21
517.11479408555556
  0
LINE
  8
_0-0_
  6
CONTINUOUS
 62
    9
 10
861.98544555997137
 20
517.61538533495548
 11
826.94405810197134
 21
517.61538533495548
  0
LINE
  8
_0-0_
  6
CONTINUOUS
 62
    7
 10
819.93578061037147
 20
520.71905108123542
 11
820.7283460766007
 21
520.71905108123542
  0
LINE
  8
_0-0_
  6
CONTINUOUS
 62
    7
 10
819.93578061037147
 20
521.11635626333043
 11
820.85893027305747
 21
521.11635626333043
  0
LINE
  8
_0-0_
  6
CONTINUOUS
 62
    7
 10
807.51877495650206
 20
521.19343268891691
 11
790.61142763407861
 21
521.19343268891691
  0
LINE
  8
_0-0_
  6
CONTINUOUS
 62
    7
 10
819.93578061037147
 20
521.86268538334821
 11
820.7283460766007
 21
521.86268538334821
  0
LINE
  8
_0-0_
  6
CONTINUOUS
 62
    7
 10
785.89557565117138
 20
522.62129782895545
 11
786.28721104120825
 21
522.62129782895545
  0
LINE
  8
_0-0_
  6
CONTINUOUS
 62
    7
 10
806.4198168765713
 20
523.52236207787553
 11
807.82493357064436
 21
523.52236207787553
  0
LINE
  8
_0-0_
  6
CONTINUOUS
 62
    7
 10
820.9369631091713
 20
523.52236207787553
 11
821.84148855384444
 21
523.52236207787553
  0
LINE
  8
_0-0_
  6
CONTINUOUS
 62
    7
 10
822.4387368573714
 20
523.52236207787553
 11
823.84385355144445
 21
523.52236207787553
  0
LINE
  8
_0-0_
  6
CONTINUOUS
 62
    7
 10
824.44110185497141
 20
523.52236207787553
 11
825.84621854904435
 21
523.52236207787553
  0
LINE
  8
_0-0_
  6
CONTINUOUS
 62
    7
 10
826.44346685257142
 20
523.52236207787553
 11
826.94405810197134
 21
523.52236207787553
  0
LINE
  8
_0-0_
  6
CONTINUOUS
 62
    7
 10
819.93578061037147
 20
524.26950215526233
 11
820.85893027305747
 21
524.26950215526233
  0
LINE
  8
_0-0_
  6
CONTINUOUS
 62
    7
 10
814.66880764410496
 20
524.62366282655546
 11
820.7283460766007
 21
524.62366282655546
  0
LINE
  8
_0-0_
  6
CONTINUOUS
 62
    7
 10
819.93578061037147
 20
524.97782349784882
 11
820.85893027305747
 21
524.97782349784882
  0
LINE
  8
_0-0_
  6
CONTINUOUS
 62
    7
 10
821.53421155286401
 20
525.72496357523551
 11
822.93932810677143
 21
525.72496357523551
  0
LINE
  8
_0-0_
  6
CONTINUOUS
 62
    7
 10
823.53657655046391
 20
525.72496357523551
 11
824.94169310437132
 21
525.72496357523551
  0
LINE
  8
_0-0_
  6
CONTINUOUS
 62
    7
 10
825.53894154806403
 20
525.72496357523551
 11
826.94405810197134
 21
525.72496357523551
  0
LINE
  8
_0-0_
  6
CONTINUOUS
 62
    7
 10
807.51877495650206
 20
526.25207294752022
 11
790.61142763407861
 21
526.25207294752022
  0
LINE
  8
_0-0_
  6
CONTINUOUS
 62
    7
 10
807.51877495650206
 20
526.42548284322959
 11
790.61142763407861
 21
526.42548284322959
  0
LINE
  8
_0-0_
  6
CONTINUOUS
 62
    7
 10
785.89557565117138
 20
526.62602782415547
 11
786.28721104120825
 21
526.62602782415547
  0
LINE
  8
_0-0_
  6
CONTINUOUS
 62
    7
 10
819.93578061037147
 20
527.38464026976283
 11
820.7283460766007
 21
527.38464026976283
  0
LINE
  8
_0-0_
  6
CONTINUOUS
 62
    7
 10
807.51877495650206
 20
527.5442701416747
 11
790.61142763407861
 21
527.5442701416747
  0
LINE
  8
_0-0_
  6
CONTINUOUS
 62
    7
 10
807.51877495650206
 20
527.64438839155468
 11
790.61142763407861
 21
527.64438839155468
  0
LINE
  8
_0-0_
  6
CONTINUOUS
 62
    7
 10
819.93578061037147
 20
528.1309693897806
 11
820.85893027305747
 21
528.1309693897806
  0
LINE
  8
_0-0_
  6
CONTINUOUS
 62
    7
 10
819.93578061037147
 20
528.5282745718755
 11
820.7283460766007
 21
528.5282745718755
  0
LINE
  8
_0-0_
  6
CONTINUOUS
 62
    9
 10
861.98544555997137
 20
531.63194031815556
 11
826.94405810197134
 21
531.63194031815556
  0
LINE
  8
_0-0_
  6
CONTINUOUS
 62
    7
 10
826.94405810197134
 20
532.13253156755547
 11
876.00200054317133
 21
532.13253156755547
  0
LINE
  8
_0-0_
  6
CONTINUOUS
 62
    7
 10
893.02210302277138
 20
532.13253156755547
 11
907.03865800597146
 21
532.13253156755547
  0
LINE
  8
_0-0_
  6
CONTINUOUS
 62
    7
 10
819.93578061037147
 20
524.26950215526233
 11
809.87504076620235
 21
524.3773598462127
  0
LINE
  8
_0-0_
  6
CONTINUOUS
 62
    7
 10
809.56487598536796
 20
521.6201153301555
 11
809.4723552657656
 21
521.62253807029549
  0
LINE
  8
_0-0_
  6
CONTINUOUS
 62
    7
 10
789.31087852090923
 20
522.15048491899802
 11
786.28721104120825
 21
522.22966243846372
  0
LINE
  8
_0-0_
  6
CONTINUOUS
 62
    7
 10
785.89557565117138
 20
522.23991777242429
 11
782.35212504541278
 21
522.33270629196215
  0
LINE
  8
_0-0_
  6
CONTINUOUS
 62
    7
 10
819.93578061037147
 20
521.86268538334821
 11
814.47322116331054
 21
522.07368268225673
  0
LINE
  8
_0-0_
  6
CONTINUOUS
 62
    7
 10
819.93578061037147
 20
521.11635626333043
 11
809.87504076620235
 21
521.59202075759549
  0
LINE
  8
_0-0_
  6
CONTINUOUS
 62
    7
 10
819.93578061037147
 20
520.71905108123542
 11
814.66880764410496
 21
520.99343132232775
  0
LINE
  8
_0-0_
  6
CONTINUOUS
 62
    7
 10
809.47239897784857
 20
526.03668560488518
 11
807.51877495650206
 21
526.25207294752022
  0
LINE
  8
_0-0_
  6
CONTINUOUS
 62
    7
 10
809.47239897784857
 20
526.21009550013957
 11
807.51877495650206
 21
526.42548284322959
  0
LINE
  8
_0-0_
  6
CONTINUOUS
 62
    7
 10
809.47239897784857
 20
521.62420737464163
 11
807.51877495650206
 21
521.19343268891691
  0
LINE
  8
_0-0_
  6
CONTINUOUS
 62
    7
 10
814.66880764410496
 20
528.25389433032819
 11
809.56487598536796
 21
527.62721032295542
  0
LINE
  8
_0-0_
  6
CONTINUOUS
 62
    7
 10
896.02565051917134
 20
539.14080905915546
 11
872.99845304677137
 21
539.14080905915546
  0
LINE
  8
_0-0_
  6
CONTINUOUS
 62
    7
 10
895.02446802037139
 20
542.64494780495556
 11
873.99963554557132
 21
542.64494780495556
  0
LINE
  8
_0-0_
  6
CONTINUOUS
 62
    7
 10
877.00319218322272
 20
553.65795529175546
 11
892.02091138226501
 21
553.65795529175546
  0
LINE
  8
_0-0_
  6
CONTINUOUS
 62
    9
 10
877.00318290044061
 20
554.15854654115549
 11
892.02092038244064
 21
554.15854654115549
  0
LINE
  8
_0-0_
  6
CONTINUOUS
 62
    7
 10
979.40689220283753
 20
348.38104991103125
 11
981.11065666406603
 21
338.71852149842141
  0
LINE
  8
_0-0_
  6
CONTINUOUS
 62
    7
 10
980.07051347962579
 20
348.94165179548492
 11
980.14637141832748
 21
348.51144004828433
  0
LINE
  8
_0-0_
  6
CONTINUOUS
 62
    7
 10
892.02092038244064
 20
555.66032028935558
 11
877.00318290044061
 21
555.66032028935558
  0
LINE
  8
_0-0_
  6
CONTINUOUS
 62
    7
 10
989.18256035503691
 20
342.98837249223868
 11
989.66935020084225
 21
340.22765008844078
  0
LINE
  8
_0-0_
  6
CONTINUOUS
 62
    7
 10
999.67239731673305
 20
344.83801377161797
 11
1000.1591871629935
 21
342.07729136827521
  0
LINE
  8
_0-0_
  6
CONTINUOUS
 62
    7
 10
1007.7736088391555
 20
348.94165179548492
 11
1008.7178806997694
 21
343.58641995829464
  0
LINE
  8
_0-0_
  6
CONTINUOUS
 62
    9
 10
1010.0603371324913
 20
348.94165179548492
 11
1010.0603371324913
 21
368.96530177148486
  0
LINE
  8
_0-0_
  6
CONTINUOUS
 62
    7
 10
1010.5609283818915
 20
368.46471052208489
 11
1010.5609283818915
 21
349.44224304488489
  0
LINE
  8
_0-0_
  6
CONTINUOUS
 62
    7
 10
1008.7178806997694
 20
343.58641995829464
 11
1007.6441502940263
 21
342.68545317085022
  0
LINE
  8
_0-0_
  6
CONTINUOUS
 62
    7
 10
892.02092038244064
 20
715.84952009735548
 11
896.45173654028622
 21
715.84952009735548
  0
LINE
  8
_0-0_
  6
CONTINUOUS
 62
    7
 10
892.02092038244064
 20
755.89682004935548
 11
877.00318290044061
 21
755.89682004935548
  0
LINE
  8
_0-0_
  6
CONTINUOUS
 62
    9
 10
877.00318290044061
 20
757.49871204743545
 11
892.02092038244064
 21
757.49871204743545
  0
LINE
  8
_0-0_
  6
CONTINUOUS
 62
    7
 10
877.20341940020057
 20
757.69894854719553
 11
891.82068388268044
 21
757.69894854719553
  0
CIRCLE
  8
_0-0_
  6
CONTINUOUS
 62
    7
 10
459.33244012302725
 20
227.36713906279334
 40
5.0059124940000004
  0
CIRCLE
  8
_0-0_
  6
CONTINUOUS
 62
    9
 10
459.33244012302725
 20
227.36713906279334
 40
4.7703401398956178
  0
ARC
  8
_0-0_
  6
CONTINUOUS
 62
    7
 10
625.11701333220731
 20
347.90951191831334
 40
1.5017737482
 50
1.5000002307000002
 51
90.000000000000014
  0
ARC
  8
_0-0_
  6
CONTINUOUS
 62
    7
 10
623.53761851832712
 20
347.90951191831334
 40
1.5017737482
 50
90
 51
178.49999976930002
  0
ARC
  8
_0-0_
  6
CONTINUOUS
 62
    7
 10
621.42426779843402
 20
311.86643366707477
 40
2.5029562470000002
 50
246.41230217539999
 51
268.84528193419999
  0
ARC
  8
_0-0_
  6
CONTINUOUS
 62
    7
 10
627.23036405164544
 20
311.86643366707477
 40
2.5029562470000002
 50
271.15471806580001
 51
283.9990038871
  0
ARC
  8
_0-0_
  6
CONTINUOUS
 62
    7
 10
608.51988103632721
 20
347.90951191831334
 40
1.5017737482
 50
90
 51
178.50000000000003
  0
ARC
  8
_0-0_
  6
CONTINUOUS
 62
    7
 10
610.09927585020728
 20
347.90951191831334
 40
1.5017737482
 50
1.5000000000000002
 51
90.000000000000014
  0
ARC
  8
_0-0_
  6
CONTINUOUS
 62
    7
 10
606.40653031643399
 20
311.86643366707477
 40
2.5029562470000002
 50
246.41230217539999
 51
268.84528193419999
  0
ARC
  8
_0-0_
  6
CONTINUOUS
 62
    7
 10
612.21262656964541
 20
311.86643366707477
 40
2.5029562470000002
 50
271.15471806580001
 51
283.9990038871
  0
ARC
  8
_0-0_
  6
CONTINUOUS
 62
    7
 10
404.56775743866734
 20
270.58818753598939
 40
2.5029562470000002
 50
180
 51
270
  0
ARC
  8
_0-0_
  6
CONTINUOUS
 62
    7
 10
428.59613740986731
 20
270.58818753598939
 40
2.5029562470000002
 50
270
 51
0
  0
ARC
  8
_0-0_
  6
CONTINUOUS
 62
    7
 10
254.39038261866722
 20
270.58818753598939
 40
2.5029562470000002
 50
180
 51
270
  0
ARC
  8
_0-0_
  6
CONTINUOUS
 62
    7
 10
278.41876258986724
 20
270.58818753598939
 40
2.5029562470000002
 50
270
 51
0
  0
ARC
  8
_0-0_
  6
CONTINUOUS
 62
    7
 10
572.76641723706723
 20
245.78889704071332
 40
11.513598736199999
 50
227.44194971690001
 51
312.55805102239998
  0
ARC
  8
_0-0_
  6
CONTINUOUS
 62
    7
 10
572.76641723706723
 20
245.78889704071332
 40
11.513598736199999
 50
40.729001655300003
 51
139.27099834469999
  0
ARC
  8
_0-0_
  6
CONTINUOUS
 62
    7
 10
572.76641723706723
 20
245.78889704071332
 40
10.5124162374
 50
225.6061094328
 51
314.40647581970001
  0
ARC
  8
_0-0_
  6
CONTINUOUS
 62
    7
 10
572.76641723706723
 20
245.78889704071332
 40
10.5124162374
 50
45.585006651400001
 51
134.41499334860001
  0
ARC
  8
_0-0_
  6
CONTINUOUS
 62
    7
 10
555.54607845384794
 20
252.99741117314903
 40
0.3003547496399999
 50
90
 51
180
  0
ARC
  8
_0-0_
  6
CONTINUOUS
 62
    7
 10
589.98675641256796
 20
252.99741117314903
 40
0.3003547496399999
 50
0
 51
90
  0
ARC
  8
_0-0_
  6
CONTINUOUS
 62
    7
 10
555.54607845384794
 20
238.58038319042907
 40
0.3003547496399999
 50
180
 51
270
  0
ARC
  8
_0-0_
  6
CONTINUOUS
 62
    7
 10
589.98675641256796
 20
238.58038319042907
 40
0.3003547496399999
 50
270
 51
0
  0
ARC
  8
_0-0_
  6
CONTINUOUS
 62
    9
 10
589.98675641256796
 20
252.99741117314903
 40
0.1001182011861239
 50
0
 51
90
  0
ARC
  8
_0-0_
  6
CONTINUOUS
 62
    9
 10
589.98675641256796
 20
238.58038319042907
 40
0.1001182011861239
 50
270
 51
0
  0
ARC
  8
_0-0_
  6
CONTINUOUS
 62
    9
 10
555.54607845384794
 20
238.58038319042907
 40
0.1001182011861239
 50
180
 51
270
  0
ARC
  8
_0-0_
  6
CONTINUOUS
 62
    9
 10
555.54607845384794
 20
252.99741117314903
 40
0.1001182011861239
 50
90
 51
180
  0
ARC
  8
_0-0_
  6
CONTINUOUS
 62
    7
 10
426.59377241226719
 20
405.57762384919334
 40
100.11824987999999
 50
272.80960764930001
 51
275.62343455849998
  0
ARC
  8
_0-0_
  6
CONTINUOUS
 62
    7
 10
416.83224304896726
 20
306.43938473064526
 40
0.5005912493999999
 50
180
 51
226.5609906709
  0
ARC
  8
_0-0_
  6
CONTINUOUS
 62
    7
 10
436.35530177556723
 20
306.43938473064526
 40
0.5005912493999999
 50
275.62343455860002
 51
0.0000000000000254
  0
ARC
  8
_0-0_
  6
CONTINUOUS
 62
    7
 10
426.59377241226719
 20
405.57762384919334
 40
99.879634034858171
 50
266.00073162439998
 51
271.23721893919998
  0
ARC
  8
_0-0_
  6
CONTINUOUS
 62
    7
 10
256.39274761626723
 20
405.57762384919334
 40
100.11824987999999
 50
264.37656544150002
 51
267.19039235069999
  0
ARC
  8
_0-0_
  6
CONTINUOUS
 62
    7
 10
246.6312182529673
 20
306.43938473064526
 40
0.5005912493999999
 50
180
 51
264.37656544150002
  0
ARC
  8
_0-0_
  6
CONTINUOUS
 62
    7
 10
266.15427697956727
 20
306.43938473064526
 40
0.5005912493999999
 50
313.43900932910003
 51
0.0000000000000318
  0
ARC
  8
_0-0_
  6
CONTINUOUS
 62
    7
 10
256.39274761626723
 20
405.57762384919334
 40
99.879634034858171
 50
268.76278106079997
 51
273.99926837559997
  0
CIRCLE
  8
_0-0_
  6
CONTINUOUS
 62
    7
 10
459.33244012302725
 20
227.36713906279334
 40
5.0559716189399992
  0
ARC
  8
_0-0_
  6
CONTINUOUS
 62
    7
 10
599.79834470466722
 20
223.76288206711337
 40
0.5005912493999999
 50
180
 51
270
  0
ARC
  8
_0-0_
  6
CONTINUOUS
 62
    7
 10
633.8385496638673
 20
223.76288206711337
 40
0.5005912493999999
 50
270
 51
0
  0
ARC
  8
_0-0_
  6
CONTINUOUS
 62
    7
 10
236.86968888966726
 20
273.3214157577134
 40
2.0023649976
 50
180
 51
270
  0
ARC
  8
_0-0_
  6
CONTINUOUS
 62
    7
 10
295.93945631886731
 20
273.3214157577134
 40
2.0023649976
 50
270
 51
0
  0
ARC
  8
_0-0_
  6
CONTINUOUS
 62
    7
 10
387.04706370966721
 20
273.3214157577134
 40
2.0023649976
 50
180
 51
270
  0
ARC
  8
_0-0_
  6
CONTINUOUS
 62
    7
 10
446.11683113886727
 20
273.3214157577134
 40
2.0023649976
 50
270
 51
0
  0
ARC
  8
_0-0_
  6
CONTINUOUS
 62
    7
 10
361.01631874086723
 20
120.24061169119335
 40
0.5005912493999999
 50
270
 51
0
  0
ARC
  8
_0-0_
  6
CONTINUOUS
 62
    7
 10
321.97020128766729
 20
120.24061169119335
 40
0.5005912493999999
 50
180
 51
270
  0
ARC
  8
_0-0_
  6
CONTINUOUS
 62
    7
 10
902.93380976089134
 20
357.93977950344987
 40
16.707232948725
 50
261.29838295300004
 51
278.70161704700007
  0
ARC
  8
_0-0_
  6
CONTINUOUS
 62
    7
 10
891.82068388268044
 20
757.49871204743545
 40
0.2002364997599999
 50
0
 51
90
  0
ARC
  8
_0-0_
  6
CONTINUOUS
 62
    7
 10
877.20341940020057
 20
757.49871204743545
 40
0.2002364997599999
 50
90
 51
180
  0
ARC
  8
_0-0_
  6
CONTINUOUS
 62
    7
 10
898.42848851629128
 20
381.2409030619022
 40
0.5005912493999999
 50
121.96571875079999
 51
180
  0
ARC
  8
_0-0_
  6
CONTINUOUS
 62
    7
 10
902.93380976089134
 20
374.02127339042488
 40
9.0106424891999986
 50
80.400016035199997
 51
121.96571875079999
  0
ARC
  8
_0-0_
  6
CONTINUOUS
 62
    7
 10
891.52032913304049
 20
554.15854654115549
 40
0.5005912493999999
 50
270
 51
0
  0
ARC
  8
_0-0_
  6
CONTINUOUS
 62
    7
 10
877.50377414984064
 20
554.15854654115549
 40
0.5005912493999999
 50
180
 51
270
  0
ARC
  8
_0-0_
  6
CONTINUOUS
 62
    7
 10
782.39143690537139
 20
523.83396541961554
 40
1.5017737482
 50
180
 51
268.49999976930002
  0
ARC
  8
_0-0_
  6
CONTINUOUS
 62
    7
 10
782.39143690537139
 20
525.41336023349561
 40
1.5017737482
 50
91.500000230699996
 51
180
  0
ARC
  8
_0-0_
  6
CONTINUOUS
 62
    7
 10
818.43451515615482
 20
527.52671095293374
 40
2.5029562470000002
 50
1.1547180658
 51
13.999003887100001
  0
ARC
  8
_0-0_
  6
CONTINUOUS
 62
    7
 10
818.43451515615482
 20
521.7206146997222
 40
2.5029562470000002
 50
336.41230217539999
 51
358.84528193419999
  0
ARC
  8
_0-0_
  6
CONTINUOUS
 62
    7
 10
859.71276128769546
 20
370.96766676908493
 40
2.5029562470000002
 50
0
 51
90
  0
ARC
  8
_0-0_
  6
CONTINUOUS
 62
    7
 10
859.71276128769546
 20
346.9392867978849
 40
2.5029562470000002
 50
270
 51
0
  0
ARC
  8
_0-0_
  6
CONTINUOUS
 62
    7
 10
724.72332497449133
 20
358.95347678348492
 40
100.11824987999999
 50
354.37656544150002
 51
356.0425925788
  0
ARC
  8
_0-0_
  6
CONTINUOUS
 62
    7
 10
724.72332497449133
 20
358.95347678348492
 40
100.11824987999999
 50
3.9574074212000001
 51
5.6234345584999996
  0
ARC
  8
_0-0_
  6
CONTINUOUS
 62
    7
 10
823.86156409303953
 20
349.19194742018487
 40
0.5005912493999999
 50
270
 51
354.37656544150002
  0
ARC
  8
_0-0_
  6
CONTINUOUS
 62
    7
 10
823.86156409303953
 20
368.7150061467849
 40
0.5005912493999999
 50
5.6234345584999996
 51
90.000000000000014
  0
ARC
  8
_0-0_
  6
CONTINUOUS
 62
    7
 10
893.50147126017168
 20
510.10651659395546
 40
1.0011824988
 50
270
 51
357
  0
ARC
  8
_0-0_
  6
CONTINUOUS
 62
    7
 10
875.52263230531582
 20
510.10651659395546
 40
1.0011824988
 50
183
 51
270
  0
ARC
  8
_0-0_
  6
CONTINUOUS
 62
    7
 10
1010.0603371324913
 20
368.46471052208489
 40
0.5005912493999999
 50
0
 51
90
  0
ARC
  8
_0-0_
  6
CONTINUOUS
 62
    7
 10
1010.0603371324913
 20
349.44224304488489
 40
0.5005912493999999
 50
270
 51
0
  0
ARC
  8
_0-0_
  6
CONTINUOUS
 62
    7
 10
856.97953306597151
 20
329.41859306888489
 40
2.0023649976
 50
270
 51
0
  0
ARC
  8
_0-0_
  6
CONTINUOUS
 62
    7
 10
856.97953306597151
 20
388.48836049808489
 40
2.0023649976
 50
0
 51
90
  0
ARC
  8
_0-0_
  6
CONTINUOUS
 62
    7
 10
916.42855048269178
 20
306.89198684588484
 40
1.0011824988
 50
270
 51
357
  0
ARC
  8
_0-0_
  6
CONTINUOUS
 62
    7
 10
898.44971152783592
 20
306.89198684588484
 40
1.0011824988
 50
183
 51
270
  0
INSERT
  2
-018-_D18
  8
_0-0_
 10
-259.49248245351885
 20
-80.557068980787278
 41
1.1377073849999999
 42
1.1377073849999999
 50
0
  0
INSERT
  2
-000-_D0
  8
_0-0_
 10
-259.49248245351885
 20
-80.557068980787278
 41
1.1377073849999999
 42
1.1377073849999999
 50
0
  0
INSERT
  2
-019-_D19
  8
_0-0_
 10
-259.49248245351885
 20
-80.557068980787278
 41
1.1377073849999999
 42
1.1377073849999999
 50
0
  0
INSERT
  2
-016-_D16
  8
_0-0_
 10
-259.49248245351885
 20
-80.557068980787278
 41
1.1377073849999999
 42
1.1377073849999999
 50
0
  0
LINE
  8
_0-0_
  6
CONTINUOUS
 62
    7
 10
769.31167074364259
 20
312.36640009212977
 11
769.31167074364259
 21
545.64849530135552
  0
INSERT
  2
-017-_D17
  8
_0-0_
 10
-259.49248245351885
 20
-80.557068980787278
 41
1.1377073849999999
 42
1.1377073849999999
 50
0
  0
INSERT
  2
-001-_D1
  8
_0-0_
 10
-259.49248245351885
 20
-80.557068980787278
 41
1.1377073849999999
 42
1.1377073849999999
 50
0
  0
INSERT
  2
-015-_D15
  8
_0-0_
 10
-259.49248245351885
 20
-80.557068980787278
 41
1.1377073849999999
 42
1.1377073849999999
 50
0
  0
INSERT
  2
-003-_D3
  8
_0-0_
 10
-259.49248245351885
 20
-80.557068980787278
 41
1.1377073849999999
 42
1.1377073849999999
 50
0
  0
INSERT
  2
-004-_D4
  8
_0-0_
 10
-259.49248245351885
 20
-80.557068980787278
 41
1.1377073849999999
 42
1.1377073849999999
 50
0
  0
INSERT
  2
-002-_D2
  8
_0-0_
 10
-259.49248245351885
 20
-80.557068980787278
 41
1.1377073849999999
 42
1.1377073849999999
 50
0
  0
INSERT
  2
-007-_D7
  8
_0-0_
 10
-259.49248245351885
 20
-80.557068980787278
 41
1.1377073849999999
 42
1.1377073849999999
 50
0
  0
INSERT
  2
-006-_D6
  8
_0-0_
 10
-259.49248245351885
 20
-80.557068980787278
 41
1.1377073849999999
 42
1.1377073849999999
 50
0
  0
INSERT
  2
-005-_D5
  8
_0-0_
 10
-259.49248245351885
 20
-80.557068980787278
 41
1.1377073849999999
 42
1.1377073849999999
 50
0
  0
LINE
  8
_0-0_
  6
CONTINUOUS
 62
    2
 10
178.82459528173689
 20
612.54596585662352
 11
178.82459528173689
 21
622.02685675040618
  0
LINE
  8
_0-0_
  6
CONTINUOUS
 62
    2
 10
178.82459528173689
 20
622.02685675040618
 11
169.34370438795429
 21
622.02685675040618
  0
LINE
  8
_0-0_
  6
CONTINUOUS
 62
    2
 10
169.34370438795429
 20
622.02685675040618
 11
169.34370438795429
 21
612.54596585662352
  0
LINE
  8
_0-0_
  6
CONTINUOUS
 62
    2
 10
169.34370438795429
 20
612.54596585662352
 11
178.82459528173689
 21
612.54596585662352
  0
LINE
  8
_0-0_
  6
CONTINUOUS
 62
    7
 10
215.34426516546728
 20
607.22121897755551
 11
215.34426516546728
 21
642.26260643555565
  0
LINE
  8
_0-0_
  6
CONTINUOUS
 62
    7
 10
248.38328762586724
 20
607.22121897755551
 11
248.38328762586724
 21
642.26260643555565
  0
LINE
  8
_0-0_
  6
CONTINUOUS
 62
    7
 10
248.48340587574722
 20
612.72772272095563
 11
248.48340587574722
 21
636.75610269215554
  0
LINE
  8
_0-0_
  6
CONTINUOUS
 62
    7
 10
248.88387887526733
 20
607.22121897755551
 11
248.88387887526733
 21
642.26260643555565
  0
LINE
  8
_0-0_
  6
CONTINUOUS
 62
    7
 10
315.9631062948672
 20
601.71471523415551
 11
317.48747514064013
 21
572.62802492538628
  0
LINE
  8
_0-0_
  6
CONTINUOUS
 62
    7
 10
316.71399316896731
 20
607.22121897755551
 11
316.71399316896731
 21
603.71708023175552
  0
LINE
  8
_0-0_
  6
CONTINUOUS
 62
    7
 10
317.4648800430673
 20
645.71668605641548
 11
317.4648800430673
 21
655.72851104441543
  0
LINE
  8
_0-0_
  6
CONTINUOUS
 62
    7
 10
318.06558954234725
 20
603.71708023175552
 11
318.06558954234725
 21
601.71471523415551
  0
LINE
  8
_0-0_
  6
CONTINUOUS
 62
    7
 10
319.96783629006723
 20
571.67924027015556
 11
319.96783629006723
 21
497.09114418236891
  0
LINE
  8
_0-0_
  6
CONTINUOUS
 62
    7
 10
321.46961003826726
 20
634.25314644515561
 11
321.46961003826726
 21
615.23067896795555
  0
LINE
  8
_0-0_
  6
CONTINUOUS
 62
    9
 10
321.97020128766729
 20
614.73008771855552
 11
321.97020128766729
 21
634.75373769455564
  0
LINE
  8
_0-0_
  6
CONTINUOUS
 62
    7
 10
325.47434003346717
 20
645.71668605641548
 11
325.47434003346717
 21
642.26260643555565
  0
LINE
  8
_0-0_
  6
CONTINUOUS
 62
    7
 10
327.4767050310673
 20
614.73008771855552
 11
327.4767050310673
 21
609.7016290547715
  0
LINE
  8
_0-0_
  6
CONTINUOUS
 62
    7
 10
328.52794665480729
 20
610.62644969468852
 11
328.52794665480729
 21
605.99097607502063
  0
LINE
  8
_0-0_
  6
CONTINUOUS
 62
    7
 10
329.47907002866731
 20
645.71668605641548
 11
329.47907002866731
 21
642.26260643555565
  0
LINE
  8
_0-0_
  6
CONTINUOUS
 62
    7
 10
330.02972040300722
 20
607.00754143072777
 11
330.02972040300722
 21
606.75357191678927
  0
LINE
  8
_0-0_
  6
CONTINUOUS
 62
    7
 10
334.9855737720672
 20
571.67924027015556
 11
334.9855737720672
 21
497.09114420011713
  0
LINE
  8
_0-0_
  6
CONTINUOUS
 62
    7
 10
336.88782051978723
 20
603.71708023175552
 11
336.88782051978723
 21
601.71471523415551
  0
LINE
  8
_0-0_
  6
CONTINUOUS
 62
    7
 10
337.48853001906724
 20
655.72851104441543
 11
337.48853001906724
 21
645.71668605641548
  0
LINE
  8
_0-0_
  6
CONTINUOUS
 62
    7
 10
338.23941689316723
 20
604.10196739781418
 11
338.23941689316723
 21
603.71708023175552
  0
LINE
  8
_0-0_
  6
CONTINUOUS
 62
    7
 10
338.99030376726716
 20
601.71471523415551
 11
337.46593492149441
 21
572.62802492538628
  0
LINE
  8
_0-0_
  6
CONTINUOUS
 62
    7
 10
581.75583671426773
 20
509.10533409515551
 11
563.77699775941187
 21
509.10533409515551
  0
LINE
  8
_0-0_
  6
CONTINUOUS
 62
    9
 10
562.77718734664006
 20
510.05411875038629
 11
582.75564712749451
 21
510.05411875038629
  0
LINE
  8
_0-0_
  6
CONTINUOUS
 62
    7
 10
352.95679962552731
 20
607.00754143072777
 11
352.95679962552731
 21
606.75357191678927
  0
LINE
  8
_0-0_
  6
CONTINUOUS
 62
    7
 10
354.45857337372723
 20
605.99097614146285
 11
354.45857337372723
 21
610.62644969468852
  0
LINE
  8
_0-0_
  6
CONTINUOUS
 62
    7
 10
355.50981499746729
 20
614.73008771855552
 11
355.50981499746729
 21
609.7016290547715
  0
LINE
  8
_0-0_
  6
CONTINUOUS
 62
    7
 10
563.75577474786724
 20
517.11479408555556
 11
598.79716220586715
 21
517.11479408555556
  0
LINE
  8
_0-0_
  6
CONTINUOUS
 62
    7
 10
599.79834470466722
 20
517.11479408555556
 11
633.8385496638673
 21
517.11479408555556
  0
LINE
  8
_0-0_
  6
CONTINUOUS
 62
    9
 10
599.2977534552673
 20
517.61538533495559
 11
634.33914091326722
 21
517.61538533495559
  0
LINE
  8
_0-0_
  6
CONTINUOUS
 62
    7
 10
599.2977534552673
 20
518.61656783375554
 11
598.79716220586715
 21
518.61656783375554
  0
LINE
  8
_0-0_
  6
CONTINUOUS
 62
    9
 10
361.01631874086723
 20
614.73008771855552
 11
361.01631874086723
 21
634.75373769455564
  0
LINE
  8
_0-0_
  6
CONTINUOUS
 62
    7
 10
361.51690999026727
 20
615.23067896795555
 11
361.51690999026727
 21
634.25314644515561
  0
LINE
  8
_0-0_
  6
CONTINUOUS
 62
    7
 10
599.2977534552673
 20
530.63075781935561
 11
598.79716220586715
 21
530.63075781935561
  0
LINE
  8
_0-0_
  6
CONTINUOUS
 62
    9
 10
599.2977534552673
 20
531.63194031815556
 11
634.33914091326722
 21
531.63194031815556
  0
LINE
  8
_0-0_
  6
CONTINUOUS
 62
    7
 10
633.8385496638673
 20
532.13253156755559
 11
599.79834470466722
 21
532.13253156755559
  0
LINE
  8
_0-0_
  6
CONTINUOUS
 62
    7
 10
563.75577474786724
 20
532.13253156755559
 11
598.79716220586715
 21
532.13253156755559
  0
LINE
  8
_0-0_
  6
CONTINUOUS
 62
    7
 10
561.25282618585311
 20
539.14080905915557
 11
584.28000828782638
 21
539.14080905915557
  0
LINE
  8
_0-0_
  6
CONTINUOUS
 62
    7
 10
583.27883347446721
 20
542.64494780495556
 11
562.25400099966714
 21
542.64494780495556
  0
LINE
  8
_0-0_
  6
CONTINUOUS
 62
    7
 10
354.4641525969962
 20
605.99400192203689
 11
353.68425665977497
 21
605.57175585129562
  0
LINE
  8
_0-0_
  6
CONTINUOUS
 62
    7
 10
555.74631495360802
 20
553.65795529175557
 11
589.78651991280799
 21
553.65795529175557
  0
LINE
  8
_0-0_
  6
CONTINUOUS
 62
    9
 10
555.2457237042081
 20
554.1585465411556
 11
590.28711116220802
 21
554.1585465411556
  0
LINE
  8
_0-0_
  6
CONTINUOUS
 62
    7
 10
590.28711116220802
 20
555.6603202893557
 11
555.2457237042081
 21
555.6603202893557
  0
LINE
  8
_0-0_
  6
CONTINUOUS
 62
    7
 10
328.52236792211772
 20
605.99400165626844
 11
329.30226336830452
 21
605.57175585129562
  0
LINE
  8
_0-0_
  6
CONTINUOUS
 62
    7
 10
336.46612450826768
 20
571.67924027015556
 11
318.48728555341182
 21
571.67924027015556
  0
LINE
  8
_0-0_
  6
CONTINUOUS
 62
    9
 10
317.48747514064013
 20
572.62802492538628
 11
337.46593492149441
 21
572.62802492538628
  0
LINE
  8
_0-0_
  6
CONTINUOUS
 62
    7
 10
434.1026411532672
 20
607.22121897755551
 11
434.1026411532672
 21
642.26260643555565
  0
LINE
  8
_0-0_
  6
CONTINUOUS
 62
    7
 10
436.10500615086721
 20
642.1624800378703
 11
436.10500615086721
 21
607.32134537478578
  0
LINE
  8
_0-0_
  6
CONTINUOUS
 62
    7
 10
436.30524265062729
 20
642.26260643555565
 11
436.30524265062729
 21
607.22121897755551
  0
LINE
  8
_0-0_
  6
CONTINUOUS
 62
    7
 10
315.96311397985306
 20
601.71471523415551
 11
338.99029608182633
 21
601.71471523415551
  0
LINE
  8
_0-0_
  6
CONTINUOUS
 62
    7
 10
316.71400627171573
 20
603.71708023175552
 11
338.23940378996383
 21
603.71708023175552
  0
LINE
  8
_0-0_
  6
CONTINUOUS
 62
    7
 10
434.1026411532672
 20
607.22121897755551
 11
354.45857337372723
 21
607.22121897755551
  0
LINE
  8
_0-0_
  6
CONTINUOUS
 62
    7
 10
328.52794665480729
 20
607.22121897755551
 11
248.88387887526733
 21
607.22121897755551
  0
LINE
  8
_0-0_
  6
CONTINUOUS
 62
    7
 10
248.38328762586724
 20
607.22121897755551
 11
215.34426516546728
 21
607.22121897755551
  0
LINE
  8
_0-0_
  6
CONTINUOUS
 62
    7
 10
436.30524265062729
 20
607.22121897755551
 11
469.3442651110272
 21
607.22121897755551
  0
LINE
  8
_0-0_
  6
CONTINUOUS
 62
    7
 10
436.10500615086721
 20
607.32133722743549
 11
434.1026411532672
 21
607.32133722743549
  0
LINE
  8
_0-0_
  6
CONTINUOUS
 62
    7
 10
436.30524265062729
 20
608.32251972623544
 11
436.10500615086721
 21
608.32251972623544
  0
LINE
  8
_0-0_
  6
CONTINUOUS
 62
    7
 10
248.48340587574722
 20
612.72772272095563
 11
248.88387887526733
 21
612.72772272095563
  0
LINE
  8
_0-0_
  6
CONTINUOUS
 62
    7
 10
248.38328762586724
 20
612.87790009577554
 11
248.48340587574722
 21
612.87790009577554
  0
LINE
  8
_0-0_
  6
CONTINUOUS
 62
    7
 10
321.97020128766729
 20
614.73008771855552
 11
361.01631874086723
 21
614.73008771855552
  0
LINE
  8
_0-0_
  6
CONTINUOUS
 62
    9
 10
321.46961003826726
 20
615.23067896795555
 11
361.51690999026727
 21
615.23067896795555
  0
LINE
  8
_0-0_
  6
CONTINUOUS
 62
    7
 10
454.32652762902728
 20
647.02933898451772
 11
454.32652762902728
 21
642.26260643555565
  0
LINE
  8
_0-0_
  6
CONTINUOUS
 62
    7
 10
464.33835261702723
 20
647.02933898451772
 11
464.33835261702723
 21
642.26260643555565
  0
LINE
  8
_0-0_
  6
CONTINUOUS
 62
    7
 10
469.3442651110272
 20
642.26260643555565
 11
469.3442651110272
 21
607.22121897755551
  0
LINE
  8
_0-0_
  6
CONTINUOUS
 62
    9
 10
321.46961003826726
 20
634.25314644515561
 11
361.51690999026727
 21
634.25314644515561
  0
LINE
  8
_0-0_
  6
CONTINUOUS
 62
    7
 10
361.01631874086723
 20
634.75373769455564
 11
321.97020128766729
 21
634.75373769455564
  0
LINE
  8
_0-0_
  6
CONTINUOUS
 62
    7
 10
248.38328762586724
 20
636.6059253173355
 11
248.48340587574722
 21
636.6059253173355
  0
LINE
  8
_0-0_
  6
CONTINUOUS
 62
    7
 10
248.48340587574722
 20
636.75610269215554
 11
248.88387887526733
 21
636.75610269215554
  0
LINE
  8
_0-0_
  6
CONTINUOUS
 62
    7
 10
436.30524265062729
 20
641.16130568687549
 11
436.10500615086721
 21
641.16130568687549
  0
LINE
  8
_0-0_
  6
CONTINUOUS
 62
    7
 10
436.10500615086721
 20
642.16248818567556
 11
434.1026411532672
 21
642.16248818567556
  0
LINE
  8
_0-0_
  6
CONTINUOUS
 62
    7
 10
434.1026411532672
 20
642.26260643555565
 11
248.88387887526733
 21
642.26260643555565
  0
LINE
  8
_0-0_
  6
CONTINUOUS
 62
    7
 10
248.38328762586724
 20
642.26260643555565
 11
215.34426516546728
 21
642.26260643555565
  0
LINE
  8
_0-0_
  6
CONTINUOUS
 62
    7
 10
436.30524265062729
 20
642.26260643555565
 11
469.3442651110272
 21
642.26260643555565
  0
LINE
  8
_0-0_
  6
CONTINUOUS
 62
    7
 10
337.48853001906724
 20
645.71668605641548
 11
317.4648800430673
 21
645.71668605641548
  0
LINE
  8
_0-0_
  6
CONTINUOUS
 62
    9
 10
454.32652762902728
 20
647.02933898451772
 11
464.33835261702723
 21
647.02933898451772
  0
LINE
  8
_0-0_
  6
CONTINUOUS
 62
    9
 10
454.56209998222153
 20
647.45402308300049
 11
464.10278026337801
 21
647.45402308300049
  0
LINE
  8
_0-0_
  6
CONTINUOUS
 62
    7
 10
317.4648800430673
 20
655.72851104441543
 11
337.48853001906724
 21
655.72851104441543
  0
LINE
  8
_0-0_
  6
CONTINUOUS
 62
    7
 10
572.76641731397626
 20
715.84952009735548
 11
573.4719786467092
 21
715.84952009735548
  0
LINE
  8
_0-0_
  6
CONTINUOUS
 62
    7
 10
561.25281850086719
 20
539.14080905915557
 11
562.77718734664006
 21
510.05411875038629
  0
LINE
  8
_0-0_
  6
CONTINUOUS
 62
    7
 10
555.2457237042081
 20
554.1585465411556
 11
555.2457237042081
 21
757.49871204743545
  0
LINE
  8
_0-0_
  6
CONTINUOUS
 62
    9
 10
555.54607845384794
 20
757.69894854719553
 11
555.54607845384794
 21
755.8968200493556
  0
LINE
  8
_0-0_
  6
CONTINUOUS
 62
    9
 10
555.74631495360802
 20
553.65795529175557
 11
555.74631495360802
 21
555.6603202893557
  0
LINE
  8
_0-0_
  6
CONTINUOUS
 62
    7
 10
562.25400099966714
 20
539.14080905915557
 11
562.25400099966714
 21
542.64494780495556
  0
LINE
  8
_0-0_
  6
CONTINUOUS
 62
    2
 10
563.2551834984672
 20
542.64494780495556
 11
563.2551834984672
 21
539.14080905915557
  0
LINE
  8
_0-0_
  6
CONTINUOUS
 62
    7
 10
563.75577474786724
 20
517.11479408555556
 11
563.75577474786724
 21
532.13253156755559
  0
LINE
  8
_0-0_
  6
CONTINUOUS
 62
    7
 10
565.25754849606733
 20
509.10533409515551
 11
565.25754849606733
 21
434.5172380073688
  0
LINE
  8
_0-0_
  6
CONTINUOUS
 62
    7
 10
583.27883347446721
 20
542.64494780495556
 11
580.27528597806725
 21
553.65795529175557
  0
LINE
  8
_0-0_
  6
CONTINUOUS
 62
    7
 10
580.27528597806725
 20
509.10533409515551
 11
580.27528597806725
 21
434.51723802511708
  0
LINE
  8
_0-0_
  6
CONTINUOUS
 62
    2
 10
582.27765097566726
 20
542.64494780495556
 11
582.27765097566726
 21
539.14080905915557
  0
LINE
  8
_0-0_
  6
CONTINUOUS
 62
    7
 10
583.27883347446721
 20
539.14080905915557
 11
583.27883347446721
 21
542.64494780495556
  0
LINE
  8
_0-0_
  6
CONTINUOUS
 62
    7
 10
562.25400099966714
 20
542.64494780495556
 11
565.25754849606733
 21
553.65795529175557
  0
LINE
  8
_0-0_
  6
CONTINUOUS
 62
    7
 10
590.28711116220802
 20
755.8968200493556
 11
555.2457237042081
 21
755.8968200493556
  0
LINE
  8
_0-0_
  6
CONTINUOUS
 62
    9
 10
589.78651991280799
 20
553.65795529175557
 11
589.78651991280799
 21
555.6603202893557
  0
LINE
  8
_0-0_
  6
CONTINUOUS
 62
    9
 10
589.98675641256796
 20
757.69894854719553
 11
589.98675641256796
 21
755.8968200493556
  0
LINE
  8
_0-0_
  6
CONTINUOUS
 62
    7
 10
590.28711116220802
 20
554.1585465411556
 11
590.28711116220802
 21
757.49871204743545
  0
LINE
  8
_0-0_
  6
CONTINUOUS
 62
    7
 10
598.79716220586715
 20
517.11479408555556
 11
598.79716220586715
 21
532.13253156755559
  0
LINE
  8
_0-0_
  6
CONTINUOUS
 62
    7
 10
599.2977534552673
 20
531.63194031815556
 11
599.2977534552673
 21
517.61538533495559
  0
LINE
  8
_0-0_
  6
CONTINUOUS
 62
    9
 10
599.79834470466722
 20
517.11479408555556
 11
599.79834470466722
 21
532.13253156755559
  0
LINE
  8
_0-0_
  6
CONTINUOUS
 62
    7
 10
584.28001597326715
 20
539.14080905915557
 11
583.91272771331444
 21
532.13253156755559
  0
LINE
  8
_0-0_
  6
CONTINUOUS
 62
    7
 10
583.1256814417269
 20
517.11479408555556
 11
582.75564712749451
 21
510.05411875038629
  0
LINE
  8
_0-0_
  6
CONTINUOUS
 62
    9
 10
555.2457237042081
 20
757.49871204743545
 11
590.28711116220802
 21
757.49871204743545
  0
LINE
  8
_0-0_
  6
CONTINUOUS
 62
    7
 10
555.44596020396796
 20
757.69894854719553
 11
590.08687466244794
 21
757.69894854719553
  0
LINE
  8
_0-0_
  6
CONTINUOUS
 62
    9
 10
633.8385496638673
 20
517.11479408555556
 11
633.8385496638673
 21
532.13253156755559
  0
LINE
  8
_0-0_
  6
CONTINUOUS
 62
    7
 10
634.33914091326722
 20
517.61538533495559
 11
634.33914091326722
 21
531.63194031815556
  0
ARC
  8
_0-0_
  6
CONTINUOUS
 62
    7
 10
224.35490765466727
 20
623.72821542652059
 40
16.707232948725
 50
261.29838295300004
 51
278.51711108320006
  0
ARC
  8
_0-0_
  6
CONTINUOUS
 62
    7
 10
463.83776136762731
 20
647.02933898451772
 40
0.5005912493999999
 50
0.0000000098
 51
58.034281337200014
  0
ARC
  8
_0-0_
  6
CONTINUOUS
 62
    7
 10
454.82711887842726
 20
647.02933898451772
 40
0.5005912493999999
 50
121.9657186628
 51
179.9999999902
  0
ARC
  8
_0-0_
  6
CONTINUOUS
 62
    7
 10
459.33244012302725
 20
639.80970931349555
 40
9.0106424891999986
 50
58.034281254100009
 51
121.96571874590003
  0
ARC
  8
_0-0_
  6
CONTINUOUS
 62
    7
 10
555.44596020396796
 20
757.49871204743545
 40
0.2002364997599999
 50
90
 51
180
  0
ARC
  8
_0-0_
  6
CONTINUOUS
 62
    7
 10
590.08687466244794
 20
757.49871204743545
 40
0.2002364997599999
 50
0
 51
90
  0
ARC
  8
_0-0_
  6
CONTINUOUS
 62
    7
 10
555.74631495360802
 20
554.1585465411556
 40
0.5005912493999999
 50
180
 51
270
  0
ARC
  8
_0-0_
  6
CONTINUOUS
 62
    7
 10
589.78651991280799
 20
554.1585465411556
 40
0.5005912493999999
 50
270
 51
0
  0
ARC
  8
_0-0_
  6
CONTINUOUS
 62
    7
 10
633.8385496638673
 20
531.63194031815556
 40
0.5005912493999999
 50
0
 51
90
  0
ARC
  8
_0-0_
  6
CONTINUOUS
 62
    7
 10
633.8385496638673
 20
517.61538533495559
 40
0.5005912493999999
 50
270
 51
0
  0
ARC
  8
_0-0_
  6
CONTINUOUS
 62
    7
 10
599.79834470466722
 20
517.61538533495559
 40
0.5005912493999999
 50
180
 51
270
  0
ARC
  8
_0-0_
  6
CONTINUOUS
 62
    7
 10
599.79834470466722
 20
531.63194031815556
 40
0.5005912493999999
 50
90
 51
180
  0
ARC
  8
_0-0_
  6
CONTINUOUS
 62
    7
 10
361.01631874086723
 20
615.23067896795555
 40
0.5005912493999999
 50
270
 51
0
  0
ARC
  8
_0-0_
  6
CONTINUOUS
 62
    7
 10
361.01631874086723
 20
634.25314644515561
 40
0.5005912493999999
 50
0
 51
90
  0
ARC
  8
_0-0_
  6
CONTINUOUS
 62
    7
 10
321.97020128766729
 20
634.25314644515561
 40
0.5005912493999999
 50
90
 51
180
  0
ARC
  8
_0-0_
  6
CONTINUOUS
 62
    7
 10
321.97020128766729
 20
615.23067896795555
 40
0.5005912493999999
 50
180
 51
270
  0
ARC
  8
_0-0_
  6
CONTINUOUS
 62
    7
 10
563.77699775941187
 20
510.10651659395552
 40
1.0011824988
 50
183
 51
270
  0
ARC
  8
_0-0_
  6
CONTINUOUS
 62
    7
 10
581.75583671426773
 20
510.10651659395552
 40
1.0011824988
 50
270
 51
357
  0
ARC
  8
_0-0_
  6
CONTINUOUS
 62
    7
 10
318.48728555341182
 20
572.68042276895551
 40
1.0011824988
 50
183
 51
270
  0
ARC
  8
_0-0_
  6
CONTINUOUS
 62
    7
 10
336.46612450826768
 20
572.68042276895551
 40
1.0011824988
 50
270
 51
357
  0
ARC
  8
_0-0_
  6
CONTINUOUS
 62
    7
 10
416.58194742426724
 20
624.74191270655547
 40
31.537248712199997
 50
33.761182630100002
 51
146.23881736990003
  0
ARC
  8
_0-0_
  6
CONTINUOUS
 62
    7
 10
416.58194742426724
 20
624.74191270655547
 40
31.537248712199997
 50
213.7611826301
 51
326.2388173699
  0
ARC
  8
_0-0_
  6
CONTINUOUS
 62
    9
 10
416.58194742426724
 20
624.74191270655547
 40
29.534883714599999
 50
36.444796134800001
 51
143.55520386520004
  0
ARC
  8
_0-0_
  6
CONTINUOUS
 62
    9
 10
416.58194742426724
 20
624.74191270655547
 40
29.534883714599999
 50
216.44479613480001
 51
323.55520386519999
  0
ARC
  8
_0-0_
  6
CONTINUOUS
 62
    7
 10
266.40457260426729
 20
624.74191270655547
 40
31.537248712199997
 50
33.761182630100002
 51
146.23881736990003
  0
ARC
  8
_0-0_
  6
CONTINUOUS
 62
    7
 10
266.40457260426729
 20
624.74191270655547
 40
31.537248712199997
 50
213.7611826301
 51
326.2388173699
  0
ARC
  8
_0-0_
  6
CONTINUOUS
 62
    9
 10
266.40457260426729
 20
624.74191270655547
 40
29.534883714599999
 50
36.444796134800001
 51
143.55520386520004
  0
ARC
  8
_0-0_
  6
CONTINUOUS
 62
    9
 10
266.40457260426729
 20
624.74191270655547
 40
29.534883714599999
 50
216.44479613480001
 51
323.55520386519999
  0
CIRCLE
  8
_0-0_
  6
CONTINUOUS
 62
    7
 10
563.75577494400795
 20
742.88144756495558
 40
1.7520693728999999
  0
CIRCLE
  8
_0-0_
  6
CONTINUOUS
 62
    7
 10
569.7628699368081
 20
742.88144756495558
 40
1.7520693728999999
  0
CIRCLE
  8
_0-0_
  6
CONTINUOUS
 62
    7
 10
575.76996492960802
 20
742.88144756495558
 40
1.7520693728999999
  0
CIRCLE
  8
_0-0_
  6
CONTINUOUS
 62
    7
 10
581.77705992240794
 20
742.88144756495558
 40
1.7520693728999999
  0
CIRCLE
  8
_0-0_
  6
CONTINUOUS
 62
    7
 10
563.75577494400795
 20
736.87435257215554
 40
1.7520693728999999
  0
CIRCLE
  8
_0-0_
  6
CONTINUOUS
 62
    7
 10
569.7628699368081
 20
736.87435257215554
 40
1.7520693728999999
  0
CIRCLE
  8
_0-0_
  6
CONTINUOUS
 62
    7
 10
581.77705992240794
 20
688.81759262975561
 40
1.7520693728999999
  0
CIRCLE
  8
_0-0_
  6
CONTINUOUS
 62
    7
 10
575.76996492960802
 20
688.81759262975561
 40
1.7520693728999999
  0
CIRCLE
  8
_0-0_
  6
CONTINUOUS
 62
    7
 10
569.7628699368081
 20
688.81759262975561
 40
1.7520693728999999
  0
CIRCLE
  8
_0-0_
  6
CONTINUOUS
 62
    7
 10
563.75577494400795
 20
688.81759262975561
 40
1.7520693728999999
  0
CIRCLE
  8
_0-0_
  6
CONTINUOUS
 62
    7
 10
581.77705992240794
 20
694.82468762255553
 40
1.7520693728999999
  0
CIRCLE
  8
_0-0_
  6
CONTINUOUS
 62
    7
 10
575.76996492960802
 20
694.82468762255553
 40
1.7520693728999999
  0
CIRCLE
  8
_0-0_
  6
CONTINUOUS
 62
    7
 10
569.7628699368081
 20
694.82468762255553
 40
1.7520693728999999
  0
CIRCLE
  8
_0-0_
  6
CONTINUOUS
 62
    7
 10
563.75577494400795
 20
694.82468762255553
 40
1.7520693728999999
  0
CIRCLE
  8
_0-0_
  6
CONTINUOUS
 62
    7
 10
581.77705992240794
 20
700.83178261535545
 40
1.7520693728999999
  0
CIRCLE
  8
_0-0_
  6
CONTINUOUS
 62
    7
 10
575.76996492960802
 20
700.83178261535545
 40
1.7520693728999999
  0
CIRCLE
  8
_0-0_
  6
CONTINUOUS
 62
    7
 10
569.7628699368081
 20
700.83178261535545
 40
1.7520693728999999
  0
CIRCLE
  8
_0-0_
  6
CONTINUOUS
 62
    7
 10
563.75577494400795
 20
700.83178261535545
 40
1.7520693728999999
  0
CIRCLE
  8
_0-0_
  6
CONTINUOUS
 62
    7
 10
581.77705992240794
 20
706.8388776081556
 40
1.7520693728999999
  0
CIRCLE
  8
_0-0_
  6
CONTINUOUS
 62
    7
 10
575.76996492960802
 20
706.8388776081556
 40
1.7520693728999999
  0
CIRCLE
  8
_0-0_
  6
CONTINUOUS
 62
    7
 10
569.7628699368081
 20
706.8388776081556
 40
1.7520693728999999
  0
CIRCLE
  8
_0-0_
  6
CONTINUOUS
 62
    7
 10
563.75577494400795
 20
706.8388776081556
 40
1.7520693728999999
  0
CIRCLE
  8
_0-0_
  6
CONTINUOUS
 62
    7
 10
581.77705992240794
 20
712.84597260095552
 40
1.7520693728999999
  0
CIRCLE
  8
_0-0_
  6
CONTINUOUS
 62
    7
 10
575.76996492960802
 20
712.84597260095552
 40
1.7520693728999999
  0
CIRCLE
  8
_0-0_
  6
CONTINUOUS
 62
    7
 10
569.7628699368081
 20
712.84597260095552
 40
1.7520693728999999
  0
CIRCLE
  8
_0-0_
  6
CONTINUOUS
 62
    7
 10
563.75577494400795
 20
712.84597260095552
 40
1.7520693728999999
  0
CIRCLE
  8
_0-0_
  6
CONTINUOUS
 62
    7
 10
581.77705992240794
 20
718.85306759375544
 40
1.7520693728999999
  0
CIRCLE
  8
_0-0_
  6
CONTINUOUS
 62
    7
 10
575.76996492960802
 20
718.85306759375544
 40
1.7520693728999999
  0
CIRCLE
  8
_0-0_
  6
CONTINUOUS
 62
    7
 10
569.7628699368081
 20
718.85306759375544
 40
1.7520693728999999
  0
CIRCLE
  8
_0-0_
  6
CONTINUOUS
 62
    7
 10
563.75577494400795
 20
718.85306759375544
 40
1.7520693728999999
  0
CIRCLE
  8
_0-0_
  6
CONTINUOUS
 62
    7
 10
581.77705992240794
 20
724.86016258655548
 40
1.7520693728999999
  0
CIRCLE
  8
_0-0_
  6
CONTINUOUS
 62
    7
 10
575.76996492960802
 20
724.86016258655548
 40
1.7520693728999999
  0
CIRCLE
  8
_0-0_
  6
CONTINUOUS
 62
    7
 10
569.7628699368081
 20
724.86016258655548
 40
1.7520693728999999
  0
CIRCLE
  8
_0-0_
  6
CONTINUOUS
 62
    7
 10
563.75577494400795
 20
724.86016258655548
 40
1.7520693728999999
  0
CIRCLE
  8
_0-0_
  6
CONTINUOUS
 62
    7
 10
581.77705992240794
 20
730.86725757935551
 40
1.7520693728999999
  0
CIRCLE
  8
_0-0_
  6
CONTINUOUS
 62
    7
 10
575.76996492960802
 20
730.86725757935551
 40
1.7520693728999999
  0
CIRCLE
  8
_0-0_
  6
CONTINUOUS
 62
    7
 10
569.7628699368081
 20
730.86725757935551
 40
1.7520693728999999
  0
CIRCLE
  8
_0-0_
  6
CONTINUOUS
 62
    7
 10
563.75577494400795
 20
730.86725757935551
 40
1.7520693728999999
  0
CIRCLE
  8
_0-0_
  6
CONTINUOUS
 62
    7
 10
581.77705992240794
 20
736.87435257215554
 40
1.7520693728999999
  0
CIRCLE
  8
_0-0_
  6
CONTINUOUS
 62
    7
 10
575.76996492960802
 20
736.87435257215554
 40
1.7520693728999999
  0
ARC
  8
_0-0_
  6
CONTINUOUS
 62
    2
 10
569.7628699368081
 20
742.88144756495558
 40
1.6484003123316864
 50
0
 51
180
  0
ARC
  8
_0-0_
  6
CONTINUOUS
 62
    2
 10
569.7628699368081
 20
736.87435257215554
 40
1.6484003123316864
 50
0
 51
180
  0
ARC
  8
_0-0_
  6
CONTINUOUS
 62
    2
 10
563.75577494400795
 20
736.87435257215554
 40
1.6484003123316864
 50
0
 51
180
  0
ARC
  8
_0-0_
  6
CONTINUOUS
 62
    2
 10
563.75577494400795
 20
742.88144756495558
 40
1.6484003123316864
 50
0
 51
180
  0
CIRCLE
  8
_0-0_
  6
CONTINUOUS
 62
    2
 10
569.7628699368081
 20
730.86725757935551
 40
1.6484003100562716
  0
CIRCLE
  8
_0-0_
  6
CONTINUOUS
 62
    2
 10
569.7628699368081
 20
724.86016258655548
 40
1.6484003100562716
  0
CIRCLE
  8
_0-0_
  6
CONTINUOUS
 62
    2
 10
569.7628699368081
 20
718.85306759375544
 40
1.6484003100562716
  0
CIRCLE
  8
_0-0_
  6
CONTINUOUS
 62
    2
 10
563.75577494400795
 20
730.86725757935551
 40
1.6484003100562716
  0
CIRCLE
  8
_0-0_
  6
CONTINUOUS
 62
    2
 10
563.75577494400795
 20
724.86016258655548
 40
1.6484003100562716
  0
CIRCLE
  8
_0-0_
  6
CONTINUOUS
 62
    2
 10
563.75577494400795
 20
718.85306759375544
 40
1.6484003100562716
  0
CIRCLE
  8
_0-0_
  6
CONTINUOUS
 62
    2
 10
575.76996469068945
 20
742.88144756495558
 40
1.6484003100562716
  0
CIRCLE
  8
_0-0_
  6
CONTINUOUS
 62
    2
 10
575.76996469068945
 20
736.87435257215554
 40
1.6484003100562716
  0
CIRCLE
  8
_0-0_
  6
CONTINUOUS
 62
    2
 10
575.76996469068945
 20
730.86725757935551
 40
1.6484003100562716
  0
CIRCLE
  8
_0-0_
  6
CONTINUOUS
 62
    2
 10
575.76996469068945
 20
724.86016258655548
 40
1.6484003100562716
  0
CIRCLE
  8
_0-0_
  6
CONTINUOUS
 62
    2
 10
575.76996469068945
 20
718.85306759375544
 40
1.6484003100562716
  0
CIRCLE
  8
_0-0_
  6
CONTINUOUS
 62
    2
 10
581.77705968348948
 20
742.88144756495558
 40
1.6484003100562716
  0
CIRCLE
  8
_0-0_
  6
CONTINUOUS
 62
    2
 10
581.77705968348948
 20
736.87435257215554
 40
1.6484003100562716
  0
CIRCLE
  8
_0-0_
  6
CONTINUOUS
 62
    2
 10
581.77705968348948
 20
730.86725757935551
 40
1.6484003100562716
  0
CIRCLE
  8
_0-0_
  6
CONTINUOUS
 62
    2
 10
581.77705968348948
 20
724.86016258655548
 40
1.6484003100562716
  0
CIRCLE
  8
_0-0_
  6
CONTINUOUS
 62
    2
 10
581.77705968348948
 20
718.85306759375544
 40
1.6484003100562716
  0
CIRCLE
  8
_0-0_
  6
CONTINUOUS
 62
    2
 10
569.7628699368081
 20
688.81759262975561
 40
1.6484003100562716
  0
CIRCLE
  8
_0-0_
  6
CONTINUOUS
 62
    2
 10
569.7628699368081
 20
694.82468762255553
 40
1.6484003100562716
  0
CIRCLE
  8
_0-0_
  6
CONTINUOUS
 62
    2
 10
569.7628699368081
 20
700.83178261535545
 40
1.6484003100562716
  0
CIRCLE
  8
_0-0_
  6
CONTINUOUS
 62
    2
 10
569.7628699368081
 20
706.8388776081556
 40
1.6484003100562716
  0
CIRCLE
  8
_0-0_
  6
CONTINUOUS
 62
    2
 10
569.7628699368081
 20
712.84597260095552
 40
1.6484003100562716
  0
CIRCLE
  8
_0-0_
  6
CONTINUOUS
 62
    2
 10
563.75577494400795
 20
688.81759262975561
 40
1.6484003100562716
  0
CIRCLE
  8
_0-0_
  6
CONTINUOUS
 62
    2
 10
563.75577494400795
 20
694.82468762255553
 40
1.6484003100562716
  0
CIRCLE
  8
_0-0_
  6
CONTINUOUS
 62
    2
 10
563.75577494400795
 20
700.83178261535545
 40
1.6484003100562716
  0
CIRCLE
  8
_0-0_
  6
CONTINUOUS
 62
    2
 10
563.75577494400795
 20
706.8388776081556
 40
1.6484003100562716
  0
CIRCLE
  8
_0-0_
  6
CONTINUOUS
 62
    2
 10
563.75577494400795
 20
712.84597260095552
 40
1.6484003100562716
  0
ARC
  8
_0-0_
  6
CONTINUOUS
 62
    2
 10
575.76996469068945
 20
694.82468762255553
 40
1.6484003123316864
 50
180
 51
0
  0
ARC
  8
_0-0_
  6
CONTINUOUS
 62
    2
 10
581.77705968348948
 20
694.82468762255553
 40
1.6484003123316864
 50
180
 51
0
  0
ARC
  8
_0-0_
  6
CONTINUOUS
 62
    2
 10
575.76996469068945
 20
688.81759262975561
 40
1.6484003123316864
 50
180
 51
0
  0
ARC
  8
_0-0_
  6
CONTINUOUS
 62
    2
 10
581.77705968348948
 20
688.81759262975561
 40
1.6484003123316864
 50
180
 51
0
  0
CIRCLE
  8
_0-0_
  6
CONTINUOUS
 62
    2
 10
575.76996469068945
 20
700.83178261535545
 40
1.6484003100562716
  0
CIRCLE
  8
_0-0_
  6
CONTINUOUS
 62
    2
 10
575.76996469068945
 20
706.8388776081556
 40
1.6484003100562716
  0
CIRCLE
  8
_0-0_
  6
CONTINUOUS
 62
    2
 10
575.76996469068945
 20
712.84597260095552
 40
1.6484003100562716
  0
CIRCLE
  8
_0-0_
  6
CONTINUOUS
 62
    2
 10
581.77705968348948
 20
700.83178261535545
 40
1.6484003100562716
  0
CIRCLE
  8
_0-0_
  6
CONTINUOUS
 62
    2
 10
581.77705968348948
 20
706.8388776081556
 40
1.6484003100562716
  0
CIRCLE
  8
_0-0_
  6
CONTINUOUS
 62
    2
 10
581.77705968348948
 20
712.84597260095552
 40
1.6484003100562716
  0
CIRCLE
  8
_0-0_
  6
CONTINUOUS
 62
    2
 10
575.76996469068945
 20
718.85306759375544
 40
0.6007095229443135
  0
CIRCLE
  8
_0-0_
  6
CONTINUOUS
 62
    2
 10
581.77705968348948
 20
718.85306759375544
 40
0.6007095229443135
  0
CIRCLE
  8
_0-0_
  6
CONTINUOUS
 62
    2
 10
581.77705968348948
 20
724.86016258655548
 40
0.6007095229443135
  0
CIRCLE
  8
_0-0_
  6
CONTINUOUS
 62
    2
 10
575.76996469068945
 20
724.86016258655548
 40
0.6007095229443135
  0
CIRCLE
  8
_0-0_
  6
CONTINUOUS
 62
    2
 10
575.76996469068945
 20
730.86725757935551
 40
0.6007095229443135
  0
CIRCLE
  8
_0-0_
  6
CONTINUOUS
 62
    2
 10
581.77705968348948
 20
730.86725757935551
 40
0.6007095229443135
  0
CIRCLE
  8
_0-0_
  6
CONTINUOUS
 62
    2
 10
581.77705968348948
 20
736.87435257215554
 40
0.6007095229443135
  0
CIRCLE
  8
_0-0_
  6
CONTINUOUS
 62
    2
 10
581.77705968348948
 20
742.88144756495558
 40
0.6007095229443135
  0
CIRCLE
  8
_0-0_
  6
CONTINUOUS
 62
    2
 10
575.76996469068945
 20
736.87435257215554
 40
0.6007095229443135
  0
CIRCLE
  8
_0-0_
  6
CONTINUOUS
 62
    2
 10
575.76996469068945
 20
742.88144756495558
 40
0.6007095229443135
  0
CIRCLE
  8
_0-0_
  6
CONTINUOUS
 62
    2
 10
569.7628699368081
 20
718.85306759375544
 40
0.6007095229443135
  0
CIRCLE
  8
_0-0_
  6
CONTINUOUS
 62
    2
 10
563.75577494400795
 20
718.85306759375544
 40
0.6007095229443135
  0
CIRCLE
  8
_0-0_
  6
CONTINUOUS
 62
    2
 10
563.75577494400795
 20
724.86016258655548
 40
0.6007095229443135
  0
CIRCLE
  8
_0-0_
  6
CONTINUOUS
 62
    2
 10
569.7628699368081
 20
724.86016258655548
 40
0.6007095229443135
  0
CIRCLE
  8
_0-0_
  6
CONTINUOUS
 62
    2
 10
569.7628699368081
 20
730.86725757935551
 40
0.6007095229443135
  0
CIRCLE
  8
_0-0_
  6
CONTINUOUS
 62
    2
 10
563.75577494400795
 20
730.86725757935551
 40
0.6007095229443135
  0
CIRCLE
  8
_0-0_
  6
CONTINUOUS
 62
    2
 10
563.75577494400795
 20
736.87435257215554
 40
0.6007095229443135
  0
CIRCLE
  8
_0-0_
  6
CONTINUOUS
 62
    2
 10
563.75577494400795
 20
742.88144756495558
 40
0.6007095229443135
  0
CIRCLE
  8
_0-0_
  6
CONTINUOUS
 62
    2
 10
569.7628699368081
 20
736.87435257215554
 40
0.6007095229443135
  0
CIRCLE
  8
_0-0_
  6
CONTINUOUS
 62
    2
 10
569.7628699368081
 20
742.88144756495558
 40
0.6007095229443135
  0
CIRCLE
  8
_0-0_
  6
CONTINUOUS
 62
    2
 10
569.7628699368081
 20
712.84597260095552
 40
0.6007095229443135
  0
CIRCLE
  8
_0-0_
  6
CONTINUOUS
 62
    2
 10
563.75577494400795
 20
712.84597260095552
 40
0.6007095229443135
  0
CIRCLE
  8
_0-0_
  6
CONTINUOUS
 62
    2
 10
563.75577494400795
 20
706.8388776081556
 40
0.6007095229443135
  0
CIRCLE
  8
_0-0_
  6
CONTINUOUS
 62
    2
 10
569.7628699368081
 20
706.8388776081556
 40
0.6007095229443135
  0
CIRCLE
  8
_0-0_
  6
CONTINUOUS
 62
    2
 10
569.7628699368081
 20
700.83178261535545
 40
0.6007095229443135
  0
CIRCLE
  8
_0-0_
  6
CONTINUOUS
 62
    2
 10
563.75577494400795
 20
700.83178261535545
 40
0.6007095229443135
  0
CIRCLE
  8
_0-0_
  6
CONTINUOUS
 62
    2
 10
563.75577494400795
 20
694.82468762255553
 40
0.6007095229443135
  0
CIRCLE
  8
_0-0_
  6
CONTINUOUS
 62
    2
 10
563.75577494400795
 20
688.81759262975561
 40
0.6007095229443135
  0
CIRCLE
  8
_0-0_
  6
CONTINUOUS
 62
    2
 10
569.7628699368081
 20
694.82468762255553
 40
0.6007095229443135
  0
CIRCLE
  8
_0-0_
  6
CONTINUOUS
 62
    2
 10
569.7628699368081
 20
688.81759262975561
 40
0.6007095229443135
  0
CIRCLE
  8
_0-0_
  6
CONTINUOUS
 62
    2
 10
575.76996469068945
 20
712.84597260095552
 40
0.6007095229443135
  0
CIRCLE
  8
_0-0_
  6
CONTINUOUS
 62
    2
 10
581.77705968348948
 20
712.84597260095552
 40
0.6007095229443135
  0
CIRCLE
  8
_0-0_
  6
CONTINUOUS
 62
    2
 10
581.77705968348948
 20
706.8388776081556
 40
0.6007095229443135
  0
CIRCLE
  8
_0-0_
  6
CONTINUOUS
 62
    2
 10
575.76996469068945
 20
706.8388776081556
 40
0.6007095229443135
  0
CIRCLE
  8
_0-0_
  6
CONTINUOUS
 62
    2
 10
575.76996469068945
 20
700.83178261535545
 40
0.6007095229443135
  0
CIRCLE
  8
_0-0_
  6
CONTINUOUS
 62
    2
 10
581.77705968348948
 20
700.83178261535545
 40
0.6007095229443135
  0
CIRCLE
  8
_0-0_
  6
CONTINUOUS
 62
    2
 10
581.77705968348948
 20
694.82468762255553
 40
0.6007095229443135
  0
CIRCLE
  8
_0-0_
  6
CONTINUOUS
 62
    2
 10
581.77705968348948
 20
688.81759262975561
 40
0.6007095229443135
  0
CIRCLE
  8
_0-0_
  6
CONTINUOUS
 62
    2
 10
575.76996469068945
 20
694.82468762255553
 40
0.6007095229443135
  0
CIRCLE
  8
_0-0_
  6
CONTINUOUS
 62
    2
 10
575.76996469068945
 20
688.81759262975561
 40
0.6007095229443135
  0
ARC
  8
_0-0_
  6
CONTINUOUS
 62
    6
 10
575.76996469068945
 20
694.82468762255553
 40
1.6484003123316864
 50
0
 51
180
  0
ARC
  8
_0-0_
  6
CONTINUOUS
 62
    6
 10
581.77705968348948
 20
694.82468762255553
 40
1.6484003123316864
 50
0
 51
180
  0
ARC
  8
_0-0_
  6
CONTINUOUS
 62
    6
 10
575.76996469068945
 20
688.81759262975561
 40
1.6484003123316864
 50
0
 51
180
  0
ARC
  8
_0-0_
  6
CONTINUOUS
 62
    6
 10
581.77705968348948
 20
688.81759262975561
 40
1.6484003123316864
 50
0
 51
180
  0
CIRCLE
  8
_0-0_
  6
CONTINUOUS
 62
    9
 10
575.76996469068945
 20
694.82468762255553
 40
1.6152450052545484
  0
CIRCLE
  8
_0-0_
  6
CONTINUOUS
 62
    6
 10
575.76996469068945
 20
694.82468762255553
 40
1.2117466329147577
  0
CIRCLE
  8
_0-0_
  6
CONTINUOUS
 62
    9
 10
581.77705968348948
 20
694.82468762255553
 40
1.6152450052545484
  0
CIRCLE
  8
_0-0_
  6
CONTINUOUS
 62
    9
 10
569.7628699368081
 20
742.88144756495558
 40
1.6152450052545484
  0
CIRCLE
  8
_0-0_
  6
CONTINUOUS
 62
    6
 10
581.77705968348948
 20
694.82468762255553
 40
1.2117466329147577
  0
CIRCLE
  8
_0-0_
  6
CONTINUOUS
 62
    9
 10
575.76996469068945
 20
688.81759262975561
 40
1.6152450052545484
  0
CIRCLE
  8
_0-0_
  6
CONTINUOUS
 62
    6
 10
575.76996469068945
 20
688.81759262975561
 40
1.2117466329147577
  0
CIRCLE
  8
_0-0_
  6
CONTINUOUS
 62
    9
 10
581.77705968348948
 20
688.81759262975561
 40
1.6152450052545484
  0
CIRCLE
  8
_0-0_
  6
CONTINUOUS
 62
    6
 10
581.77705968348948
 20
688.81759262975561
 40
1.2117466329147577
  0
CIRCLE
  8
_0-0_
  6
CONTINUOUS
 62
    9
 10
569.7628699368081
 20
736.87435257215554
 40
1.6152450052545484
  0
CIRCLE
  8
_0-0_
  6
CONTINUOUS
 62
    6
 10
569.7628699368081
 20
736.87435257215554
 40
1.2117466329147577
  0
CIRCLE
  8
_0-0_
  6
CONTINUOUS
 62
    9
 10
563.75577494400795
 20
736.87435257215554
 40
1.6152450052545484
  0
CIRCLE
  8
_0-0_
  6
CONTINUOUS
 62
    6
 10
563.75577494400795
 20
736.87435257215554
 40
1.2117466329147577
  0
CIRCLE
  8
_0-0_
  6
CONTINUOUS
 62
    9
 10
563.75577494400795
 20
742.88144756495558
 40
1.6152450052545484
  0
CIRCLE
  8
_0-0_
  6
CONTINUOUS
 62
    6
 10
563.75577494400795
 20
742.88144756495558
 40
1.2117466329147577
  0
CIRCLE
  8
_0-0_
  6
CONTINUOUS
 62
    9
 10
575.76996469068945
 20
700.83178261535545
 40
1.6152450052545484
  0
CIRCLE
  8
_0-0_
  6
CONTINUOUS
 62
    6
 10
575.76996469068945
 20
700.83178261535545
 40
1.2117466329147577
  0
CIRCLE
  8
_0-0_
  6
CONTINUOUS
 62
    9
 10
575.76996469068945
 20
706.8388776081556
 40
1.6152450052545484
  0
CIRCLE
  8
_0-0_
  6
CONTINUOUS
 62
    6
 10
575.76996469068945
 20
706.8388776081556
 40
1.2117466329147577
  0
CIRCLE
  8
_0-0_
  6
CONTINUOUS
 62
    9
 10
575.76996469068945
 20
712.84597260095552
 40
1.6152450052545484
  0
CIRCLE
  8
_0-0_
  6
CONTINUOUS
 62
    6
 10
575.76996469068945
 20
712.84597260095552
 40
1.2117466329147577
  0
CIRCLE
  8
_0-0_
  6
CONTINUOUS
 62
    9
 10
581.77705968348948
 20
700.83178261535545
 40
1.6152450052545484
  0
CIRCLE
  8
_0-0_
  6
CONTINUOUS
 62
    6
 10
581.77705968348948
 20
700.83178261535545
 40
1.2117466329147577
  0
CIRCLE
  8
_0-0_
  6
CONTINUOUS
 62
    9
 10
581.77705968348948
 20
706.8388776081556
 40
1.6152450052545484
  0
CIRCLE
  8
_0-0_
  6
CONTINUOUS
 62
    6
 10
581.77705968348948
 20
706.8388776081556
 40
1.2117466329147577
  0
CIRCLE
  8
_0-0_
  6
CONTINUOUS
 62
    9
 10
581.77705968348948
 20
712.84597260095552
 40
1.6152450052545484
  0
CIRCLE
  8
_0-0_
  6
CONTINUOUS
 62
    6
 10
581.77705968348948
 20
712.84597260095552
 40
1.2117466329147577
  0
ARC
  8
_0-0_
  6
CONTINUOUS
 62
    6
 10
569.7628699368081
 20
736.87435257215554
 40
1.6484003123316864
 50
180
 51
0
  0
CIRCLE
  8
_0-0_
  6
CONTINUOUS
 62
    9
 10
569.7628699368081
 20
730.86725757935551
 40
1.6152450052545484
  0
CIRCLE
  8
_0-0_
  6
CONTINUOUS
 62
    6
 10
569.7628699368081
 20
730.86725757935551
 40
1.2117466329147577
  0
CIRCLE
  8
_0-0_
  6
CONTINUOUS
 62
    6
 10
569.7628699368081
 20
742.88144756495558
 40
1.2117466329147577
  0
ARC
  8
_0-0_
  6
CONTINUOUS
 62
    6
 10
563.75577494400795
 20
736.87435257215554
 40
1.6484003123316864
 50
180
 51
0
  0
CIRCLE
  8
_0-0_
  6
CONTINUOUS
 62
    9
 10
569.7628699368081
 20
724.86016258655548
 40
1.6152450052545484
  0
CIRCLE
  8
_0-0_
  6
CONTINUOUS
 62
    6
 10
569.7628699368081
 20
724.86016258655548
 40
1.2117466329147577
  0
CIRCLE
  8
_0-0_
  6
CONTINUOUS
 62
    9
 10
575.76996469068945
 20
742.88144756495558
 40
1.6152450052545484
  0
CIRCLE
  8
_0-0_
  6
CONTINUOUS
 62
    6
 10
575.76996469068945
 20
742.88144756495558
 40
1.2117466329147577
  0
CIRCLE
  8
_0-0_
  6
CONTINUOUS
 62
    9
 10
575.76996469068945
 20
736.87435257215554
 40
1.6152450052545484
  0
CIRCLE
  8
_0-0_
  6
CONTINUOUS
 62
    6
 10
575.76996469068945
 20
736.87435257215554
 40
1.2117466329147577
  0
CIRCLE
  8
_0-0_
  6
CONTINUOUS
 62
    9
 10
575.76996469068945
 20
730.86725757935551
 40
1.6152450052545484
  0
CIRCLE
  8
_0-0_
  6
CONTINUOUS
 62
    6
 10
575.76996469068945
 20
730.86725757935551
 40
1.2117466329147577
  0
ARC
  8
_0-0_
  6
CONTINUOUS
 62
    6
 10
569.7628699368081
 20
742.88144756495558
 40
1.6484003123316864
 50
180
 51
0
  0
CIRCLE
  8
_0-0_
  6
CONTINUOUS
 62
    9
 10
575.76996469068945
 20
724.86016258655548
 40
1.6152450052545484
  0
CIRCLE
  8
_0-0_
  6
CONTINUOUS
 62
    6
 10
575.76996469068945
 20
724.86016258655548
 40
1.2117466329147577
  0
CIRCLE
  8
_0-0_
  6
CONTINUOUS
 62
    9
 10
569.7628699368081
 20
718.85306759375544
 40
1.6152450052545484
  0
CIRCLE
  8
_0-0_
  6
CONTINUOUS
 62
    9
 10
575.76996469068945
 20
718.85306759375544
 40
1.6152450052545484
  0
CIRCLE
  8
_0-0_
  6
CONTINUOUS
 62
    6
 10
575.76996469068945
 20
718.85306759375544
 40
1.2117466329147577
  0
CIRCLE
  8
_0-0_
  6
CONTINUOUS
 62
    6
 10
569.7628699368081
 20
718.85306759375544
 40
1.2117466329147577
  0
CIRCLE
  8
_0-0_
  6
CONTINUOUS
 62
    9
 10
581.77705968348948
 20
742.88144756495558
 40
1.6152450052545484
  0
CIRCLE
  8
_0-0_
  6
CONTINUOUS
 62
    6
 10
581.77705968348948
 20
742.88144756495558
 40
1.2117466329147577
  0
CIRCLE
  8
_0-0_
  6
CONTINUOUS
 62
    9
 10
581.77705968348948
 20
736.87435257215554
 40
1.6152450052545484
  0
CIRCLE
  8
_0-0_
  6
CONTINUOUS
 62
    6
 10
581.77705968348948
 20
736.87435257215554
 40
1.2117466329147577
  0
CIRCLE
  8
_0-0_
  6
CONTINUOUS
 62
    9
 10
581.77705968348948
 20
730.86725757935551
 40
1.6152450052545484
  0
CIRCLE
  8
_0-0_
  6
CONTINUOUS
 62
    6
 10
581.77705968348948
 20
730.86725757935551
 40
1.2117466329147577
  0
CIRCLE
  8
_0-0_
  6
CONTINUOUS
 62
    9
 10
581.77705968348948
 20
724.86016258655548
 40
1.6152450052545484
  0
CIRCLE
  8
_0-0_
  6
CONTINUOUS
 62
    6
 10
581.77705968348948
 20
724.86016258655548
 40
1.2117466329147577
  0
CIRCLE
  8
_0-0_
  6
CONTINUOUS
 62
    9
 10
581.77705968348948
 20
718.85306759375544
 40
1.6152450052545484
  0
CIRCLE
  8
_0-0_
  6
CONTINUOUS
 62
    6
 10
581.77705968348948
 20
718.85306759375544
 40
1.2117466329147577
  0
CIRCLE
  8
_0-0_
  6
CONTINUOUS
 62
    9
 10
563.75577494400795
 20
730.86725757935551
 40
1.6152450052545484
  0
CIRCLE
  8
_0-0_
  6
CONTINUOUS
 62
    6
 10
563.75577494400795
 20
730.86725757935551
 40
1.2117466329147577
  0
CIRCLE
  8
_0-0_
  6
CONTINUOUS
 62
    9
 10
569.7628699368081
 20
688.81759262975561
 40
1.6152450052545484
  0
CIRCLE
  8
_0-0_
  6
CONTINUOUS
 62
    6
 10
569.7628699368081
 20
688.81759262975561
 40
1.2117466329147577
  0
CIRCLE
  8
_0-0_
  6
CONTINUOUS
 62
    9
 10
563.75577494400795
 20
724.86016258655548
 40
1.6152450052545484
  0
CIRCLE
  8
_0-0_
  6
CONTINUOUS
 62
    9
 10
569.7628699368081
 20
694.82468762255553
 40
1.6152450052545484
  0
CIRCLE
  8
_0-0_
  6
CONTINUOUS
 62
    6
 10
569.7628699368081
 20
694.82468762255553
 40
1.2117466329147577
  0
CIRCLE
  8
_0-0_
  6
CONTINUOUS
 62
    6
 10
563.75577494400795
 20
724.86016258655548
 40
1.2117466329147577
  0
CIRCLE
  8
_0-0_
  6
CONTINUOUS
 62
    9
 10
569.7628699368081
 20
700.83178261535545
 40
1.6152450052545484
  0
CIRCLE
  8
_0-0_
  6
CONTINUOUS
 62
    6
 10
569.7628699368081
 20
700.83178261535545
 40
1.2117466329147577
  0
CIRCLE
  8
_0-0_
  6
CONTINUOUS
 62
    9
 10
569.7628699368081
 20
706.8388776081556
 40
1.6152450052545484
  0
CIRCLE
  8
_0-0_
  6
CONTINUOUS
 62
    6
 10
569.7628699368081
 20
706.8388776081556
 40
1.2117466329147577
  0
CIRCLE
  8
_0-0_
  6
CONTINUOUS
 62
    6
 10
563.75577494400795
 20
718.85306759375544
 40
1.2117466329147577
  0
CIRCLE
  8
_0-0_
  6
CONTINUOUS
 62
    9
 10
569.7628699368081
 20
712.84597260095552
 40
1.6152450052545484
  0
CIRCLE
  8
_0-0_
  6
CONTINUOUS
 62
    6
 10
569.7628699368081
 20
712.84597260095552
 40
1.2117466329147577
  0
CIRCLE
  8
_0-0_
  6
CONTINUOUS
 62
    9
 10
563.75577494400795
 20
688.81759262975561
 40
1.6152450052545484
  0
CIRCLE
  8
_0-0_
  6
CONTINUOUS
 62
    6
 10
563.75577494400795
 20
688.81759262975561
 40
1.2117466329147577
  0
CIRCLE
  8
_0-0_
  6
CONTINUOUS
 62
    9
 10
563.75577494400795
 20
694.82468762255553
 40
1.6152450052545484
  0
CIRCLE
  8
_0-0_
  6
CONTINUOUS
 62
    6
 10
563.75577494400795
 20
694.82468762255553
 40
1.2117466329147577
  0
ARC
  8
_0-0_
  6
CONTINUOUS
 62
    6
 10
563.75577494400795
 20
742.88144756495558
 40
1.6484003123316864
 50
180
 51
0
  0
CIRCLE
  8
_0-0_
  6
CONTINUOUS
 62
    9
 10
563.75577494400795
 20
700.83178261535545
 40
1.6152450052545484
  0
CIRCLE
  8
_0-0_
  6
CONTINUOUS
 62
    6
 10
563.75577494400795
 20
700.83178261535545
 40
1.2117466329147577
  0
CIRCLE
  8
_0-0_
  6
CONTINUOUS
 62
    9
 10
563.75577494400795
 20
706.8388776081556
 40
1.6152450052545484
  0
CIRCLE
  8
_0-0_
  6
CONTINUOUS
 62
    6
 10
563.75577494400795
 20
706.8388776081556
 40
1.2117466329147577
  0
CIRCLE
  8
_0-0_
  6
CONTINUOUS
 62
    6
 10
563.75577494400795
 20
712.84597260095552
 40
1.2117466329147577
  0
CIRCLE
  8
_0-0_
  6
CONTINUOUS
 62
    9
 10
563.75577494400795
 20
712.84597260095552
 40
1.6152450052545484
  0
CIRCLE
  8
_0-0_
  6
CONTINUOUS
 62
    9
 10
563.75577494400795
 20
718.85306759375544
 40
1.6152450052545484
  0
INSERT
  2
-014-_D14
  8
_0-0_
 10
-259.49248245351885
 20
-124.1513745182491
 41
1.1377073849999999
 42
1.1377073849999999
 50
0
  0
INSERT
  2
-013-_D13
  8
_0-0_
 10
-259.49248245351885
 20
-124.1513745182491
 41
1.1377073849999999
 42
1.1377073849999999
 50
0
  0
INSERT
  2
-012-_D12
  8
_0-0_
 10
-259.49248245351885
 20
-124.1513745182491
 41
1.1377073849999999
 42
1.1377073849999999
 50
0
  0
INSERT
  2
-011-_D11
  8
_0-0_
 10
-259.49248245351885
 20
-124.1513745182491
 41
1.1377073849999999
 42
1.1377073849999999
 50
0
  0
INSERT
  2
-009-_D9
  8
_0-0_
 10
-259.49248245351885
 20
-124.1513745182491
 41
1.1377073849999999
 42
1.1377073849999999
 50
0
  0
INSERT
  2
-008-_D8
  8
_0-0_
 10
-259.49248245351885
 20
-124.1513745182491
 41
1.1377073849999999
 42
1.1377073849999999
 50
0
  0
INSERT
  2
-010-_D10
  8
_0-0_
 10
-259.49248245351885
 20
-124.1513745182491
 41
1.1377073849999999
 42
1.1377073849999999
 50
0
  0
TEXT
  8
_0-0_
 62
    4
 10
981
 20
43.499999997749796
 40
10
 41
1
 50
0
  1
S=1：4
  0
TEXT
  8
_0-0_
 62
    4
 10
906
 20
43.499999997749796
 40
10
 41
1
 50
0
  1
06.06.01
  0
TEXT
  8
_0-0_
 62
    3
 10
663.60688609811734
 20
75.999999994599762
 40
20
 41
1
 50
0
  1
GS-20115.031/142
  0
TEXT
  8
_0-0_
 62
    3
 10
691.10688609811734
 20
39.999999998199996
 40
20
 41
1
 50
0
  1
RETTANGOLO

  0
ENDSEC
  0
EOF
