  0
SECTION
  2
HEADER
  9
$ACADVER
  1
AC1018
  9
$ACADMAINTVER
 70
     0
  9
$DWGCODEPAGE
  3
ASCII
  9
$INSBASE
 10
0.0
 20
0.0
 30
0.0
  9
$EXTMIN
 10
1.000000000000000E+20
 20
1.000000000000000E+20
 30
1.000000000000000E+20
  9
$EXTMAX
 10
-1.000000000000000E+20
 20
-1.000000000000000E+20
 30
-1.000000000000000E+20
  9
$LIMMIN
 10
0.0
 20
0.0
  9
$LIMMAX
 10
12.0
 20
9.0
  9
$ORTHOMODE
 70
     0
  9
$REGENMODE
 70
     1
  9
$FILLMODE
 70
     1
  9
$QTEXTMODE
 70
     0
  9
$MIRRTEXT
 70
     1
  9
$LTSCALE
 40
1.0
  9
$ATTMODE
 70
     1
  9
$TEXTSIZE
 40
0.2
  9
$TRACEWID
 40
0.05
  9
$TEXTSTYLE
  7
Standard
  9
$CLAYER
  8
0
  9
$CELTYPE
  6
ByLayer
  9
$CECOLOR
 62
   256
  9
$CELTSCALE
 40
1.0
  9
$DISPSILH
 70
     0
  9
$DIMSCALE
 40
1.0
  9
$DIMASZ
 40
0.18
  9
$DIMEXO
 40
0.0625
  9
$DIMDLI
 40
0.38
  9
$DIMRND
 40
0.0
  9
$DIMDLE
 40
0.0
  9
$DIMEXE
 40
0.18
  9
$DIMTP
 40
0.0
  9
$DIMTM
 40
0.0
  9
$DIMTXT
 40
0.18
  9
$DIMCEN
 40
0.09
  9
$DIMTSZ
 40
0.0
  9
$DIMTOL
 70
     0
  9
$DIMLIM
 70
     0
  9
$DIMTIH
 70
     1
  9
$DIMTOH
 70
     1
  9
$DIMSE1
 70
     0
  9
$DIMSE2
 70
     0
  9
$DIMTAD
 70
     0
  9
$DIMZIN
 70
     0
  9
$DIMBLK
  1

  9
$DIMASO
 70
     1
  9
$DIMSHO
 70
     1
  9
$DIMPOST
  1

  9
$DIMAPOST
  1

  9
$DIMALT
 70
     0
  9
$DIMALTD
 70
     2
  9
$DIMALTF
 40
25.4
  9
$DIMLFAC
 40
1.0
  9
$DIMTOFL
 70
     0
  9
$DIMTVP
 40
0.0
  9
$DIMTIX
 70
     0
  9
$DIMSOXD
 70
     0
  9
$DIMSAH
 70
     0
  9
$DIMBLK1
  1

  9
$DIMBLK2
  1

  9
$DIMSTYLE
  2
Standard
  9
$DIMCLRD
 70
     0
  9
$DIMCLRE
 70
     0
  9
$DIMCLRT
 70
     0
  9
$DIMTFAC
 40
1.0
  9
$DIMGAP
 40
0.09
  9
$DIMJUST
 70
     0
  9
$DIMSD1
 70
     0
  9
$DIMSD2
 70
     0
  9
$DIMTOLJ
 70
     1
  9
$DIMTZIN
 70
     0
  9
$DIMALTZ
 70
     0
  9
$DIMALTTZ
 70
     0
  9
$DIMUPT
 70
     0
  9
$DIMDEC
 70
     4
  9
$DIMTDEC
 70
     4
  9
$DIMALTU
 70
     2
  9
$DIMALTTD
 70
     2
  9
$DIMTXSTY
  7
Standard
  9
$DIMAUNIT
 70
     0
  9
$DIMADEC
 70
     0
  9
$DIMALTRND
 40
0.0
  9
$DIMAZIN
 70
     0
  9
$DIMDSEP
 70
    46
  9
$DIMATFIT
 70
     3
  9
$DIMFRAC
 70
     0
  9
$DIMLDRBLK
  1

  9
$DIMLUNIT
 70
     2
  9
$DIMLWD
 70
    -2
  9
$DIMLWE
 70
    -2
  9
$DIMTMOVE
 70
     0
  9
$LUNITS
 70
     2
  9
$LUPREC
 70
     4
  9
$SKETCHINC
 40
0.1
  9
$FILLETRAD
 40
0.5
  9
$AUNITS
 70
     0
  9
$AUPREC
 70
     0
  9
$MENU
  1
.
  9
$ELEVATION
 40
0.0
  9
$PELEVATION
 40
0.0
  9
$THICKNESS
 40
0.0
  9
$LIMCHECK
 70
     0
  9
$CHAMFERA
 40
0.5
  9
$CHAMFERB
 40
0.5
  9
$CHAMFERC
 40
1.0
  9
$CHAMFERD
 40
0.0
  9
$SKPOLY
 70
     0
  9
$TDCREATE
 40
2456497.533741794
  9
$TDUCREATE
 40
2456497.158741794
  9
$TDUPDATE
 40
2456497.533741806
  9
$TDUUPDATE
 40
2456497.158741806
  9
$TDINDWG
 40
0.0000000116
  9
$TDUSRTIMER
 40
0.0000000116
  9
$USRTIMER
 70
     1
  9
$ANGBASE
 50
0.0
  9
$ANGDIR
 70
     0
  9
$PDMODE
 70
     0
  9
$PDSIZE
 40
0.0
  9
$PLINEWID
 40
0.0
  9
$SPLFRAME
 70
     0
  9
$SPLINETYPE
 70
     6
  9
$SPLINESEGS
 70
     8
  9
$HANDSEED
  5
4D4
  9
$SURFTAB1
 70
     6
  9
$SURFTAB2
 70
     6
  9
$SURFTYPE
 70
     6
  9
$SURFU
 70
     6
  9
$SURFV
 70
     6
  9
$UCSBASE
  2

  9
$UCSNAME
  2

  9
$UCSORG
 10
0.0
 20
0.0
 30
0.0
  9
$UCSXDIR
 10
1.0
 20
0.0
 30
0.0
  9
$UCSYDIR
 10
0.0
 20
1.0
 30
0.0
  9
$UCSORTHOREF
  2

  9
$UCSORTHOVIEW
 70
     0
  9
$UCSORGTOP
 10
0.0
 20
0.0
 30
0.0
  9
$UCSORGBOTTOM
 10
0.0
 20
0.0
 30
0.0
  9
$UCSORGLEFT
 10
0.0
 20
0.0
 30
0.0
  9
$UCSORGRIGHT
 10
0.0
 20
0.0
 30
0.0
  9
$UCSORGFRONT
 10
0.0
 20
0.0
 30
0.0
  9
$UCSORGBACK
 10
0.0
 20
0.0
 30
0.0
  9
$PUCSBASE
  2

  9
$PUCSNAME
  2

  9
$PUCSORG
 10
0.0
 20
0.0
 30
0.0
  9
$PUCSXDIR
 10
1.0
 20
0.0
 30
0.0
  9
$PUCSYDIR
 10
0.0
 20
1.0
 30
0.0
  9
$PUCSORTHOREF
  2

  9
$PUCSORTHOVIEW
 70
     0
  9
$PUCSORGTOP
 10
0.0
 20
0.0
 30
0.0
  9
$PUCSORGBOTTOM
 10
0.0
 20
0.0
 30
0.0
  9
$PUCSORGLEFT
 10
0.0
 20
0.0
 30
0.0
  9
$PUCSORGRIGHT
 10
0.0
 20
0.0
 30
0.0
  9
$PUCSORGFRONT
 10
0.0
 20
0.0
 30
0.0
  9
$PUCSORGBACK
 10
0.0
 20
0.0
 30
0.0
  9
$USERI1
 70
     0
  9
$USERI2
 70
     0
  9
$USERI3
 70
     0
  9
$USERI4
 70
     0
  9
$USERI5
 70
     0
  9
$USERR1
 40
0.0
  9
$USERR2
 40
0.0
  9
$USERR3
 40
0.0
  9
$USERR4
 40
0.0
  9
$USERR5
 40
0.0
  9
$WORLDVIEW
 70
     1
  9
$SHADEDGE
 70
     3
  9
$SHADEDIF
 70
    70
  9
$TILEMODE
 70
     1
  9
$MAXACTVP
 70
    64
  9
$PINSBASE
 10
0.0
 20
0.0
 30
0.0
  9
$PLIMCHECK
 70
     0
  9
$PEXTMIN
 10
1.000000000000000E+20
 20
1.000000000000000E+20
 30
1.000000000000000E+20
  9
$PEXTMAX
 10
-1.000000000000000E+20
 20
-1.000000000000000E+20
 30
-1.000000000000000E+20
  9
$PLIMMIN
 10
0.0
 20
0.0
  9
$PLIMMAX
 10
12.0
 20
9.0
  9
$UNITMODE
 70
     0
  9
$VISRETAIN
 70
     1
  9
$PLINEGEN
 70
     0
  9
$PSLTSCALE
 70
     1
  9
$TREEDEPTH
 70
  3020
  9
$CMLSTYLE
  2
Standard
  9
$CMLJUST
 70
     0
  9
$CMLSCALE
 40
1.0
  9
$PROXYGRAPHICS
 70
     1
  9
$MEASUREMENT
 70
     0
  9
$CELWEIGHT
370
    -1
  9
$ENDCAPS
280
     0
  9
$JOINSTYLE
280
     0
  9
$LWDISPLAY
290
     1
  9
$INSUNITS
 70
     1
  9
$HYPERLINKBASE
  1

  9
$STYLESHEET
  1

  9
$XEDIT
290
     1
  9
$CEPSNTYPE
380
     0
  9
$PSTYLEMODE
290
     1
  9
$FINGERPRINTGUID
  2
{C60DD57D-74EB-46E4-AE5E-FB3FF892AD33}
  9
$VERSIONGUID
  2
{FAEB1C32-E019-11D5-929B-00C0DF256EC4}
  9
$EXTNAMES
290
     1
  9
$PSVPSCALE
 40
0.0
  9
$OLESTARTUP
290
     0
  9
$SORTENTS
280
   127
  9
$INDEXCTL
280
     0
  9
$HIDETEXT
280
     1
  9
$XCLIPFRAME
290
     0
  9
$HALOGAP
280
     0
  9
$OBSCOLOR
 70
   257
  9
$OBSLTYPE
280
     0
  9
$INTERSECTIONDISPLAY
280
     0
  9
$INTERSECTIONCOLOR
 70
   257
  9
$DIMASSOC
280
     2
  9
$PROJECTNAME
  1

  0
ENDSEC
  0
SECTION
  2
CLASSES
  0
CLASS
  1
ACDBDICTIONARYWDFLT
  2
AcDbDictionaryWithDefault
  3
ObjectDBX Classes
 90
        0
 91
        3
280
     0
281
     0
  0
CLASS
  1
VISUALSTYLE
  2
AcDbVisualStyle
  3
ObjectDBX Classes
 90
     4095
 91
        3
280
     0
281
     0
  0
ENDSEC
  0
SECTION
  2
TABLES
  0
TABLE
  2
VPORT
  5
8
330
0
100
AcDbSymbolTable
 70
     1
  0
VPORT
  5
29
330
8
100
AcDbSymbolTableRecord
100
AcDbViewportTableRecord
  2
*Active
 70
     0
 10
0.0
 20
0.0
 11
1.0
 21
1.0
 12
0.0
 22
0.0
 13
0.0
 23
0.0
 14
0.5
 24
0.5
 15
0.5
 25
0.5
 16
0.0
 26
0.0
 36
1.0
 17
29.73093526887752
 27
39.47883937503012
 37
0.0
 40
42.76976900832302
 41
1.357654308308514
 42
50.0
 43
0.0
 44
0.0
 50
0.0
 51
0.0
 71
     0
 72
   100
 73
     1
 74
     3
 75
     0
 76
     0
 77
     0
 78
     0
281
     0
 65
     1
110
0.0
120
0.0
130
0.0
111
1.0
121
0.0
131
0.0
112
0.0
122
1.0
132
0.0
 79
     0
146
0.0
  0
ENDTAB
  0
TABLE
  2
LTYPE
  5
5
330
0
100
AcDbSymbolTable
 70
     1
  0
LTYPE
  5
14
330
5
100
AcDbSymbolTableRecord
100
AcDbLinetypeTableRecord
  2
ByBlock
 70
     0
  3

 72
    65
 73
     0
 40
0.0
  0
LTYPE
  5
15
330
5
100
AcDbSymbolTableRecord
100
AcDbLinetypeTableRecord
  2
ByLayer
 70
     0
  3

 72
    65
 73
     0
 40
0.0
  0
LTYPE
  5
16
330
5
100
AcDbSymbolTableRecord
100
AcDbLinetypeTableRecord
  2
Continuous
 70
     0
  3
Solid line
 72
    65
 73
     0
 40
0.0
  0
ENDTAB
  0
TABLE
  2
LAYER
  5
2
330
0
100
AcDbSymbolTable
 70
     2
  0
LAYER
  5
10
330
2
100
AcDbSymbolTableRecord
100
AcDbLayerTableRecord
  2
0
 70
     0
 62
     7
  6
Continuous
370
    -3
390
F
  0
LAYER
  5
3B
330
2
100
AcDbSymbolTableRecord
100
AcDbLayerTableRecord
  2
\U+30EC\U+30A4\U+30E4\U+30FC 1
 70
     0
 62
     7
  6
Continuous
370
    -3
390
F
  0
ENDTAB
  0
TABLE
  2
STYLE
  5
3
330
0
100
AcDbSymbolTable
 70
     1
  0
STYLE
  5
11
330
3
100
AcDbSymbolTableRecord
100
AcDbTextStyleTableRecord
  2
Standard
 70
     0
 40
0.0
 41
1.0
 50
0.0
 71
     0
 42
0.2
  3
txt
  4

  0
ENDTAB
  0
TABLE
  2
VIEW
  5
6
330
0
100
AcDbSymbolTable
 70
     0
  0
ENDTAB
  0
TABLE
  2
UCS
  5
7
330
0
100
AcDbSymbolTable
 70
     0
  0
ENDTAB
  0
TABLE
  2
APPID
  5
9
330
0
100
AcDbSymbolTable
 70
     1
  0
APPID
  5
12
330
9
100
AcDbSymbolTableRecord
100
AcDbRegAppTableRecord
  2
ACAD
 70
     0
  0
ENDTAB
  0
TABLE
  2
DIMSTYLE
  5
A
330
0
100
AcDbSymbolTable
 70
     1
100
AcDbDimStyleTable
  0
DIMSTYLE
105
27
330
A
100
AcDbSymbolTableRecord
100
AcDbDimStyleTableRecord
  2
Standard
 70
     0
340
11
  0
ENDTAB
  0
TABLE
  2
BLOCK_RECORD
  5
1
330
0
100
AcDbSymbolTable
 70
     9
  0
BLOCK_RECORD
  5
1F
330
1
100
AcDbSymbolTableRecord
100
AcDbBlockTableRecord
  2
*Model_Space
340
22
  0
BLOCK_RECORD
  5
1B
330
1
100
AcDbSymbolTableRecord
100
AcDbBlockTableRecord
  2
*Paper_Space
340
1E
  0
BLOCK_RECORD
  5
23
330
1
100
AcDbSymbolTableRecord
100
AcDbBlockTableRecord
  2
*Paper_Space0
340
26
  0
BLOCK_RECORD
  5
418
330
1
100
AcDbSymbolTableRecord
100
AcDbBlockTableRecord
  2
block 2
340
0
102
{BLKREFS
331
419
102
}
  0
BLOCK_RECORD
  5
41C
330
1
100
AcDbSymbolTableRecord
100
AcDbBlockTableRecord
  2
block 3
340
0
102
{BLKREFS
331
41D
102
}
  0
BLOCK_RECORD
  5
44F
330
1
100
AcDbSymbolTableRecord
100
AcDbBlockTableRecord
  2
block 4
340
0
102
{BLKREFS
331
450
102
}
  0
BLOCK_RECORD
  5
453
330
1
100
AcDbSymbolTableRecord
100
AcDbBlockTableRecord
  2
block 5
340
0
102
{BLKREFS
331
454
102
}
  0
BLOCK_RECORD
  5
47D
330
1
100
AcDbSymbolTableRecord
100
AcDbBlockTableRecord
  2
block 6
340
0
102
{BLKREFS
331
47E
102
}
  0
BLOCK_RECORD
  5
481
330
1
100
AcDbSymbolTableRecord
100
AcDbBlockTableRecord
  2
block 7
340
0
102
{BLKREFS
331
482
102
}
  0
BLOCK_RECORD
  5
4A7
330
1
100
AcDbSymbolTableRecord
100
AcDbBlockTableRecord
  2
block 8
340
0
102
{BLKREFS
331
4A8
102
}
  0
BLOCK_RECORD
  5
4AB
330
1
100
AcDbSymbolTableRecord
100
AcDbBlockTableRecord
  2
block 9
340
0
102
{BLKREFS
331
4AC
102
}
  0
ENDTAB
  0
ENDSEC
  0
SECTION
  2
BLOCKS
  0
BLOCK
  5
20
330
1F
100
AcDbEntity
  8
0
100
AcDbBlockBegin
  2
*Model_Space
 70
     0
 71
     0
 10
0.0
 20
0.0
 30
0.0
  3
*Model_Space
  1

  0
ENDBLK
  5
21
330
1F
100
AcDbEntity
  8
0
100
AcDbBlockEnd
  0
BLOCK
  5
1C
330
1B
100
AcDbEntity
 67
     1
  8
0
100
AcDbBlockBegin
  2
*Paper_Space
 70
     0
 71
     0
 10
0.0
 20
0.0
 30
0.0
  3
*Paper_Space
  1

  0
ENDBLK
  5
1D
330
1B
100
AcDbEntity
 67
     1
  8
0
100
AcDbBlockEnd
  0
BLOCK
  5
24
330
23
100
AcDbEntity
  8
0
100
AcDbBlockBegin
  2
*Paper_Space0
 70
     0
 71
     0
 10
0.0
 20
0.0
 30
0.0
  3
*Paper_Space0
  1

  0
ENDBLK
  5
25
330
23
100
AcDbEntity
  8
0
100
AcDbBlockEnd
  0
BLOCK
  5
41A
330
418
100
AcDbEntity
  8
0
100
AcDbBlockBegin
  2
block 2
 70
     0
 71
     0
 10
0.0
 20
0.0
 30
0.0
  3
block 2
  1

  0
INSERT
  5
41D
330
418
100
AcDbEntity
  8
\U+30EC\U+30A4\U+30E4\U+30FC 1
100
AcDbBlockReference
  2
block 3
 10
0.0
 20
0.0
 30
0.0
  0
POLYLINE
  5
431
330
418
100
AcDbEntity
  8
\U+30EC\U+30A4\U+30E4\U+30FC 1
 62
     7
370
    18
100
AcDb2dPolyline
 66
     1
 10
0.0
 20
0.0
 30
0.0
  0
VERTEX
  5
432
330
431
100
AcDbEntity
  8
\U+30EC\U+30A4\U+30E4\U+30FC 1
 62
     7
370
    18
100
AcDbVertex
100
AcDb2dVertex
 10
46.96185008765475
 20
23.27025731592802
 30
0.0
  0
VERTEX
  5
433
330
431
100
AcDbEntity
  8
\U+30EC\U+30A4\U+30E4\U+30FC 1
 62
     7
370
    18
100
AcDbVertex
100
AcDb2dVertex
 10
46.96185008765475
 20
18.51326633173452
 30
0.0
  0
SEQEND
  5
434
330
431
100
AcDbEntity
  8
\U+30EC\U+30A4\U+30E4\U+30FC 1
370
    18
  0
POLYLINE
  5
435
330
418
100
AcDbEntity
  8
\U+30EC\U+30A4\U+30E4\U+30FC 1
 62
     7
370
    18
100
AcDb2dPolyline
 66
     1
 10
0.0
 20
0.0
 30
0.0
  0
VERTEX
  5
436
330
435
100
AcDbEntity
  8
\U+30EC\U+30A4\U+30E4\U+30FC 1
 62
     7
370
    18
100
AcDbVertex
100
AcDb2dVertex
 10
1.893942492439438
 20
23.27025731592802
 30
0.0
  0
VERTEX
  5
437
330
435
100
AcDbEntity
  8
\U+30EC\U+30A4\U+30E4\U+30FC 1
 62
     7
370
    18
100
AcDbVertex
100
AcDb2dVertex
 10
1.893942492439438
 20
18.51326633173452
 30
0.0
  0
SEQEND
  5
438
330
435
100
AcDbEntity
  8
\U+30EC\U+30A4\U+30E4\U+30FC 1
370
    18
  0
POLYLINE
  5
439
330
418
100
AcDbEntity
  8
\U+30EC\U+30A4\U+30E4\U+30FC 1
 62
     7
370
    18
100
AcDb2dPolyline
 66
     1
 10
0.0
 20
0.0
 30
0.0
  0
VERTEX
  5
43A
330
439
100
AcDbEntity
  8
\U+30EC\U+30A4\U+30E4\U+30FC 1
 62
     7
370
    18
100
AcDbVertex
100
AcDb2dVertex
 10
46.96185008765475
 20
18.73513062734725
 30
0.0
  0
VERTEX
  5
43B
330
439
100
AcDbEntity
  8
\U+30EC\U+30A4\U+30E4\U+30FC 1
 62
     7
370
    18
100
AcDbVertex
100
AcDb2dVertex
 10
2.338360103216496
 20
18.73513062734725
 30
0.0
  0
SEQEND
  5
43C
330
439
100
AcDbEntity
  8
\U+30EC\U+30A4\U+30E4\U+30FC 1
370
    18
  0
POLYLINE
  5
43D
330
418
100
AcDbEntity
  8
\U+30EC\U+30A4\U+30E4\U+30FC 1
370
     0
100
AcDb2dPolyline
 66
     1
 10
0.0
 20
0.0
 30
0.0
  0
VERTEX
  5
43E
330
43D
100
AcDbEntity
  8
\U+30EC\U+30A4\U+30E4\U+30FC 1
370
     0
100
AcDbVertex
100
AcDb2dVertex
 10
1.893942492439438
 20
18.73513062734725
 30
0.0
  0
VERTEX
  5
43F
330
43D
100
AcDbEntity
  8
\U+30EC\U+30A4\U+30E4\U+30FC 1
370
     0
100
AcDbVertex
100
AcDb2dVertex
 10
24.42832692726684
 20
18.73513062734725
 30
0.0
  0
SEQEND
  5
440
330
43D
100
AcDbEntity
  8
\U+30EC\U+30A4\U+30E4\U+30FC 1
370
     0
  0
POLYLINE
  5
441
330
418
100
AcDbEntity
  8
\U+30EC\U+30A4\U+30E4\U+30FC 1
370
     0
100
AcDb2dPolyline
 66
     1
 10
0.0
 20
0.0
 30
0.0
  0
VERTEX
  5
442
330
441
100
AcDbEntity
  8
\U+30EC\U+30A4\U+30E4\U+30FC 1
370
     0
100
AcDbVertex
100
AcDb2dVertex
 10
46.51812149642929
 20
18.65796043756891
 30
0.0
  0
VERTEX
  5
443
330
441
100
AcDbEntity
  8
\U+30EC\U+30A4\U+30E4\U+30FC 1
370
     0
100
AcDbVertex
100
AcDb2dVertex
 10
46.96185008765475
 20
18.73513062734725
 30
0.0
  0
VERTEX
  5
444
330
441
100
AcDbEntity
  8
\U+30EC\U+30A4\U+30E4\U+30FC 1
370
     0
100
AcDbVertex
100
AcDb2dVertex
 10
46.51812149642929
 20
18.81367885622878
 30
0.0
  0
VERTEX
  5
445
330
441
100
AcDbEntity
  8
\U+30EC\U+30A4\U+30E4\U+30FC 1
370
     0
100
AcDbVertex
100
AcDb2dVertex
 10
46.51812149642929
 20
18.65796043756891
 30
0.0
  0
SEQEND
  5
446
330
441
100
AcDbEntity
  8
\U+30EC\U+30A4\U+30E4\U+30FC 1
370
     0
  0
HATCH
  5
447
330
418
100
AcDbEntity
  8
\U+30EC\U+30A4\U+30E4\U+30FC 1
 62
     7
100
AcDbHatch
 10
0.0
 20
0.0
 30
0.0
210
0.0
220
0.0
230
1.0
  2
SOLID
 70
     1
 71
     0
 91
        1
 92
        1
 93
        3
 72
     1
 10
46.51812149642929
 20
18.65796043756891
 11
46.96185008765475
 21
18.73513062734725
 72
     1
 10
46.96185008765475
 20
18.73513062734725
 11
46.51812149642929
 21
18.81367885622878
 72
     1
 10
46.51812149642929
 20
18.81367885622878
 11
46.51812149642929
 21
18.65796043756891
 97
        0
 75
     2
 76
     1
 98
        0
  0
POLYLINE
  5
448
330
418
100
AcDbEntity
  8
\U+30EC\U+30A4\U+30E4\U+30FC 1
370
     0
100
AcDb2dPolyline
 66
     1
 10
0.0
 20
0.0
 30
0.0
  0
VERTEX
  5
449
330
448
100
AcDbEntity
  8
\U+30EC\U+30A4\U+30E4\U+30FC 1
370
     0
100
AcDbVertex
100
AcDb2dVertex
 10
2.338360103216496
 20
18.81367885622878
 30
0.0
  0
VERTEX
  5
44A
330
448
100
AcDbEntity
  8
\U+30EC\U+30A4\U+30E4\U+30FC 1
370
     0
100
AcDbVertex
100
AcDb2dVertex
 10
1.893942492439438
 20
18.73513062734725
 30
0.0
  0
VERTEX
  5
44B
330
448
100
AcDbEntity
  8
\U+30EC\U+30A4\U+30E4\U+30FC 1
370
     0
100
AcDbVertex
100
AcDb2dVertex
 10
2.338360103216496
 20
18.65796043756891
 30
0.0
  0
VERTEX
  5
44C
330
448
100
AcDbEntity
  8
\U+30EC\U+30A4\U+30E4\U+30FC 1
370
     0
100
AcDbVertex
100
AcDb2dVertex
 10
2.338360103216496
 20
18.81367885622878
 30
0.0
  0
SEQEND
  5
44D
330
448
100
AcDbEntity
  8
\U+30EC\U+30A4\U+30E4\U+30FC 1
370
     0
  0
HATCH
  5
44E
330
418
100
AcDbEntity
  8
\U+30EC\U+30A4\U+30E4\U+30FC 1
 62
     7
100
AcDbHatch
 10
0.0
 20
0.0
 30
0.0
210
0.0
220
0.0
230
1.0
  2
SOLID
 70
     1
 71
     0
 91
        1
 92
        1
 93
        3
 72
     1
 10
2.338360103216496
 20
18.81367885622878
 11
1.893942492439438
 21
18.73513062734725
 72
     1
 10
1.893942492439438
 20
18.73513062734725
 11
2.338360103216496
 21
18.65796043756891
 72
     1
 10
2.338360103216496
 20
18.65796043756891
 11
2.338360103216496
 21
18.81367885622878
 97
        0
 75
     2
 76
     1
 98
        0
  0
ENDBLK
  5
41B
330
418
100
AcDbEntity
  8
0
100
AcDbBlockEnd
  0
BLOCK
  5
41E
330
41C
100
AcDbEntity
  8
0
100
AcDbBlockBegin
  2
block 3
 70
     0
 71
     0
 10
0.0
 20
0.0
 30
0.0
  3
block 3
  1

  0
SPLINE
  5
420
330
41C
100
AcDbEntity
  8
\U+30EC\U+30A4\U+30E4\U+30FC 1
370
     0
100
AcDbSpline
210
0.0
220
0.0
230
1.0
 70
    11
 71
     3
 72
    32
 73
    28
 74
     0
 42
0.0000000001
 43
0.0000000001
 40
0.0
 40
0.0
 40
0.0
 40
0.0
 40
1.0
 40
1.0
 40
1.0
 40
2.0
 40
2.0
 40
2.0
 40
3.0
 40
3.0
 40
3.0
 40
4.0
 40
4.0
 40
4.0
 40
5.0
 40
5.0
 40
5.0
 40
6.0
 40
6.0
 40
6.0
 40
7.0
 40
7.0
 40
7.0
 40
8.0
 40
8.0
 40
8.0
 40
9.0
 40
9.0
 40
9.0
 40
9.0
 10
22.2651500450427
 20
20.14693168855995
 30
0.0
 10
22.34662660701849
 20
20.24580599421346
 30
0.0
 10
22.47512875339046
 20
20.31264089071791
 30
0.0
 10
22.63567030891148
 20
20.31264089071791
 30
0.0
 10
22.92471401080446
 20
20.31264089071791
 30
0.0
 10
23.14709507108089
 20
20.09249914398416
 30
0.0
 10
23.14709507108089
 20
19.71939505679691
 30
0.0
 10
23.14709507108089
 20
19.36627253660583
 30
0.0
 10
22.91730705062485
 20
19.0548356992861
 30
0.0
 10
22.53937982657645
 20
19.0548356992861
 30
0.0
 10
22.11683858656245
 20
19.0548356992861
 30
0.0
 10
21.88946213453698
 20
19.39348880889373
 30
0.0
 10
21.88946213453698
 20
19.85030877159945
 30
0.0
 10
21.88946213453698
 20
20.2778454033625
 30
0.0
 10
22.08221535409493
 20
20.97720024822872
 30
0.0
 10
22.97173959520064
 20
20.97720024822872
 30
0.0
 10
22.97173959520064
 20
20.97720024822872
 30
0.0
 10
22.97173959520064
 20
20.69539125162746
 30
0.0
 10
22.97173959520064
 20
20.69539125162746
 30
0.0
 10
22.92471401080446
 20
20.69539125162746
 30
0.0
 10
22.87286528954714
 20
20.69056811476631
 30
0.0
 10
22.81119803967963
 20
20.68298889969879
 30
0.0
 10
22.46772179321085
 20
20.63613557019051
 30
0.0
 10
22.30459641437136
 20
20.39394519780581
 30
0.0
 10
22.25774308486308
 20
20.14693168855995
 30
0.0
 10
22.25774308486308
 20
20.14693168855995
 30
0.0
 10
22.2651500450427
 20
20.14693168855995
 30
0.0
 10
22.2651500450427
 20
20.14693168855995
 30
0.0
  0
SPLINE
  5
421
330
41C
100
AcDbEntity
  8
\U+30EC\U+30A4\U+30E4\U+30FC 1
370
     0
100
AcDbSpline
210
0.0
220
0.0
230
1.0
 70
    11
 71
     3
 72
    17
 73
    13
 74
     0
 42
0.0000000001
 43
0.0000000001
 40
0.0
 40
0.0
 40
0.0
 40
0.0
 40
1.0
 40
1.0
 40
1.0
 40
2.0
 40
2.0
 40
2.0
 40
3.0
 40
3.0
 40
3.0
 40
4.0
 40
4.0
 40
4.0
 40
4.0
 10
22.78398176739173
 20
19.7021695680071
 30
0.0
 10
22.78398176739173
 20
19.89750661088353
 30
0.0
 10
22.69010285348727
 20
20.05804816640454
 30
0.0
 10
22.51957051446817
 20
20.05804816640454
 30
0.0
 10
22.41087768020448
 20
20.05804816640454
 30
0.0
 10
22.25274769311403
 20
19.96399699761219
 30
0.0
 10
22.25274769311403
 20
19.75419054415232
 30
0.0
 10
22.25774308486308
 20
19.51200017176761
 30
0.0
 10
22.35644513562868
 20
19.31941920709756
 30
0.0
 10
22.53679600325798
 20
19.31941920709756
 30
0.0
 10
22.69750981366689
 20
19.31941920709756
 30
0.0
 10
22.78398176739173
 20
19.49236311454723
 30
0.0
 10
22.78398176739173
 20
19.7021695680071
 30
0.0
  0
HATCH
  5
422
330
41C
100
AcDbEntity
  8
\U+30EC\U+30A4\U+30E4\U+30FC 1
 62
     7
100
AcDbHatch
 10
0.0
 20
0.0
 30
0.0
210
0.0
220
0.0
230
1.0
  2
SOLID
 70
     1
 71
     0
 91
        2
 92
        1
 93
        1
 72
     4
 94
        3
 73
     0
 74
     1
 95
       32
 96
       28
 40
0.0
 40
0.0
 40
0.0
 40
0.0
 40
1.0
 40
1.0
 40
1.0
 40
2.0
 40
2.0
 40
2.0
 40
3.0
 40
3.0
 40
3.0
 40
4.0
 40
4.0
 40
4.0
 40
5.0
 40
5.0
 40
5.0
 40
6.0
 40
6.0
 40
6.0
 40
7.0
 40
7.0
 40
7.0
 40
8.0
 40
8.0
 40
8.0
 40
9.0
 40
9.0
 40
9.0
 40
9.0
 10
22.2651500450427
 20
20.14693168855995
 10
22.34662660701849
 20
20.24580599421346
 10
22.47512875339046
 20
20.31264089071791
 10
22.63567030891148
 20
20.31264089071791
 10
22.92471401080446
 20
20.31264089071791
 10
23.14709507108089
 20
20.09249914398416
 10
23.14709507108089
 20
19.71939505679691
 10
23.14709507108089
 20
19.36627253660583
 10
22.91730705062485
 20
19.0548356992861
 10
22.53937982657645
 20
19.0548356992861
 10
22.11683858656245
 20
19.0548356992861
 10
21.88946213453698
 20
19.39348880889373
 10
21.88946213453698
 20
19.85030877159945
 10
21.88946213453698
 20
20.2778454033625
 10
22.08221535409493
 20
20.97720024822872
 10
22.97173959520064
 20
20.97720024822872
 10
22.97173959520064
 20
20.97720024822872
 10
22.97173959520064
 20
20.69539125162746
 10
22.97173959520064
 20
20.69539125162746
 10
22.92471401080446
 20
20.69539125162746
 10
22.87286528954714
 20
20.69056811476631
 10
22.81119803967963
 20
20.68298889969879
 10
22.46772179321085
 20
20.63613557019051
 10
22.30459641437136
 20
20.39394519780581
 10
22.25774308486308
 20
20.14693168855995
 10
22.25774308486308
 20
20.14693168855995
 10
22.2651500450427
 20
20.14693168855995
 10
22.2651500450427
 20
20.14693168855995
 97
        0
 92
        1
 93
        1
 72
     4
 94
        3
 73
     0
 74
     1
 95
       17
 96
       13
 40
0.0
 40
0.0
 40
0.0
 40
0.0
 40
1.0
 40
1.0
 40
1.0
 40
2.0
 40
2.0
 40
2.0
 40
3.0
 40
3.0
 40
3.0
 40
4.0
 40
4.0
 40
4.0
 40
4.0
 10
22.78398176739173
 20
19.7021695680071
 10
22.78398176739173
 20
19.89750661088353
 10
22.69010285348727
 20
20.05804816640454
 10
22.51957051446817
 20
20.05804816640454
 10
22.41087768020448
 20
20.05804816640454
 10
22.25274769311403
 20
19.96399699761219
 10
22.25274769311403
 20
19.75419054415232
 10
22.25774308486308
 20
19.51200017176761
 10
22.35644513562868
 20
19.31941920709756
 10
22.53679600325798
 20
19.31941920709756
 10
22.69750981366689
 20
19.31941920709756
 10
22.78398176739173
 20
19.49236311454723
 10
22.78398176739173
 20
19.7021695680071
 97
        0
 75
     2
 76
     1
 98
        0
  0
POLYLINE
  5
423
330
41C
100
AcDbEntity
  8
\U+30EC\U+30A4\U+30E4\U+30FC 1
370
     0
100
AcDb2dPolyline
 66
     1
 10
0.0
 20
0.0
 30
0.0
  0
VERTEX
  5
424
330
423
100
AcDbEntity
  8
\U+30EC\U+30A4\U+30E4\U+30FC 1
370
     0
100
AcDbVertex
100
AcDb2dVertex
 10
23.83318628957896
 20
19.082051971574
 30
0.0
  0
VERTEX
  5
425
330
423
100
AcDbEntity
  8
\U+30EC\U+30A4\U+30E4\U+30FC 1
370
     0
100
AcDbVertex
100
AcDb2dVertex
 10
23.83318628957896
 20
20.62373321826185
 30
0.0
  0
VERTEX
  5
426
330
423
100
AcDbEntity
  8
\U+30EC\U+30A4\U+30E4\U+30FC 1
370
     0
100
AcDbVertex
100
AcDb2dVertex
 10
23.82836315271781
 20
20.62373321826185
 30
0.0
  0
VERTEX
  5
427
330
423
100
AcDbEntity
  8
\U+30EC\U+30A4\U+30E4\U+30FC 1
370
     0
100
AcDbVertex
100
AcDb2dVertex
 10
23.50710778678789
 20
20.45595695744912
 30
0.0
  0
VERTEX
  5
428
330
423
100
AcDbEntity
  8
\U+30EC\U+30A4\U+30E4\U+30FC 1
370
     0
100
AcDbVertex
100
AcDb2dVertex
 10
23.42804279324267
 20
20.71778438705421
 30
0.0
  0
VERTEX
  5
429
330
423
100
AcDbEntity
  8
\U+30EC\U+30A4\U+30E4\U+30FC 1
370
     0
100
AcDbVertex
100
AcDb2dVertex
 10
23.88262344240571
 20
20.94998397594082
 30
0.0
  0
VERTEX
  5
42A
330
423
100
AcDbEntity
  8
\U+30EC\U+30A4\U+30E4\U+30FC 1
370
     0
100
AcDbVertex
100
AcDb2dVertex
 10
24.1890648879764
 20
20.94998397594082
 30
0.0
  0
VERTEX
  5
42B
330
423
100
AcDbEntity
  8
\U+30EC\U+30A4\U+30E4\U+30FC 1
370
     0
100
AcDbVertex
100
AcDb2dVertex
 10
24.1890648879764
 20
19.082051971574
 30
0.0
  0
VERTEX
  5
42C
330
423
100
AcDbEntity
  8
\U+30EC\U+30A4\U+30E4\U+30FC 1
370
     0
100
AcDbVertex
100
AcDb2dVertex
 10
23.83318628957896
 20
19.082051971574
 30
0.0
  0
SEQEND
  5
42D
330
423
100
AcDbEntity
  8
\U+30EC\U+30A4\U+30E4\U+30FC 1
370
     0
  0
HATCH
  5
42E
330
41C
100
AcDbEntity
  8
\U+30EC\U+30A4\U+30E4\U+30FC 1
 62
     7
100
AcDbHatch
 10
0.0
 20
0.0
 30
0.0
210
0.0
220
0.0
230
1.0
  2
SOLID
 70
     1
 71
     0
 91
        1
 92
        1
 93
        8
 72
     1
 10
23.83318628957896
 20
19.082051971574
 11
23.83318628957896
 21
20.62373321826185
 72
     1
 10
23.83318628957896
 20
20.62373321826185
 11
23.82836315271781
 21
20.62373321826185
 72
     1
 10
23.82836315271781
 20
20.62373321826185
 11
23.50710778678789
 21
20.45595695744912
 72
     1
 10
23.50710778678789
 20
20.45595695744912
 11
23.42804279324267
 21
20.71778438705421
 72
     1
 10
23.42804279324267
 20
20.71778438705421
 11
23.88262344240571
 21
20.94998397594082
 72
     1
 10
23.88262344240571
 20
20.94998397594082
 11
24.1890648879764
 21
20.94998397594082
 72
     1
 10
24.1890648879764
 20
20.94998397594082
 11
24.1890648879764
 21
19.082051971574
 72
     1
 10
24.1890648879764
 20
19.082051971574
 11
23.83318628957896
 21
19.082051971574
 97
        0
 75
     2
 76
     1
 98
        0
  0
SPLINE
  5
42F
330
41C
100
AcDbEntity
  8
\U+30EC\U+30A4\U+30E4\U+30FC 1
370
     0
100
AcDbSpline
210
0.0
220
0.0
230
1.0
 70
    11
 71
     3
 72
    47
 73
    43
 74
     0
 42
0.0000000001
 43
0.0000000001
 40
0.0
 40
0.0
 40
0.0
 40
0.0
 40
1.0
 40
1.0
 40
1.0
 40
2.0
 40
2.0
 40
2.0
 40
3.0
 40
3.0
 40
3.0
 40
4.0
 40
4.0
 40
4.0
 40
5.0
 40
5.0
 40
5.0
 40
6.0
 40
6.0
 40
6.0
 40
7.0
 40
7.0
 40
7.0
 40
8.0
 40
8.0
 40
8.0
 40
9.0
 40
9.0
 40
9.0
 40
10.0
 40
10.0
 40
10.0
 40
11.0
 40
11.0
 40
11.0
 40
12.0
 40
12.0
 40
12.0
 40
13.0
 40
13.0
 40
13.0
 40
14.0
 40
14.0
 40
14.0
 40
14.0
 10
25.84357308623751
 20
20.9523955443714
 30
0.0
 10
25.84357308623751
 20
20.9523955443714
 30
0.0
 10
25.84357308623751
 20
20.65094949054975
 30
0.0
 10
25.84357308623751
 20
20.65094949054975
 30
0.0
 10
25.84357308623751
 20
20.65094949054975
 30
0.0
 10
25.20864156944517
 20
20.65094949054975
 30
0.0
 10
25.20864156944517
 20
20.65094949054975
 30
0.0
 10
25.20864156944517
 20
20.65094949054975
 30
0.0
 10
25.15920441661842
 20
20.28542461843001
 30
0.0
 10
25.15920441661842
 20
20.28542461843001
 30
0.0
 10
25.19382764908593
 20
20.29024775529116
 30
0.0
 10
25.2234554898044
 20
20.29265932372173
 30
0.0
 10
25.26307411402096
 20
20.29265932372173
 30
0.0
 10
25.58915261681203
 20
20.29265932372173
 30
0.0
 10
25.89559406238272
 20
20.10972463277397
 30
0.0
 10
25.89559406238272
 20
19.70699270486825
 30
0.0
 10
25.89559406238272
 20
19.34904704781603
 30
0.0
 10
25.62136428084898
 20
19.0548356992861
 30
0.0
 10
25.18142529715727
 20
19.0548356992861
 30
0.0
 10
24.99625129266683
 20
19.0548356992861
 30
0.0
 10
24.8281305220783
 20
19.10168902879438
 30
0.0
 10
24.73666317660441
 20
19.15129843650903
 30
0.0
 10
24.73666317660441
 20
19.15129843650903
 30
0.0
 10
24.80832120997002
 20
19.42793978647335
 30
0.0
 10
24.80832120997002
 20
19.42793978647335
 30
0.0
 10
24.88256306665409
 20
19.38832116225679
 30
0.0
 10
25.01847217320568
 20
19.34146783274851
 30
0.0
 10
25.16178823993689
 20
19.34146783274851
 30
0.0
 10
25.35195763617637
 20
19.34146783274851
 30
0.0
 10
25.52731311205662
 20
19.46239076405297
 30
0.0
 10
25.52731311205662
 20
19.67736486414978
 30
0.0
 10
25.52731311205662
 20
19.90232974774467
 30
0.0
 10
25.36177616478656
 20
20.02842032568607
 30
0.0
 10
25.04551619060568
 20
20.02842032568607
 30
0.0
 10
24.96162806019931
 20
20.02842032568607
 30
0.0
 10
24.89737698701333
 20
20.02325267904913
 30
0.0
 10
24.83553748225792
 20
20.01601797375741
 30
0.0
 10
24.83553748225792
 20
20.01601797375741
 30
0.0
 10
24.94922570827065
 20
20.9523955443714
 30
0.0
 10
24.94922570827065
 20
20.9523955443714
 30
0.0
 10
24.94922570827065
 20
20.9523955443714
 30
0.0
 10
25.84357308623751
 20
20.9523955443714
 30
0.0
 10
25.84357308623751
 20
20.9523955443714
 30
0.0
  0
HATCH
  5
430
330
41C
100
AcDbEntity
  8
\U+30EC\U+30A4\U+30E4\U+30FC 1
 62
     7
100
AcDbHatch
 10
0.0
 20
0.0
 30
0.0
210
0.0
220
0.0
230
1.0
  2
SOLID
 70
     1
 71
     0
 91
        1
 92
        1
 93
        1
 72
     4
 94
        3
 73
     0
 74
     1
 95
       47
 96
       43
 40
0.0
 40
0.0
 40
0.0
 40
0.0
 40
1.0
 40
1.0
 40
1.0
 40
2.0
 40
2.0
 40
2.0
 40
3.0
 40
3.0
 40
3.0
 40
4.0
 40
4.0
 40
4.0
 40
5.0
 40
5.0
 40
5.0
 40
6.0
 40
6.0
 40
6.0
 40
7.0
 40
7.0
 40
7.0
 40
8.0
 40
8.0
 40
8.0
 40
9.0
 40
9.0
 40
9.0
 40
10.0
 40
10.0
 40
10.0
 40
11.0
 40
11.0
 40
11.0
 40
12.0
 40
12.0
 40
12.0
 40
13.0
 40
13.0
 40
13.0
 40
14.0
 40
14.0
 40
14.0
 40
14.0
 10
25.84357308623751
 20
20.9523955443714
 10
25.84357308623751
 20
20.9523955443714
 10
25.84357308623751
 20
20.65094949054975
 10
25.84357308623751
 20
20.65094949054975
 10
25.84357308623751
 20
20.65094949054975
 10
25.20864156944517
 20
20.65094949054975
 10
25.20864156944517
 20
20.65094949054975
 10
25.20864156944517
 20
20.65094949054975
 10
25.15920441661842
 20
20.28542461843001
 10
25.15920441661842
 20
20.28542461843001
 10
25.19382764908593
 20
20.29024775529116
 10
25.2234554898044
 20
20.29265932372173
 10
25.26307411402096
 20
20.29265932372173
 10
25.58915261681203
 20
20.29265932372173
 10
25.89559406238272
 20
20.10972463277397
 10
25.89559406238272
 20
19.70699270486825
 10
25.89559406238272
 20
19.34904704781603
 10
25.62136428084898
 20
19.0548356992861
 10
25.18142529715727
 20
19.0548356992861
 10
24.99625129266683
 20
19.0548356992861
 10
24.8281305220783
 20
19.10168902879438
 10
24.73666317660441
 20
19.15129843650903
 10
24.73666317660441
 20
19.15129843650903
 10
24.80832120997002
 20
19.42793978647335
 10
24.80832120997002
 20
19.42793978647335
 10
24.88256306665409
 20
19.38832116225679
 10
25.01847217320568
 20
19.34146783274851
 10
25.16178823993689
 20
19.34146783274851
 10
25.35195763617637
 20
19.34146783274851
 10
25.52731311205662
 20
19.46239076405297
 10
25.52731311205662
 20
19.67736486414978
 10
25.52731311205662
 20
19.90232974774467
 10
25.36177616478656
 20
20.02842032568607
 10
25.04551619060568
 20
20.02842032568607
 10
24.96162806019931
 20
20.02842032568607
 10
24.89737698701333
 20
20.02325267904913
 10
24.83553748225792
 20
20.01601797375741
 10
24.83553748225792
 20
20.01601797375741
 10
24.94922570827065
 20
20.9523955443714
 10
24.94922570827065
 20
20.9523955443714
 10
24.94922570827065
 20
20.9523955443714
 10
25.84357308623751
 20
20.9523955443714
 10
25.84357308623751
 20
20.9523955443714
 97
        0
 75
     2
 76
     1
 98
        0
  0
ENDBLK
  5
41F
330
41C
100
AcDbEntity
  8
0
100
AcDbBlockEnd
  0
BLOCK
  5
451
330
44F
100
AcDbEntity
  8
0
100
AcDbBlockBegin
  2
block 4
 70
     0
 71
     0
 10
0.0
 20
0.0
 30
0.0
  3
block 4
  1

  0
INSERT
  5
454
330
44F
100
AcDbEntity
  8
\U+30EC\U+30A4\U+30E4\U+30FC 1
100
AcDbBlockReference
  2
block 5
 10
0.0
 20
0.0
 30
0.0
  0
POLYLINE
  5
45F
330
44F
100
AcDbEntity
  8
\U+30EC\U+30A4\U+30E4\U+30FC 1
 62
     7
370
    18
100
AcDb2dPolyline
 66
     1
 10
0.0
 20
0.0
 30
0.0
  0
VERTEX
  5
460
330
45F
100
AcDbEntity
  8
\U+30EC\U+30A4\U+30E4\U+30FC 1
 62
     7
370
    18
100
AcDbVertex
100
AcDb2dVertex
 10
2.993617696780809
 20
27.66689107463873
 30
0.0
  0
VERTEX
  5
461
330
45F
100
AcDbEntity
  8
\U+30EC\U+30A4\U+30E4\U+30FC 1
 62
     7
370
    18
100
AcDbVertex
100
AcDb2dVertex
 10
2.993617696780809
 20
25.67769162919165
 30
0.0
  0
SEQEND
  5
462
330
45F
100
AcDbEntity
  8
\U+30EC\U+30A4\U+30E4\U+30FC 1
370
    18
  0
POLYLINE
  5
463
330
44F
100
AcDbEntity
  8
\U+30EC\U+30A4\U+30E4\U+30FC 1
 62
     7
370
    18
100
AcDb2dPolyline
 66
     1
 10
0.0
 20
0.0
 30
0.0
  0
VERTEX
  5
464
330
463
100
AcDbEntity
  8
\U+30EC\U+30A4\U+30E4\U+30FC 1
 62
     7
370
    18
100
AcDbVertex
100
AcDb2dVertex
 10
45.86286390286498
 20
27.66689107463873
 30
0.0
  0
VERTEX
  5
465
330
463
100
AcDbEntity
  8
\U+30EC\U+30A4\U+30E4\U+30FC 1
 62
     7
370
    18
100
AcDbVertex
100
AcDb2dVertex
 10
45.86286390286498
 20
25.67769162919165
 30
0.0
  0
SEQEND
  5
466
330
463
100
AcDbEntity
  8
\U+30EC\U+30A4\U+30E4\U+30FC 1
370
    18
  0
POLYLINE
  5
467
330
44F
100
AcDbEntity
  8
\U+30EC\U+30A4\U+30E4\U+30FC 1
 62
     7
370
    18
100
AcDb2dPolyline
 66
     1
 10
0.0
 20
0.0
 30
0.0
  0
VERTEX
  5
468
330
467
100
AcDbEntity
  8
\U+30EC\U+30A4\U+30E4\U+30FC 1
 62
     7
370
    18
100
AcDbVertex
100
AcDb2dVertex
 10
2.993617696780809
 20
25.89955592480438
 30
0.0
  0
VERTEX
  5
469
330
467
100
AcDbEntity
  8
\U+30EC\U+30A4\U+30E4\U+30FC 1
 62
     7
370
    18
100
AcDbVertex
100
AcDb2dVertex
 10
24.42832692726684
 20
25.89955592480438
 30
0.0
  0
SEQEND
  5
46A
330
467
100
AcDbEntity
  8
\U+30EC\U+30A4\U+30E4\U+30FC 1
370
    18
  0
POLYLINE
  5
46B
330
44F
100
AcDbEntity
  8
\U+30EC\U+30A4\U+30E4\U+30FC 1
 62
     7
370
    18
100
AcDb2dPolyline
 66
     1
 10
0.0
 20
0.0
 30
0.0
  0
VERTEX
  5
46C
330
46B
100
AcDbEntity
  8
\U+30EC\U+30A4\U+30E4\U+30FC 1
 62
     7
370
    18
100
AcDbVertex
100
AcDb2dVertex
 10
45.86286390286498
 20
25.89955592480438
 30
0.0
  0
VERTEX
  5
46D
330
46B
100
AcDbEntity
  8
\U+30EC\U+30A4\U+30E4\U+30FC 1
 62
     7
370
    18
100
AcDbVertex
100
AcDb2dVertex
 10
24.42832692726684
 20
25.89955592480438
 30
0.0
  0
SEQEND
  5
46E
330
46B
100
AcDbEntity
  8
\U+30EC\U+30A4\U+30E4\U+30FC 1
370
    18
  0
POLYLINE
  5
46F
330
44F
100
AcDbEntity
  8
\U+30EC\U+30A4\U+30E4\U+30FC 1
370
     0
100
AcDb2dPolyline
 66
     1
 10
0.0
 20
0.0
 30
0.0
  0
VERTEX
  5
470
330
46F
100
AcDbEntity
  8
\U+30EC\U+30A4\U+30E4\U+30FC 1
370
     0
100
AcDbVertex
100
AcDb2dVertex
 10
3.437346288006275
 20
25.97741513413431
 30
0.0
  0
VERTEX
  5
471
330
46F
100
AcDbEntity
  8
\U+30EC\U+30A4\U+30E4\U+30FC 1
370
     0
100
AcDbVertex
100
AcDb2dVertex
 10
2.993617696780809
 20
25.89955592480438
 30
0.0
  0
VERTEX
  5
472
330
46F
100
AcDbEntity
  8
\U+30EC\U+30A4\U+30E4\U+30FC 1
370
     0
100
AcDbVertex
100
AcDb2dVertex
 10
3.437346288006275
 20
25.82169671547445
 30
0.0
  0
VERTEX
  5
473
330
46F
100
AcDbEntity
  8
\U+30EC\U+30A4\U+30E4\U+30FC 1
370
     0
100
AcDbVertex
100
AcDb2dVertex
 10
3.437346288006275
 20
25.97741513413431
 30
0.0
  0
SEQEND
  5
474
330
46F
100
AcDbEntity
  8
\U+30EC\U+30A4\U+30E4\U+30FC 1
370
     0
  0
HATCH
  5
475
330
44F
100
AcDbEntity
  8
\U+30EC\U+30A4\U+30E4\U+30FC 1
 62
     7
100
AcDbHatch
 10
0.0
 20
0.0
 30
0.0
210
0.0
220
0.0
230
1.0
  2
SOLID
 70
     1
 71
     0
 91
        1
 92
        1
 93
        3
 72
     1
 10
3.437346288006275
 20
25.97741513413431
 11
2.993617696780809
 21
25.89955592480438
 72
     1
 10
2.993617696780809
 20
25.89955592480438
 11
3.437346288006275
 21
25.82169671547445
 72
     1
 10
3.437346288006275
 20
25.82169671547445
 11
3.437346288006275
 21
25.97741513413431
 97
        0
 75
     2
 76
     1
 98
        0
  0
POLYLINE
  5
476
330
44F
100
AcDbEntity
  8
\U+30EC\U+30A4\U+30E4\U+30FC 1
370
     0
100
AcDb2dPolyline
 66
     1
 10
0.0
 20
0.0
 30
0.0
  0
VERTEX
  5
477
330
476
100
AcDbEntity
  8
\U+30EC\U+30A4\U+30E4\U+30FC 1
370
     0
100
AcDbVertex
100
AcDb2dVertex
 10
45.41844629208792
 20
25.82169671547445
 30
0.0
  0
VERTEX
  5
478
330
476
100
AcDbEntity
  8
\U+30EC\U+30A4\U+30E4\U+30FC 1
370
     0
100
AcDbVertex
100
AcDb2dVertex
 10
45.86286390286498
 20
25.89955592480438
 30
0.0
  0
VERTEX
  5
479
330
476
100
AcDbEntity
  8
\U+30EC\U+30A4\U+30E4\U+30FC 1
370
     0
100
AcDbVertex
100
AcDb2dVertex
 10
45.41844629208792
 20
25.97741513413431
 30
0.0
  0
VERTEX
  5
47A
330
476
100
AcDbEntity
  8
\U+30EC\U+30A4\U+30E4\U+30FC 1
370
     0
100
AcDbVertex
100
AcDb2dVertex
 10
45.41844629208792
 20
25.82169671547445
 30
0.0
  0
SEQEND
  5
47B
330
476
100
AcDbEntity
  8
\U+30EC\U+30A4\U+30E4\U+30FC 1
370
     0
  0
HATCH
  5
47C
330
44F
100
AcDbEntity
  8
\U+30EC\U+30A4\U+30E4\U+30FC 1
 62
     7
100
AcDbHatch
 10
0.0
 20
0.0
 30
0.0
210
0.0
220
0.0
230
1.0
  2
SOLID
 70
     1
 71
     0
 91
        1
 92
        1
 93
        3
 72
     1
 10
45.41844629208792
 20
25.82169671547445
 11
45.86286390286498
 21
25.89955592480438
 72
     1
 10
45.86286390286498
 20
25.89955592480438
 11
45.41844629208792
 21
25.97741513413431
 72
     1
 10
45.41844629208792
 20
25.97741513413431
 11
45.41844629208792
 21
25.82169671547445
 97
        0
 75
     2
 76
     1
 98
        0
  0
ENDBLK
  5
452
330
44F
100
AcDbEntity
  8
0
100
AcDbBlockEnd
  0
BLOCK
  5
455
330
453
100
AcDbEntity
  8
0
100
AcDbBlockBegin
  2
block 5
 70
     0
 71
     0
 10
0.0
 20
0.0
 30
0.0
  3
block 5
  1

  0
SPLINE
  5
457
330
453
100
AcDbEntity
  8
\U+30EC\U+30A4\U+30E4\U+30FC 1
370
     0
100
AcDbSpline
210
0.0
220
0.0
230
1.0
 70
    11
 71
     3
 72
    47
 73
    43
 74
     0
 42
0.0000000001
 43
0.0000000001
 40
0.0
 40
0.0
 40
0.0
 40
0.0
 40
1.0
 40
1.0
 40
1.0
 40
2.0
 40
2.0
 40
2.0
 40
3.0
 40
3.0
 40
3.0
 40
4.0
 40
4.0
 40
4.0
 40
5.0
 40
5.0
 40
5.0
 40
6.0
 40
6.0
 40
6.0
 40
7.0
 40
7.0
 40
7.0
 40
8.0
 40
8.0
 40
8.0
 40
9.0
 40
9.0
 40
9.0
 40
10.0
 40
10.0
 40
10.0
 40
11.0
 40
11.0
 40
11.0
 40
12.0
 40
12.0
 40
12.0
 40
13.0
 40
13.0
 40
13.0
 40
14.0
 40
14.0
 40
14.0
 40
14.0
 10
23.53449631396368
 20
28.4695988522438
 30
0.0
 10
23.53449631396368
 20
28.4695988522438
 30
0.0
 10
23.53449631396368
 20
28.16815279842215
 30
0.0
 10
23.53449631396368
 20
28.16815279842215
 30
0.0
 10
23.53449631396368
 20
28.16815279842215
 30
0.0
 10
22.89956479717134
 20
28.16815279842215
 30
0.0
 10
22.89956479717134
 20
28.16815279842215
 30
0.0
 10
22.89956479717134
 20
28.16815279842215
 30
0.0
 10
22.85012764434459
 20
27.80262792630242
 30
0.0
 10
22.85012764434459
 20
27.80262792630242
 30
0.0
 10
22.88475087681211
 20
27.80745106316357
 30
0.0
 10
22.91437871753058
 20
27.80986263159414
 30
0.0
 10
22.95399734174714
 20
27.80986263159414
 30
0.0
 10
23.28007584453821
 20
27.80986263159414
 30
0.0
 10
23.5865172901089
 20
27.62727245042217
 30
0.0
 10
23.5865172901089
 20
27.22419601274065
 30
0.0
 10
23.5865172901089
 20
26.86625035568843
 30
0.0
 10
23.31211525368726
 20
26.5720390071585
 30
0.0
 10
22.87234852488345
 20
26.5720390071585
 30
0.0
 10
22.687174520393
 20
26.5720390071585
 30
0.0
 10
22.51905374980447
 20
26.61889233666678
 30
0.0
 10
22.42758640433059
 20
26.66850174438143
 30
0.0
 10
22.42758640433059
 20
26.66850174438143
 30
0.0
 10
22.49924443769619
 20
26.94514309434575
 30
0.0
 10
22.49924443769619
 20
26.94514309434575
 30
0.0
 10
22.57348629438027
 20
26.90552447012919
 30
0.0
 10
22.70939540093186
 20
26.85867114062092
 30
0.0
 10
22.85271146766306
 20
26.85867114062092
 30
0.0
 10
23.04288086390255
 20
26.85867114062092
 30
0.0
 10
23.2182363397828
 20
26.97959407192537
 30
0.0
 10
23.2182363397828
 20
27.19456817202218
 30
0.0
 10
23.2182363397828
 20
27.41953305561708
 30
0.0
 10
23.05269939251274
 20
27.54562363355848
 30
0.0
 10
22.73643941833186
 20
27.54562363355848
 30
0.0
 10
22.65255128792549
 20
27.54562363355848
 30
0.0
 10
22.5883002147395
 20
27.54045598692153
 30
0.0
 10
22.52646070998409
 20
27.53322128162981
 30
0.0
 10
22.52646070998409
 20
27.53322128162981
 30
0.0
 10
22.64014893599683
 20
28.4695988522438
 30
0.0
 10
22.64014893599683
 20
28.4695988522438
 30
0.0
 10
22.64014893599683
 20
28.4695988522438
 30
0.0
 10
23.53449631396368
 20
28.4695988522438
 30
0.0
 10
23.53449631396368
 20
28.4695988522438
 30
0.0
  0
HATCH
  5
458
330
453
100
AcDbEntity
  8
\U+30EC\U+30A4\U+30E4\U+30FC 1
 62
     7
100
AcDbHatch
 10
0.0
 20
0.0
 30
0.0
210
0.0
220
0.0
230
1.0
  2
SOLID
 70
     1
 71
     0
 91
        1
 92
        1
 93
        1
 72
     4
 94
        3
 73
     0
 74
     1
 95
       47
 96
       43
 40
0.0
 40
0.0
 40
0.0
 40
0.0
 40
1.0
 40
1.0
 40
1.0
 40
2.0
 40
2.0
 40
2.0
 40
3.0
 40
3.0
 40
3.0
 40
4.0
 40
4.0
 40
4.0
 40
5.0
 40
5.0
 40
5.0
 40
6.0
 40
6.0
 40
6.0
 40
7.0
 40
7.0
 40
7.0
 40
8.0
 40
8.0
 40
8.0
 40
9.0
 40
9.0
 40
9.0
 40
10.0
 40
10.0
 40
10.0
 40
11.0
 40
11.0
 40
11.0
 40
12.0
 40
12.0
 40
12.0
 40
13.0
 40
13.0
 40
13.0
 40
14.0
 40
14.0
 40
14.0
 40
14.0
 10
23.53449631396368
 20
28.4695988522438
 10
23.53449631396368
 20
28.4695988522438
 10
23.53449631396368
 20
28.16815279842215
 10
23.53449631396368
 20
28.16815279842215
 10
23.53449631396368
 20
28.16815279842215
 10
22.89956479717134
 20
28.16815279842215
 10
22.89956479717134
 20
28.16815279842215
 10
22.89956479717134
 20
28.16815279842215
 10
22.85012764434459
 20
27.80262792630242
 10
22.85012764434459
 20
27.80262792630242
 10
22.88475087681211
 20
27.80745106316357
 10
22.91437871753058
 20
27.80986263159414
 10
22.95399734174714
 20
27.80986263159414
 10
23.28007584453821
 20
27.80986263159414
 10
23.5865172901089
 20
27.62727245042217
 10
23.5865172901089
 20
27.22419601274065
 10
23.5865172901089
 20
26.86625035568843
 10
23.31211525368726
 20
26.5720390071585
 10
22.87234852488345
 20
26.5720390071585
 10
22.687174520393
 20
26.5720390071585
 10
22.51905374980447
 20
26.61889233666678
 10
22.42758640433059
 20
26.66850174438143
 10
22.42758640433059
 20
26.66850174438143
 10
22.49924443769619
 20
26.94514309434575
 10
22.49924443769619
 20
26.94514309434575
 10
22.57348629438027
 20
26.90552447012919
 10
22.70939540093186
 20
26.85867114062092
 10
22.85271146766306
 20
26.85867114062092
 10
23.04288086390255
 20
26.85867114062092
 10
23.2182363397828
 20
26.97959407192537
 10
23.2182363397828
 20
27.19456817202218
 10
23.2182363397828
 20
27.41953305561708
 10
23.05269939251274
 20
27.54562363355848
 10
22.73643941833186
 20
27.54562363355848
 10
22.65255128792549
 20
27.54562363355848
 10
22.5883002147395
 20
27.54045598692153
 10
22.52646070998409
 20
27.53322128162981
 10
22.52646070998409
 20
27.53322128162981
 10
22.64014893599683
 20
28.4695988522438
 10
22.64014893599683
 20
28.4695988522438
 10
22.64014893599683
 20
28.4695988522438
 10
23.53449631396368
 20
28.4695988522438
 10
23.53449631396368
 20
28.4695988522438
 97
        0
 75
     2
 76
     1
 98
        0
  0
SPLINE
  5
459
330
453
100
AcDbEntity
  8
\U+30EC\U+30A4\U+30E4\U+30FC 1
370
     0
100
AcDbSpline
210
0.0
220
0.0
230
1.0
 70
    11
 71
     3
 72
    35
 73
    31
 74
     0
 42
0.0000000001
 43
0.0000000001
 40
0.0
 40
0.0
 40
0.0
 40
0.0
 40
1.0
 40
1.0
 40
1.0
 40
2.0
 40
2.0
 40
2.0
 40
3.0
 40
3.0
 40
3.0
 40
4.0
 40
4.0
 40
4.0
 40
5.0
 40
5.0
 40
5.0
 40
6.0
 40
6.0
 40
6.0
 40
7.0
 40
7.0
 40
7.0
 40
8.0
 40
8.0
 40
8.0
 40
9.0
 40
9.0
 40
9.0
 40
10.0
 40
10.0
 40
10.0
 40
10.0
 10
24.14651793066558
 20
27.58007461113809
 30
0.0
 10
23.9735740232159
 20
27.67653734836102
 30
0.0
 10
23.88210667774202
 20
27.83225576702089
 30
0.0
 10
23.88210667774202
 20
27.99038575411133
 30
0.0
 10
23.88210667774202
 20
28.2990665132247
 30
0.0
 10
24.13669940205538
 20
28.4968151245317
 30
0.0
 10
24.46036633641589
 20
28.4968151245317
 30
0.0
 10
24.83088660028466
 20
28.4968151245317
 30
0.0
 10
25.00641433105281
 20
28.26220396721451
 30
0.0
 10
25.00641433105281
 20
28.02724830012152
 30
0.0
 10
25.00641433105281
 20
27.8766975280986
 30
0.0
 10
24.92235394575855
 20
27.71098832594064
 30
0.0
 10
24.73218454951907
 20
27.60729088342599
 30
0.0
 10
24.73218454951907
 20
27.60729088342599
 30
0.0
 10
24.73218454951907
 20
27.60246774656484
 30
0.0
 10
24.73218454951907
 20
27.60246774656484
 30
0.0
 10
24.91494698557893
 20
27.51840736127058
 30
0.0
 10
25.06567001248975
 20
27.35786580574957
 30
0.0
 10
25.06567001248975
 20
27.12566621686295
 30
0.0
 10
25.06567001248975
 20
26.79183624411646
 30
0.0
 10
24.80384258288467
 20
26.5720390071585
 30
0.0
 10
24.43315006412799
 20
26.5720390071585
 30
0.0
 10
24.03541352797131
 20
26.5720390071585
 30
0.0
 10
23.82285099630507
 20
26.81664094797378
 30
0.0
 10
23.82285099630507
 20
27.08363602421581
 30
0.0
 10
23.82285099630507
 20
27.31342404467186
 30
0.0
 10
23.95876010285667
 20
27.47878873705402
 30
0.0
 10
24.14651793066558
 20
27.57283990584637
 30
0.0
 10
24.14651793066558
 20
27.57283990584637
 30
0.0
 10
24.14651793066558
 20
27.58007461113809
 30
0.0
 10
24.14651793066558
 20
27.58007461113809
 30
0.0
  0
SPLINE
  5
45A
330
453
100
AcDbEntity
  8
\U+30EC\U+30A4\U+30E4\U+30FC 1
370
     0
100
AcDbSpline
210
0.0
220
0.0
230
1.0
 70
    11
 71
     3
 72
    17
 73
    13
 74
     0
 42
0.0000000001
 43
0.0000000001
 40
0.0
 40
0.0
 40
0.0
 40
0.0
 40
1.0
 40
1.0
 40
1.0
 40
2.0
 40
2.0
 40
2.0
 40
3.0
 40
3.0
 40
3.0
 40
4.0
 40
4.0
 40
4.0
 40
4.0
 10
24.69997288548212
 20
27.09603837614448
 30
0.0
 10
24.69997288548212
 20
27.27862855731644
 30
0.0
 10
24.5764661308592
 20
27.39472835175975
 30
0.0
 10
24.41334075201971
 20
27.44916089633555
 30
0.0
 10
24.27260850860698
 20
27.39748442996612
 30
0.0
 10
24.18854812331271
 20
27.26622620538778
 30
0.0
 10
24.18854812331271
 20
27.11808700179543
 30
0.0
 10
24.18854812331271
 20
26.95995701470499
 30
0.0
 10
24.28483860564774
 20
26.82146408483493
 30
0.0
 10
24.44296859273818
 20
26.82146408483493
 30
0.0
 10
24.60850554000824
 20
26.82146408483493
 30
0.0
 10
24.69997288548212
 20
26.9499662312069
 30
0.0
 10
24.69997288548212
 20
27.09603837614448
 30
0.0
  0
SPLINE
  5
45B
330
453
100
AcDbEntity
  8
\U+30EC\U+30A4\U+30E4\U+30FC 1
370
     0
100
AcDbSpline
210
0.0
220
0.0
230
1.0
 70
    11
 71
     3
 72
    17
 73
    13
 74
     0
 42
0.0000000001
 43
0.0000000001
 40
0.0
 40
0.0
 40
0.0
 40
0.0
 40
1.0
 40
1.0
 40
1.0
 40
2.0
 40
2.0
 40
2.0
 40
3.0
 40
3.0
 40
3.0
 40
4.0
 40
4.0
 40
4.0
 40
4.0
 10
24.2255829242108
 20
28.00761124290114
 30
0.0
 10
24.2255829242108
 20
27.86429517616993
 30
0.0
 10
24.32945262161334
 20
27.76542087051643
 30
0.0
 10
24.47518025677512
 20
27.71098832594064
 30
0.0
 10
24.57887769928977
 20
27.75301851858777
 30
0.0
 10
24.66534965301461
 20
27.86911831303108
 30
0.0
 10
24.66534965301461
 20
27.99520889097248
 30
0.0
 10
24.66534965301461
 20
28.12371103734445
 30
0.0
 10
24.60368240314709
 20
28.25221318371642
 30
0.0
 10
24.44796398448722
 20
28.25221318371642
 30
0.0
 10
24.28742242896621
 20
28.25221318371642
 30
0.0
 10
24.2255829242108
 20
28.12612260577502
 30
0.0
 10
24.2255829242108
 20
28.00761124290114
 30
0.0
  0
HATCH
  5
45C
330
453
100
AcDbEntity
  8
\U+30EC\U+30A4\U+30E4\U+30FC 1
 62
     7
100
AcDbHatch
 10
0.0
 20
0.0
 30
0.0
210
0.0
220
0.0
230
1.0
  2
SOLID
 70
     1
 71
     0
 91
        3
 92
        1
 93
        1
 72
     4
 94
        3
 73
     0
 74
     1
 95
       35
 96
       31
 40
0.0
 40
0.0
 40
0.0
 40
0.0
 40
1.0
 40
1.0
 40
1.0
 40
2.0
 40
2.0
 40
2.0
 40
3.0
 40
3.0
 40
3.0
 40
4.0
 40
4.0
 40
4.0
 40
5.0
 40
5.0
 40
5.0
 40
6.0
 40
6.0
 40
6.0
 40
7.0
 40
7.0
 40
7.0
 40
8.0
 40
8.0
 40
8.0
 40
9.0
 40
9.0
 40
9.0
 40
10.0
 40
10.0
 40
10.0
 40
10.0
 10
24.14651793066558
 20
27.58007461113809
 10
23.9735740232159
 20
27.67653734836102
 10
23.88210667774202
 20
27.83225576702089
 10
23.88210667774202
 20
27.99038575411133
 10
23.88210667774202
 20
28.2990665132247
 10
24.13669940205538
 20
28.4968151245317
 10
24.46036633641589
 20
28.4968151245317
 10
24.83088660028466
 20
28.4968151245317
 10
25.00641433105281
 20
28.26220396721451
 10
25.00641433105281
 20
28.02724830012152
 10
25.00641433105281
 20
27.8766975280986
 10
24.92235394575855
 20
27.71098832594064
 10
24.73218454951907
 20
27.60729088342599
 10
24.73218454951907
 20
27.60729088342599
 10
24.73218454951907
 20
27.60246774656484
 10
24.73218454951907
 20
27.60246774656484
 10
24.91494698557893
 20
27.51840736127058
 10
25.06567001248975
 20
27.35786580574957
 10
25.06567001248975
 20
27.12566621686295
 10
25.06567001248975
 20
26.79183624411646
 10
24.80384258288467
 20
26.5720390071585
 10
24.43315006412799
 20
26.5720390071585
 10
24.03541352797131
 20
26.5720390071585
 10
23.82285099630507
 20
26.81664094797378
 10
23.82285099630507
 20
27.08363602421581
 10
23.82285099630507
 20
27.31342404467186
 10
23.95876010285667
 20
27.47878873705402
 10
24.14651793066558
 20
27.57283990584637
 10
24.14651793066558
 20
27.57283990584637
 10
24.14651793066558
 20
27.58007461113809
 10
24.14651793066558
 20
27.58007461113809
 97
        0
 92
        1
 93
        1
 72
     4
 94
        3
 73
     0
 74
     1
 95
       17
 96
       13
 40
0.0
 40
0.0
 40
0.0
 40
0.0
 40
1.0
 40
1.0
 40
1.0
 40
2.0
 40
2.0
 40
2.0
 40
3.0
 40
3.0
 40
3.0
 40
4.0
 40
4.0
 40
4.0
 40
4.0
 10
24.69997288548212
 20
27.09603837614448
 10
24.69997288548212
 20
27.27862855731644
 10
24.5764661308592
 20
27.39472835175975
 10
24.41334075201971
 20
27.44916089633555
 10
24.27260850860698
 20
27.39748442996612
 10
24.18854812331271
 20
27.26622620538778
 10
24.18854812331271
 20
27.11808700179543
 10
24.18854812331271
 20
26.95995701470499
 10
24.28483860564774
 20
26.82146408483493
 10
24.44296859273818
 20
26.82146408483493
 10
24.60850554000824
 20
26.82146408483493
 10
24.69997288548212
 20
26.9499662312069
 10
24.69997288548212
 20
27.09603837614448
 97
        0
 92
        1
 93
        1
 72
     4
 94
        3
 73
     0
 74
     1
 95
       17
 96
       13
 40
0.0
 40
0.0
 40
0.0
 40
0.0
 40
1.0
 40
1.0
 40
1.0
 40
2.0
 40
2.0
 40
2.0
 40
3.0
 40
3.0
 40
3.0
 40
4.0
 40
4.0
 40
4.0
 40
4.0
 10
24.2255829242108
 20
28.00761124290114
 10
24.2255829242108
 20
27.86429517616993
 10
24.32945262161334
 20
27.76542087051643
 10
24.47518025677512
 20
27.71098832594064
 10
24.57887769928977
 20
27.75301851858777
 10
24.66534965301461
 20
27.86911831303108
 10
24.66534965301461
 20
27.99520889097248
 10
24.66534965301461
 20
28.12371103734445
 10
24.60368240314709
 20
28.25221318371642
 10
24.44796398448722
 20
28.25221318371642
 10
24.28742242896621
 20
28.25221318371642
 10
24.2255829242108
 20
28.12612260577502
 10
24.2255829242108
 20
28.00761124290114
 97
        0
 75
     2
 76
     1
 98
        0
  0
SPLINE
  5
45D
330
453
100
AcDbEntity
  8
\U+30EC\U+30A4\U+30E4\U+30FC 1
370
     0
100
AcDbSpline
210
0.0
220
0.0
230
1.0
 70
    11
 71
     3
 72
    47
 73
    43
 74
     0
 42
0.0000000001
 43
0.0000000001
 40
0.0
 40
0.0
 40
0.0
 40
0.0
 40
1.0
 40
1.0
 40
1.0
 40
2.0
 40
2.0
 40
2.0
 40
3.0
 40
3.0
 40
3.0
 40
4.0
 40
4.0
 40
4.0
 40
5.0
 40
5.0
 40
5.0
 40
6.0
 40
6.0
 40
6.0
 40
7.0
 40
7.0
 40
7.0
 40
8.0
 40
8.0
 40
8.0
 40
9.0
 40
9.0
 40
9.0
 40
10.0
 40
10.0
 40
10.0
 40
11.0
 40
11.0
 40
11.0
 40
12.0
 40
12.0
 40
12.0
 40
13.0
 40
13.0
 40
13.0
 40
14.0
 40
14.0
 40
14.0
 40
14.0
 10
26.35947647549227
 20
28.4695988522438
 30
0.0
 10
26.35947647549227
 20
28.4695988522438
 30
0.0
 10
26.35947647549227
 20
28.16815279842215
 30
0.0
 10
26.35947647549227
 20
28.16815279842215
 30
0.0
 10
26.35947647549227
 20
28.16815279842215
 30
0.0
 10
25.72454495869993
 20
28.16815279842215
 30
0.0
 10
25.72454495869993
 20
28.16815279842215
 30
0.0
 10
25.72454495869993
 20
28.16815279842215
 30
0.0
 10
25.67510780587318
 20
27.80262792630242
 30
0.0
 10
25.67510780587318
 20
27.80262792630242
 30
0.0
 10
25.70973103834069
 20
27.80745106316357
 30
0.0
 10
25.73935887905916
 20
27.80986263159414
 30
0.0
 10
25.77897750327572
 20
27.80986263159414
 30
0.0
 10
26.1050560060668
 20
27.80986263159414
 30
0.0
 10
26.41149745163749
 20
27.62727245042217
 30
0.0
 10
26.41149745163749
 20
27.22419601274065
 30
0.0
 10
26.41149745163749
 20
26.86625035568843
 30
0.0
 10
26.13709541521584
 20
26.5720390071585
 30
0.0
 10
25.69732868641203
 20
26.5720390071585
 30
0.0
 10
25.51215468192159
 20
26.5720390071585
 30
0.0
 10
25.34403391133306
 20
26.61889233666678
 30
0.0
 10
25.25256656585918
 20
26.66850174438143
 30
0.0
 10
25.25256656585918
 20
26.66850174438143
 30
0.0
 10
25.32422459922478
 20
26.94514309434575
 30
0.0
 10
25.32422459922478
 20
26.94514309434575
 30
0.0
 10
25.39846645590885
 20
26.90552447012919
 30
0.0
 10
25.53437556246044
 20
26.85867114062092
 30
0.0
 10
25.67769162919165
 20
26.85867114062092
 30
0.0
 10
25.86786102543113
 20
26.85867114062092
 30
0.0
 10
26.04321650131138
 20
26.97959407192537
 30
0.0
 10
26.04321650131138
 20
27.19456817202218
 30
0.0
 10
26.04321650131138
 20
27.41953305561708
 30
0.0
 10
25.87767955404133
 20
27.54562363355848
 30
0.0
 10
25.56141957986044
 20
27.54562363355848
 30
0.0
 10
25.47753144945407
 20
27.54562363355848
 30
0.0
 10
25.41328037626809
 20
27.54045598692153
 30
0.0
 10
25.35144087151268
 20
27.53322128162981
 30
0.0
 10
25.35144087151268
 20
27.53322128162981
 30
0.0
 10
25.46512909752541
 20
28.4695988522438
 30
0.0
 10
25.46512909752541
 20
28.4695988522438
 30
0.0
 10
25.46512909752541
 20
28.4695988522438
 30
0.0
 10
26.35947647549227
 20
28.4695988522438
 30
0.0
 10
26.35947647549227
 20
28.4695988522438
 30
0.0
  0
HATCH
  5
45E
330
453
100
AcDbEntity
  8
\U+30EC\U+30A4\U+30E4\U+30FC 1
 62
     7
100
AcDbHatch
 10
0.0
 20
0.0
 30
0.0
210
0.0
220
0.0
230
1.0
  2
SOLID
 70
     1
 71
     0
 91
        1
 92
        1
 93
        1
 72
     4
 94
        3
 73
     0
 74
     1
 95
       47
 96
       43
 40
0.0
 40
0.0
 40
0.0
 40
0.0
 40
1.0
 40
1.0
 40
1.0
 40
2.0
 40
2.0
 40
2.0
 40
3.0
 40
3.0
 40
3.0
 40
4.0
 40
4.0
 40
4.0
 40
5.0
 40
5.0
 40
5.0
 40
6.0
 40
6.0
 40
6.0
 40
7.0
 40
7.0
 40
7.0
 40
8.0
 40
8.0
 40
8.0
 40
9.0
 40
9.0
 40
9.0
 40
10.0
 40
10.0
 40
10.0
 40
11.0
 40
11.0
 40
11.0
 40
12.0
 40
12.0
 40
12.0
 40
13.0
 40
13.0
 40
13.0
 40
14.0
 40
14.0
 40
14.0
 40
14.0
 10
26.35947647549227
 20
28.4695988522438
 10
26.35947647549227
 20
28.4695988522438
 10
26.35947647549227
 20
28.16815279842215
 10
26.35947647549227
 20
28.16815279842215
 10
26.35947647549227
 20
28.16815279842215
 10
25.72454495869993
 20
28.16815279842215
 10
25.72454495869993
 20
28.16815279842215
 10
25.72454495869993
 20
28.16815279842215
 10
25.67510780587318
 20
27.80262792630242
 10
25.67510780587318
 20
27.80262792630242
 10
25.70973103834069
 20
27.80745106316357
 10
25.73935887905916
 20
27.80986263159414
 10
25.77897750327572
 20
27.80986263159414
 10
26.1050560060668
 20
27.80986263159414
 10
26.41149745163749
 20
27.62727245042217
 10
26.41149745163749
 20
27.22419601274065
 10
26.41149745163749
 20
26.86625035568843
 10
26.13709541521584
 20
26.5720390071585
 10
25.69732868641203
 20
26.5720390071585
 10
25.51215468192159
 20
26.5720390071585
 10
25.34403391133306
 20
26.61889233666678
 10
25.25256656585918
 20
26.66850174438143
 10
25.25256656585918
 20
26.66850174438143
 10
25.32422459922478
 20
26.94514309434575
 10
25.32422459922478
 20
26.94514309434575
 10
25.39846645590885
 20
26.90552447012919
 10
25.53437556246044
 20
26.85867114062092
 10
25.67769162919165
 20
26.85867114062092
 10
25.86786102543113
 20
26.85867114062092
 10
26.04321650131138
 20
26.97959407192537
 10
26.04321650131138
 20
27.19456817202218
 10
26.04321650131138
 20
27.41953305561708
 10
25.87767955404133
 20
27.54562363355848
 10
25.56141957986044
 20
27.54562363355848
 10
25.47753144945407
 20
27.54562363355848
 10
25.41328037626809
 20
27.54045598692153
 10
25.35144087151268
 20
27.53322128162981
 10
25.35144087151268
 20
27.53322128162981
 10
25.46512909752541
 20
28.4695988522438
 10
25.46512909752541
 20
28.4695988522438
 10
25.46512909752541
 20
28.4695988522438
 10
26.35947647549227
 20
28.4695988522438
 10
26.35947647549227
 20
28.4695988522438
 97
        0
 75
     2
 76
     1
 98
        0
  0
ENDBLK
  5
456
330
453
100
AcDbEntity
  8
0
100
AcDbBlockEnd
  0
BLOCK
  5
47F
330
47D
100
AcDbEntity
  8
0
100
AcDbBlockBegin
  2
block 6
 70
     0
 71
     0
 10
0.0
 20
0.0
 30
0.0
  3
block 6
  1

  0
INSERT
  5
482
330
47D
100
AcDbEntity
  8
\U+30EC\U+30A4\U+30E4\U+30FC 1
100
AcDbBlockReference
  2
block 7
 10
0.0
 20
0.0
 30
0.0
  0
POLYLINE
  5
489
330
47D
100
AcDbEntity
  8
\U+30EC\U+30A4\U+30E4\U+30FC 1
 62
     7
370
    18
100
AcDb2dPolyline
 66
     1
 10
0.0
 20
0.0
 30
0.0
  0
VERTEX
  5
48A
330
489
100
AcDbEntity
  8
\U+30EC\U+30A4\U+30E4\U+30FC 1
 62
     7
370
    18
100
AcDbVertex
100
AcDb2dVertex
 10
47.51375474848022
 20
43.4871244889746
 30
0.0
  0
VERTEX
  5
48B
330
489
100
AcDbEntity
  8
\U+30EC\U+30A4\U+30E4\U+30FC 1
 62
     7
370
    18
100
AcDbVertex
100
AcDb2dVertex
 10
49.14190794889291
 20
43.4871244889746
 30
0.0
  0
SEQEND
  5
48C
330
489
100
AcDbEntity
  8
\U+30EC\U+30A4\U+30E4\U+30FC 1
370
    18
  0
POLYLINE
  5
48D
330
47D
100
AcDbEntity
  8
\U+30EC\U+30A4\U+30E4\U+30FC 1
 62
     7
370
    18
100
AcDb2dPolyline
 66
     1
 10
0.0
 20
0.0
 30
0.0
  0
VERTEX
  5
48E
330
48D
100
AcDbEntity
  8
\U+30EC\U+30A4\U+30E4\U+30FC 1
 62
     7
370
    18
100
AcDbVertex
100
AcDb2dVertex
 10
47.51375474848022
 20
40.92207695328423
 30
0.0
  0
VERTEX
  5
48F
330
48D
100
AcDbEntity
  8
\U+30EC\U+30A4\U+30E4\U+30FC 1
 62
     7
370
    18
100
AcDbVertex
100
AcDb2dVertex
 10
49.14190794889291
 20
40.92207695328423
 30
0.0
  0
SEQEND
  5
490
330
48D
100
AcDbEntity
  8
\U+30EC\U+30A4\U+30E4\U+30FC 1
370
    18
  0
POLYLINE
  5
491
330
47D
100
AcDbEntity
  8
\U+30EC\U+30A4\U+30E4\U+30FC 1
 62
     7
370
    18
100
AcDb2dPolyline
 66
     1
 10
0.0
 20
0.0
 30
0.0
  0
VERTEX
  5
492
330
491
100
AcDbEntity
  8
\U+30EC\U+30A4\U+30E4\U+30FC 1
 62
     7
370
    18
100
AcDbVertex
100
AcDb2dVertex
 10
48.92004365328018
 20
43.4871244889746
 30
0.0
  0
VERTEX
  5
493
330
491
100
AcDbEntity
  8
\U+30EC\U+30A4\U+30E4\U+30FC 1
 62
     7
370
    18
100
AcDbVertex
100
AcDb2dVertex
 10
48.92004365328018
 20
42.20468684857336
 30
0.0
  0
SEQEND
  5
494
330
491
100
AcDbEntity
  8
\U+30EC\U+30A4\U+30E4\U+30FC 1
370
    18
  0
POLYLINE
  5
495
330
47D
100
AcDbEntity
  8
\U+30EC\U+30A4\U+30E4\U+30FC 1
 62
     7
370
    18
100
AcDb2dPolyline
 66
     1
 10
0.0
 20
0.0
 30
0.0
  0
VERTEX
  5
496
330
495
100
AcDbEntity
  8
\U+30EC\U+30A4\U+30E4\U+30FC 1
 62
     7
370
    18
100
AcDbVertex
100
AcDb2dVertex
 10
48.92004365328018
 20
36.9671047271442
 30
0.0
  0
VERTEX
  5
497
330
495
100
AcDbEntity
  8
\U+30EC\U+30A4\U+30E4\U+30FC 1
 62
     7
370
    18
100
AcDbVertex
100
AcDb2dVertex
 10
48.92004365328018
 20
42.20468684857336
 30
0.0
  0
SEQEND
  5
498
330
495
100
AcDbEntity
  8
\U+30EC\U+30A4\U+30E4\U+30FC 1
370
    18
  0
POLYLINE
  5
499
330
47D
100
AcDbEntity
  8
\U+30EC\U+30A4\U+30E4\U+30FC 1
370
     0
100
AcDb2dPolyline
 66
     1
 10
0.0
 20
0.0
 30
0.0
  0
VERTEX
  5
49A
330
499
100
AcDbEntity
  8
\U+30EC\U+30A4\U+30E4\U+30FC 1
370
     0
100
AcDbVertex
100
AcDb2dVertex
 10
48.99790286261011
 20
43.04305138797334
 30
0.0
  0
VERTEX
  5
49B
330
499
100
AcDbEntity
  8
\U+30EC\U+30A4\U+30E4\U+30FC 1
370
     0
100
AcDbVertex
100
AcDb2dVertex
 10
48.92004365328018
 20
43.4871244889746
 30
0.0
  0
VERTEX
  5
49C
330
499
100
AcDbEntity
  8
\U+30EC\U+30A4\U+30E4\U+30FC 1
370
     0
100
AcDbVertex
100
AcDb2dVertex
 10
48.84218444395025
 20
43.04305138797334
 30
0.0
  0
VERTEX
  5
49D
330
499
100
AcDbEntity
  8
\U+30EC\U+30A4\U+30E4\U+30FC 1
370
     0
100
AcDbVertex
100
AcDb2dVertex
 10
48.99790286261011
 20
43.04305138797334
 30
0.0
  0
SEQEND
  5
49E
330
499
100
AcDbEntity
  8
\U+30EC\U+30A4\U+30E4\U+30FC 1
370
     0
  0
HATCH
  5
49F
330
47D
100
AcDbEntity
  8
\U+30EC\U+30A4\U+30E4\U+30FC 1
 62
     7
100
AcDbHatch
 10
0.0
 20
0.0
 30
0.0
210
0.0
220
0.0
230
1.0
  2
SOLID
 70
     1
 71
     0
 91
        1
 92
        1
 93
        3
 72
     1
 10
48.99790286261011
 20
43.04305138797334
 11
48.92004365328018
 21
43.4871244889746
 72
     1
 10
48.92004365328018
 20
43.4871244889746
 11
48.84218444395025
 21
43.04305138797334
 72
     1
 10
48.84218444395025
 20
43.04305138797334
 11
48.99790286261011
 21
43.04305138797334
 97
        0
 75
     2
 76
     1
 98
        0
  0
POLYLINE
  5
4A0
330
47D
100
AcDbEntity
  8
\U+30EC\U+30A4\U+30E4\U+30FC 1
370
     0
100
AcDb2dPolyline
 66
     1
 10
0.0
 20
0.0
 30
0.0
  0
VERTEX
  5
4A1
330
4A0
100
AcDbEntity
  8
\U+30EC\U+30A4\U+30E4\U+30FC 1
370
     0
100
AcDbVertex
100
AcDb2dVertex
 10
48.84218444395025
 20
41.36649456406128
 30
0.0
  0
VERTEX
  5
4A2
330
4A0
100
AcDbEntity
  8
\U+30EC\U+30A4\U+30E4\U+30FC 1
370
     0
100
AcDbVertex
100
AcDb2dVertex
 10
48.92004365328018
 20
40.92207695328423
 30
0.0
  0
VERTEX
  5
4A3
330
4A0
100
AcDbEntity
  8
\U+30EC\U+30A4\U+30E4\U+30FC 1
370
     0
100
AcDbVertex
100
AcDb2dVertex
 10
48.99790286261011
 20
41.36649456406128
 30
0.0
  0
VERTEX
  5
4A4
330
4A0
100
AcDbEntity
  8
\U+30EC\U+30A4\U+30E4\U+30FC 1
370
     0
100
AcDbVertex
100
AcDb2dVertex
 10
48.84218444395025
 20
41.36649456406128
 30
0.0
  0
SEQEND
  5
4A5
330
4A0
100
AcDbEntity
  8
\U+30EC\U+30A4\U+30E4\U+30FC 1
370
     0
  0
HATCH
  5
4A6
330
47D
100
AcDbEntity
  8
\U+30EC\U+30A4\U+30E4\U+30FC 1
 62
     7
100
AcDbHatch
 10
0.0
 20
0.0
 30
0.0
210
0.0
220
0.0
230
1.0
  2
SOLID
 70
     1
 71
     0
 91
        1
 92
        1
 93
        3
 72
     1
 10
48.84218444395025
 20
41.36649456406128
 11
48.92004365328018
 21
40.92207695328423
 72
     1
 10
48.92004365328018
 20
40.92207695328423
 11
48.99790286261011
 21
41.36649456406128
 72
     1
 10
48.99790286261011
 20
41.36649456406128
 11
48.84218444395025
 21
41.36649456406128
 97
        0
 75
     2
 76
     1
 98
        0
  0
ENDBLK
  5
480
330
47D
100
AcDbEntity
  8
0
100
AcDbBlockEnd
  0
BLOCK
  5
483
330
481
100
AcDbEntity
  8
0
100
AcDbBlockBegin
  2
block 7
 70
     0
 71
     0
 10
0.0
 20
0.0
 30
0.0
  3
block 7
  1

  0
SPLINE
  5
485
330
481
100
AcDbEntity
  8
\U+30EC\U+30A4\U+30E4\U+30FC 1
370
     0
100
AcDbSpline
210
0.0
220
0.0
230
1.0
 70
    11
 71
     3
 72
    59
 73
    55
 74
     0
 42
0.0000000001
 43
0.0000000001
 40
0.0
 40
0.0
 40
0.0
 40
0.0
 40
1.0
 40
1.0
 40
1.0
 40
2.0
 40
2.0
 40
2.0
 40
3.0
 40
3.0
 40
3.0
 40
4.0
 40
4.0
 40
4.0
 40
5.0
 40
5.0
 40
5.0
 40
6.0
 40
6.0
 40
6.0
 40
7.0
 40
7.0
 40
7.0
 40
8.0
 40
8.0
 40
8.0
 40
9.0
 40
9.0
 40
9.0
 40
10.0
 40
10.0
 40
10.0
 40
11.0
 40
11.0
 40
11.0
 40
12.0
 40
12.0
 40
12.0
 40
13.0
 40
13.0
 40
13.0
 40
14.0
 40
14.0
 40
14.0
 40
15.0
 40
15.0
 40
15.0
 40
16.0
 40
16.0
 40
16.0
 40
17.0
 40
17.0
 40
17.0
 40
18.0
 40
18.0
 40
18.0
 40
18.0
 10
47.53890396211334
 20
38.3079367745429
 30
0.0
 10
47.58575729162162
 20
38.51550391446008
 30
0.0
 10
47.75387806221015
 20
38.68844782190976
 30
0.0
 10
48.00812627674772
 20
38.68844782190976
 30
0.0
 10
48.31956311406746
 20
38.68844782190976
 30
0.0
 10
48.57174426995025
 20
38.43885048934543
 30
0.0
 10
48.57174426995025
 20
38.00390689740277
 30
0.0
 10
48.57174426995025
 20
37.80633054098367
 30
0.0
 10
48.51937878402924
 20
37.62839124178495
 30
0.0
 10
48.45805604393752
 20
37.53451232788049
 30
0.0
 10
48.45805604393752
 20
37.53451232788049
 30
0.0
 10
48.1810701841974
 20
37.61598888985629
 30
0.0
 10
48.1810701841974
 20
37.61598888985629
 30
0.0
 10
48.2258564550509
 20
37.68523535479132
 30
0.0
 10
48.28235605828147
 20
37.83595838170214
 30
0.0
 10
48.28235605828147
 20
37.97927444843335
 30
0.0
 10
48.28235605828147
 20
38.20406707714035
 30
0.0
 10
48.14386312841141
 20
38.31534373472251
 30
0.0
 10
47.99090078795791
 20
38.31534373472251
 30
0.0
 10
47.78074982472225
 20
38.31534373472251
 30
0.0
 10
47.68222002884455
 20
38.13240904377474
 30
0.0
 10
47.68222002884455
 20
37.93224886403717
 30
0.0
 10
47.68222002884455
 20
37.93224886403717
 30
0.0
 10
47.68222002884455
 20
37.80633054098367
 30
0.0
 10
47.68222002884455
 20
37.80633054098367
 30
0.0
 10
47.68222002884455
 20
37.80633054098367
 30
0.0
 10
47.4252157361006
 20
37.80633054098367
 30
0.0
 10
47.4252157361006
 20
37.80633054098367
 30
0.0
 10
47.4252157361006
 20
37.80633054098367
 30
0.0
 10
47.4252157361006
 20
37.92484190385755
 30
0.0
 10
47.4252157361006
 20
37.92484190385755
 30
0.0
 10
47.4252157361006
 20
38.07074179390723
 30
0.0
 10
47.34322240946111
 20
38.25849962171614
 30
0.0
 10
47.16338830649551
 20
38.25849962171614
 30
0.0
 10
47.03247459169297
 20
38.25849962171614
 30
0.0
 10
46.93601185447005
 20
38.1720276679913
 30
0.0
 10
46.93601185447005
 20
37.99908376054163
 30
0.0
 10
46.93601185447005
 20
37.87058161416966
 30
0.0
 10
46.99251145770062
 20
37.74449103622826
 30
0.0
 10
47.03729772855412
 20
37.67283300286265
 30
0.0
 10
47.03729772855412
 20
37.67283300286265
 30
0.0
 10
46.77547029894903
 20
37.5963518326359
 30
0.0
 10
46.77547029894903
 20
37.5963518326359
 30
0.0
 10
46.71070246109935
 20
37.69264231497093
 30
0.0
 10
46.64662364280126
 20
37.88298396609832
 30
0.0
 10
46.64662364280126
 20
38.082971890948
 30
0.0
 10
46.64662364280126
 20
38.44126205777601
 30
0.0
 10
46.85677460603692
 20
38.62901988558492
 30
0.0
 10
47.10413262505858
 20
38.62901988558492
 30
0.0
 10
47.29636907995284
 20
38.62901988558492
 30
0.0
 10
47.45691063547385
 20
38.51292009114162
 30
0.0
 10
47.53408082525219
 20
38.3079367745429
 30
0.0
 10
47.53408082525219
 20
38.3079367745429
 30
0.0
 10
47.53890396211334
 20
38.3079367745429
 30
0.0
 10
47.53890396211334
 20
38.3079367745429
 30
0.0
  0
HATCH
  5
486
330
481
100
AcDbEntity
  8
\U+30EC\U+30A4\U+30E4\U+30FC 1
 62
     7
100
AcDbHatch
 10
0.0
 20
0.0
 30
0.0
210
0.0
220
0.0
230
1.0
  2
SOLID
 70
     1
 71
     0
 91
        1
 92
        1
 93
        1
 72
     4
 94
        3
 73
     0
 74
     1
 95
       59
 96
       55
 40
0.0
 40
0.0
 40
0.0
 40
0.0
 40
1.0
 40
1.0
 40
1.0
 40
2.0
 40
2.0
 40
2.0
 40
3.0
 40
3.0
 40
3.0
 40
4.0
 40
4.0
 40
4.0
 40
5.0
 40
5.0
 40
5.0
 40
6.0
 40
6.0
 40
6.0
 40
7.0
 40
7.0
 40
7.0
 40
8.0
 40
8.0
 40
8.0
 40
9.0
 40
9.0
 40
9.0
 40
10.0
 40
10.0
 40
10.0
 40
11.0
 40
11.0
 40
11.0
 40
12.0
 40
12.0
 40
12.0
 40
13.0
 40
13.0
 40
13.0
 40
14.0
 40
14.0
 40
14.0
 40
15.0
 40
15.0
 40
15.0
 40
16.0
 40
16.0
 40
16.0
 40
17.0
 40
17.0
 40
17.0
 40
18.0
 40
18.0
 40
18.0
 40
18.0
 10
47.53890396211334
 20
38.3079367745429
 10
47.58575729162162
 20
38.51550391446008
 10
47.75387806221015
 20
38.68844782190976
 10
48.00812627674772
 20
38.68844782190976
 10
48.31956311406746
 20
38.68844782190976
 10
48.57174426995025
 20
38.43885048934543
 10
48.57174426995025
 20
38.00390689740277
 10
48.57174426995025
 20
37.80633054098367
 10
48.51937878402924
 20
37.62839124178495
 10
48.45805604393752
 20
37.53451232788049
 10
48.45805604393752
 20
37.53451232788049
 10
48.1810701841974
 20
37.61598888985629
 10
48.1810701841974
 20
37.61598888985629
 10
48.2258564550509
 20
37.68523535479132
 10
48.28235605828147
 20
37.83595838170214
 10
48.28235605828147
 20
37.97927444843335
 10
48.28235605828147
 20
38.20406707714035
 10
48.14386312841141
 20
38.31534373472251
 10
47.99090078795791
 20
38.31534373472251
 10
47.78074982472225
 20
38.31534373472251
 10
47.68222002884455
 20
38.13240904377474
 10
47.68222002884455
 20
37.93224886403717
 10
47.68222002884455
 20
37.93224886403717
 10
47.68222002884455
 20
37.80633054098367
 10
47.68222002884455
 20
37.80633054098367
 10
47.68222002884455
 20
37.80633054098367
 10
47.4252157361006
 20
37.80633054098367
 10
47.4252157361006
 20
37.80633054098367
 10
47.4252157361006
 20
37.80633054098367
 10
47.4252157361006
 20
37.92484190385755
 10
47.4252157361006
 20
37.92484190385755
 10
47.4252157361006
 20
38.07074179390723
 10
47.34322240946111
 20
38.25849962171614
 10
47.16338830649551
 20
38.25849962171614
 10
47.03247459169297
 20
38.25849962171614
 10
46.93601185447005
 20
38.1720276679913
 10
46.93601185447005
 20
37.99908376054163
 10
46.93601185447005
 20
37.87058161416966
 10
46.99251145770062
 20
37.74449103622826
 10
47.03729772855412
 20
37.67283300286265
 10
47.03729772855412
 20
37.67283300286265
 10
46.77547029894903
 20
37.5963518326359
 10
46.77547029894903
 20
37.5963518326359
 10
46.71070246109935
 20
37.69264231497093
 10
46.64662364280126
 20
37.88298396609832
 10
46.64662364280126
 20
38.082971890948
 10
46.64662364280126
 20
38.44126205777601
 10
46.85677460603692
 20
38.62901988558492
 10
47.10413262505858
 20
38.62901988558492
 10
47.29636907995284
 20
38.62901988558492
 10
47.45691063547385
 20
38.51292009114162
 10
47.53408082525219
 20
38.3079367745429
 10
47.53408082525219
 20
38.3079367745429
 10
47.53890396211334
 20
38.3079367745429
 10
47.53890396211334
 20
38.3079367745429
 97
        0
 75
     2
 76
     1
 98
        0
  0
SPLINE
  5
487
330
481
100
AcDbEntity
  8
\U+30EC\U+30A4\U+30E4\U+30FC 1
370
     0
100
AcDbSpline
210
0.0
220
0.0
230
1.0
 70
    11
 71
     3
 72
    47
 73
    43
 74
     0
 42
0.0000000001
 43
0.0000000001
 40
0.0
 40
0.0
 40
0.0
 40
0.0
 40
1.0
 40
1.0
 40
1.0
 40
2.0
 40
2.0
 40
2.0
 40
3.0
 40
3.0
 40
3.0
 40
4.0
 40
4.0
 40
4.0
 40
5.0
 40
5.0
 40
5.0
 40
6.0
 40
6.0
 40
6.0
 40
7.0
 40
7.0
 40
7.0
 40
8.0
 40
8.0
 40
8.0
 40
9.0
 40
9.0
 40
9.0
 40
10.0
 40
10.0
 40
10.0
 40
11.0
 40
11.0
 40
11.0
 40
12.0
 40
12.0
 40
12.0
 40
13.0
 40
13.0
 40
13.0
 40
14.0
 40
14.0
 40
14.0
 40
14.0
 10
46.67418442486495
 20
40.06373084688807
 30
0.0
 10
46.67418442486495
 20
40.06373084688807
 30
0.0
 10
46.9752859689108
 20
40.06373084688807
 30
0.0
 10
46.9752859689108
 20
40.06373084688807
 30
0.0
 10
46.9752859689108
 20
40.06373084688807
 30
0.0
 10
46.9752859689108
 20
39.42879933009573
 30
0.0
 10
46.9752859689108
 20
39.42879933009573
 30
0.0
 10
46.9752859689108
 20
39.42879933009573
 30
0.0
 10
47.34115535080634
 20
39.37936217726898
 30
0.0
 10
47.34115535080634
 20
39.37936217726898
 30
0.0
 10
47.33633221394519
 20
39.41398540973649
 30
0.0
 10
47.33357613573882
 20
39.44361325045497
 30
0.0
 10
47.33357613573882
 20
39.48323187467152
 30
0.0
 10
47.33357613573882
 20
39.80931037746259
 30
0.0
 10
47.51685533646238
 20
40.11575182303329
 30
0.0
 10
47.91924275459231
 20
40.11575182303329
 30
0.0
 10
48.27753292142032
 20
40.11575182303329
 30
0.0
 10
48.57174426995025
 20
39.84152204149954
 30
0.0
 10
48.57174426995025
 20
39.40158305780783
 30
0.0
 10
48.57174426995025
 20
39.21640905331739
 30
0.0
 10
48.52489094044198
 20
39.04828828272886
 30
0.0
 10
48.47528153272733
 20
38.95682093725497
 30
0.0
 10
48.47528153272733
 20
38.95682093725497
 30
0.0
 10
48.19829567298721
 20
39.02847897062058
 30
0.0
 10
48.19829567298721
 20
39.02847897062058
 30
0.0
 10
48.23825880697956
 20
39.10272082730465
 30
0.0
 10
48.28511213648784
 20
39.23862993385625
 30
0.0
 10
48.28511213648784
 20
39.38194600058745
 30
0.0
 10
48.28511213648784
 20
39.57211539682694
 30
0.0
 10
48.16384469540759
 20
39.74747087270718
 30
0.0
 10
47.94887059531078
 20
39.74747087270718
 30
0.0
 10
47.72425022149168
 20
39.74747087270718
 30
0.0
 10
47.59815964355028
 20
39.58193392543713
 30
0.0
 10
47.59815964355028
 20
39.26567395125624
 30
0.0
 10
47.59815964355028
 20
39.18178582084987
 30
0.0
 10
47.60298278041142
 20
39.11753474766389
 30
0.0
 10
47.61056199547894
 20
39.05569524290848
 30
0.0
 10
47.61056199547894
 20
39.05569524290848
 30
0.0
 10
46.67418442486495
 20
39.16938346892121
 30
0.0
 10
46.67418442486495
 20
39.16938346892121
 30
0.0
 10
46.67418442486495
 20
39.16938346892121
 30
0.0
 10
46.67418442486495
 20
40.06373084688807
 30
0.0
 10
46.67418442486495
 20
40.06373084688807
 30
0.0
  0
HATCH
  5
488
330
481
100
AcDbEntity
  8
\U+30EC\U+30A4\U+30E4\U+30FC 1
 62
     7
100
AcDbHatch
 10
0.0
 20
0.0
 30
0.0
210
0.0
220
0.0
230
1.0
  2
SOLID
 70
     1
 71
     0
 91
        1
 92
        1
 93
        1
 72
     4
 94
        3
 73
     0
 74
     1
 95
       47
 96
       43
 40
0.0
 40
0.0
 40
0.0
 40
0.0
 40
1.0
 40
1.0
 40
1.0
 40
2.0
 40
2.0
 40
2.0
 40
3.0
 40
3.0
 40
3.0
 40
4.0
 40
4.0
 40
4.0
 40
5.0
 40
5.0
 40
5.0
 40
6.0
 40
6.0
 40
6.0
 40
7.0
 40
7.0
 40
7.0
 40
8.0
 40
8.0
 40
8.0
 40
9.0
 40
9.0
 40
9.0
 40
10.0
 40
10.0
 40
10.0
 40
11.0
 40
11.0
 40
11.0
 40
12.0
 40
12.0
 40
12.0
 40
13.0
 40
13.0
 40
13.0
 40
14.0
 40
14.0
 40
14.0
 40
14.0
 10
46.67418442486495
 20
40.06373084688807
 10
46.67418442486495
 20
40.06373084688807
 10
46.9752859689108
 20
40.06373084688807
 10
46.9752859689108
 20
40.06373084688807
 10
46.9752859689108
 20
40.06373084688807
 10
46.9752859689108
 20
39.42879933009573
 10
46.9752859689108
 20
39.42879933009573
 10
46.9752859689108
 20
39.42879933009573
 10
47.34115535080634
 20
39.37936217726898
 10
47.34115535080634
 20
39.37936217726898
 10
47.33633221394519
 20
39.41398540973649
 10
47.33357613573882
 20
39.44361325045497
 10
47.33357613573882
 20
39.48323187467152
 10
47.33357613573882
 20
39.80931037746259
 10
47.51685533646238
 20
40.11575182303329
 10
47.91924275459231
 20
40.11575182303329
 10
48.27753292142032
 20
40.11575182303329
 10
48.57174426995025
 20
39.84152204149954
 10
48.57174426995025
 20
39.40158305780783
 10
48.57174426995025
 20
39.21640905331739
 10
48.52489094044198
 20
39.04828828272886
 10
48.47528153272733
 20
38.95682093725497
 10
48.47528153272733
 20
38.95682093725497
 10
48.19829567298721
 20
39.02847897062058
 10
48.19829567298721
 20
39.02847897062058
 10
48.23825880697956
 20
39.10272082730465
 10
48.28511213648784
 20
39.23862993385625
 10
48.28511213648784
 20
39.38194600058745
 10
48.28511213648784
 20
39.57211539682694
 10
48.16384469540759
 20
39.74747087270718
 10
47.94887059531078
 20
39.74747087270718
 10
47.72425022149168
 20
39.74747087270718
 10
47.59815964355028
 20
39.58193392543713
 10
47.59815964355028
 20
39.26567395125624
 10
47.59815964355028
 20
39.18178582084987
 10
47.60298278041142
 20
39.11753474766389
 10
47.61056199547894
 20
39.05569524290848
 10
47.61056199547894
 20
39.05569524290848
 10
46.67418442486495
 20
39.16938346892121
 10
46.67418442486495
 20
39.16938346892121
 10
46.67418442486495
 20
39.16938346892121
 10
46.67418442486495
 20
40.06373084688807
 10
46.67418442486495
 20
40.06373084688807
 97
        0
 75
     2
 76
     1
 98
        0
  0
ENDBLK
  5
484
330
481
100
AcDbEntity
  8
0
100
AcDbBlockEnd
  0
BLOCK
  5
4A9
330
4A7
100
AcDbEntity
  8
0
100
AcDbBlockBegin
  2
block 8
 70
     0
 71
     0
 10
0.0
 20
0.0
 30
0.0
  3
block 8
  1

  0
INSERT
  5
4AC
330
4A7
100
AcDbEntity
  8
\U+30EC\U+30A4\U+30E4\U+30FC 1
100
AcDbBlockReference
  2
block 9
 10
0.0
 20
0.0
 30
0.0
  0
POLYLINE
  5
4B4
330
4A7
100
AcDbEntity
  8
\U+30EC\U+30A4\U+30E4\U+30FC 1
 62
     7
370
    18
100
AcDb2dPolyline
 66
     1
 10
0.0
 20
0.0
 30
0.0
  0
VERTEX
  5
4B5
330
4B4
100
AcDbEntity
  8
\U+30EC\U+30A4\U+30E4\U+30FC 1
 62
     7
370
    18
100
AcDbVertex
100
AcDb2dVertex
 10
53.3428601549514
 20
40.14675770285494
 30
0.0
  0
VERTEX
  5
4B6
330
4B4
100
AcDbEntity
  8
\U+30EC\U+30A4\U+30E4\U+30FC 1
 62
     7
370
    18
100
AcDbVertex
100
AcDb2dVertex
 10
53.3428601549514
 20
37.44028890420024
 30
0.0
  0
SEQEND
  5
4B7
330
4B4
100
AcDbEntity
  8
\U+30EC\U+30A4\U+30E4\U+30FC 1
370
    18
  0
POLYLINE
  5
4B8
330
4A7
100
AcDbEntity
  8
\U+30EC\U+30A4\U+30E4\U+30FC 1
 62
     7
370
    18
100
AcDb2dPolyline
 66
     1
 10
0.0
 20
0.0
 30
0.0
  0
VERTEX
  5
4B9
330
4B8
100
AcDbEntity
  8
\U+30EC\U+30A4\U+30E4\U+30FC 1
 62
     7
370
    18
100
AcDbVertex
100
AcDb2dVertex
 10
58.10674133466082
 20
40.14675770285494
 30
0.0
  0
VERTEX
  5
4BA
330
4B8
100
AcDbEntity
  8
\U+30EC\U+30A4\U+30E4\U+30FC 1
 62
     7
370
    18
100
AcDbVertex
100
AcDb2dVertex
 10
58.10674133466082
 20
37.44028890420024
 30
0.0
  0
SEQEND
  5
4BB
330
4B8
100
AcDbEntity
  8
\U+30EC\U+30A4\U+30E4\U+30FC 1
370
    18
  0
POLYLINE
  5
4BC
330
4A7
100
AcDbEntity
  8
\U+30EC\U+30A4\U+30E4\U+30FC 1
 62
     7
370
    18
100
AcDb2dPolyline
 66
     1
 10
0.0
 20
0.0
 30
0.0
  0
VERTEX
  5
4BD
330
4BC
100
AcDbEntity
  8
\U+30EC\U+30A4\U+30E4\U+30FC 1
 62
     7
370
    18
100
AcDbVertex
100
AcDb2dVertex
 10
53.3428601549514
 20
37.66232545470087
 30
0.0
  0
VERTEX
  5
4BE
330
4BC
100
AcDbEntity
  8
\U+30EC\U+30A4\U+30E4\U+30FC 1
 62
     7
370
    18
100
AcDbVertex
100
AcDb2dVertex
 10
55.72411172525452
 20
37.66232545470087
 30
0.0
  0
SEQEND
  5
4BF
330
4BC
100
AcDbEntity
  8
\U+30EC\U+30A4\U+30E4\U+30FC 1
370
    18
  0
POLYLINE
  5
4C0
330
4A7
100
AcDbEntity
  8
\U+30EC\U+30A4\U+30E4\U+30FC 1
 62
     7
370
    18
100
AcDb2dPolyline
 66
     1
 10
0.0
 20
0.0
 30
0.0
  0
VERTEX
  5
4C1
330
4C0
100
AcDbEntity
  8
\U+30EC\U+30A4\U+30E4\U+30FC 1
 62
     7
370
    18
100
AcDbVertex
100
AcDb2dVertex
 10
58.10674133466082
 20
37.66232545470087
 30
0.0
  0
VERTEX
  5
4C2
330
4C0
100
AcDbEntity
  8
\U+30EC\U+30A4\U+30E4\U+30FC 1
 62
     7
370
    18
100
AcDbVertex
100
AcDb2dVertex
 10
55.72411172525452
 20
37.66232545470087
 30
0.0
  0
SEQEND
  5
4C3
330
4C0
100
AcDbEntity
  8
\U+30EC\U+30A4\U+30E4\U+30FC 1
370
    18
  0
POLYLINE
  5
4C4
330
4A7
100
AcDbEntity
  8
\U+30EC\U+30A4\U+30E4\U+30FC 1
370
     0
100
AcDb2dPolyline
 66
     1
 10
0.0
 20
0.0
 30
0.0
  0
VERTEX
  5
4C5
330
4C4
100
AcDbEntity
  8
\U+30EC\U+30A4\U+30E4\U+30FC 1
370
     0
100
AcDbVertex
100
AcDb2dVertex
 10
53.78727776572845
 20
37.74001240914291
 30
0.0
  0
VERTEX
  5
4C6
330
4C4
100
AcDbEntity
  8
\U+30EC\U+30A4\U+30E4\U+30FC 1
370
     0
100
AcDbVertex
100
AcDb2dVertex
 10
53.3428601549514
 20
37.66232545470087
 30
0.0
  0
VERTEX
  5
4C7
330
4C4
100
AcDbEntity
  8
\U+30EC\U+30A4\U+30E4\U+30FC 1
370
     0
100
AcDbVertex
100
AcDb2dVertex
 10
53.78727776572845
 20
37.58481075514673
 30
0.0
  0
VERTEX
  5
4C8
330
4C4
100
AcDbEntity
  8
\U+30EC\U+30A4\U+30E4\U+30FC 1
370
     0
100
AcDbVertex
100
AcDb2dVertex
 10
53.78727776572845
 20
37.74001240914291
 30
0.0
  0
SEQEND
  5
4C9
330
4C4
100
AcDbEntity
  8
\U+30EC\U+30A4\U+30E4\U+30FC 1
370
     0
  0
HATCH
  5
4CA
330
4A7
100
AcDbEntity
  8
\U+30EC\U+30A4\U+30E4\U+30FC 1
 62
     7
100
AcDbHatch
 10
0.0
 20
0.0
 30
0.0
210
0.0
220
0.0
230
1.0
  2
SOLID
 70
     1
 71
     0
 91
        1
 92
        1
 93
        3
 72
     1
 10
53.78727776572845
 20
37.74001240914291
 11
53.3428601549514
 21
37.66232545470087
 72
     1
 10
53.3428601549514
 20
37.66232545470087
 11
53.78727776572845
 21
37.58481075514673
 72
     1
 10
53.78727776572845
 20
37.58481075514673
 11
53.78727776572845
 21
37.74001240914291
 97
        0
 75
     2
 76
     1
 98
        0
  0
POLYLINE
  5
4CB
330
4A7
100
AcDbEntity
  8
\U+30EC\U+30A4\U+30E4\U+30FC 1
370
     0
100
AcDb2dPolyline
 66
     1
 10
0.0
 20
0.0
 30
0.0
  0
VERTEX
  5
4CC
330
4CB
100
AcDbEntity
  8
\U+30EC\U+30A4\U+30E4\U+30FC 1
370
     0
100
AcDbVertex
100
AcDb2dVertex
 10
57.66163470433217
 20
37.58481075514673
 30
0.0
  0
VERTEX
  5
4CD
330
4CB
100
AcDbEntity
  8
\U+30EC\U+30A4\U+30E4\U+30FC 1
370
     0
100
AcDbVertex
100
AcDb2dVertex
 10
58.10674133466082
 20
37.66232545470087
 30
0.0
  0
VERTEX
  5
4CE
330
4CB
100
AcDbEntity
  8
\U+30EC\U+30A4\U+30E4\U+30FC 1
370
     0
100
AcDbVertex
100
AcDb2dVertex
 10
57.66163470433217
 20
37.74001240914291
 30
0.0
  0
VERTEX
  5
4CF
330
4CB
100
AcDbEntity
  8
\U+30EC\U+30A4\U+30E4\U+30FC 1
370
     0
100
AcDbVertex
100
AcDb2dVertex
 10
57.66163470433217
 20
37.58481075514673
 30
0.0
  0
SEQEND
  5
4D0
330
4CB
100
AcDbEntity
  8
\U+30EC\U+30A4\U+30E4\U+30FC 1
370
     0
  0
HATCH
  5
4D1
330
4A7
100
AcDbEntity
  8
\U+30EC\U+30A4\U+30E4\U+30FC 1
 62
     7
100
AcDbHatch
 10
0.0
 20
0.0
 30
0.0
210
0.0
220
0.0
230
1.0
  2
SOLID
 70
     1
 71
     0
 91
        1
 92
        1
 93
        3
 72
     1
 10
57.66163470433217
 20
37.58481075514673
 11
58.10674133466082
 21
37.66232545470087
 72
     1
 10
58.10674133466082
 20
37.66232545470087
 11
57.66163470433217
 21
37.74001240914291
 72
     1
 10
57.66163470433217
 20
37.74001240914291
 11
57.66163470433217
 21
37.58481075514673
 97
        0
 75
     2
 76
     1
 98
        0
  0
ENDBLK
  5
4AA
330
4A7
100
AcDbEntity
  8
0
100
AcDbBlockEnd
  0
BLOCK
  5
4AD
330
4AB
100
AcDbEntity
  8
0
100
AcDbBlockBegin
  2
block 9
 70
     0
 71
     0
 10
0.0
 20
0.0
 30
0.0
  3
block 9
  1

  0
SPLINE
  5
4AF
330
4AB
100
AcDbEntity
  8
\U+30EC\U+30A4\U+30E4\U+30FC 1
370
     0
100
AcDbSpline
210
0.0
220
0.0
230
1.0
 70
    11
 71
     3
 72
    32
 73
    28
 74
     0
 42
0.0000000001
 43
0.0000000001
 40
0.0
 40
0.0
 40
0.0
 40
0.0
 40
1.0
 40
1.0
 40
1.0
 40
2.0
 40
2.0
 40
2.0
 40
3.0
 40
3.0
 40
3.0
 40
4.0
 40
4.0
 40
4.0
 40
5.0
 40
5.0
 40
5.0
 40
6.0
 40
6.0
 40
6.0
 40
7.0
 40
7.0
 40
7.0
 40
8.0
 40
8.0
 40
8.0
 40
9.0
 40
9.0
 40
9.0
 40
9.0
 10
54.77705435159085
 20
38.95630417259128
 30
0.0
 10
54.85835865867874
 20
39.05517847824478
 30
0.0
 10
54.98651629527492
 20
39.12184111986134
 30
0.0
 10
55.14774687034753
 20
39.12184111986134
 30
0.0
 10
55.43644606246471
 20
39.12184111986134
 30
0.0
 10
55.65899937762904
 20
38.90204388290338
 30
0.0
 10
55.65899937762904
 20
38.52893979571613
 30
0.0
 10
55.65899937762904
 20
38.17564502063716
 30
0.0
 10
55.4288668473972
 20
37.86420818331743
 30
0.0
 10
55.0512841331246
 20
37.86420818331743
 30
0.0
 10
54.6282261284469
 20
37.86420818331743
 30
0.0
 10
54.40153869597302
 20
38.20268903803716
 30
0.0
 10
54.40153869597302
 20
38.65985351051868
 30
0.0
 10
54.40153869597302
 20
39.08721788739383
 30
0.0
 10
54.59377515086729
 20
39.78657273226005
 30
0.0
 10
55.48329939197299
 20
39.78657273226005
 30
0.0
 10
55.48329939197299
 20
39.78657273226005
 30
0.0
 10
55.48329939197299
 20
39.50476373565878
 30
0.0
 10
55.48329939197299
 20
39.50476373565878
 30
0.0
 10
55.43644606246471
 20
39.50476373565878
 30
0.0
 10
55.38476959609529
 20
39.49994059879764
 30
0.0
 10
55.32275783645198
 20
39.49253363861802
 30
0.0
 10
54.979626099759
 20
39.44550805422184
 30
0.0
 10
54.81632846603161
 20
39.20348993672503
 30
0.0
 10
54.76947513652333
 20
38.95630417259128
 30
0.0
 10
54.76947513652333
 20
38.95630417259128
 30
0.0
 10
54.77705435159085
 20
38.95630417259128
 30
0.0
 10
54.77705435159085
 20
38.95630417259128
 30
0.0
  0
SPLINE
  5
4B0
330
4AB
100
AcDbEntity
  8
\U+30EC\U+30A4\U+30E4\U+30FC 1
370
     0
100
AcDbSpline
210
0.0
220
0.0
230
1.0
 70
    11
 71
     3
 72
    17
 73
    13
 74
     0
 42
0.0000000001
 43
0.0000000001
 40
0.0
 40
0.0
 40
0.0
 40
0.0
 40
1.0
 40
1.0
 40
1.0
 40
2.0
 40
2.0
 40
2.0
 40
3.0
 40
3.0
 40
3.0
 40
4.0
 40
4.0
 40
4.0
 40
4.0
 10
55.29588607393988
 20
38.51154205203843
 30
0.0
 10
55.29588607393988
 20
38.70670684002696
 30
0.0
 10
55.20149039537173
 20
38.86742065043587
 30
0.0
 10
55.03130256612842
 20
38.86742065043587
 30
0.0
 10
54.92243747697683
 20
38.86742065043587
 30
0.0
 10
54.76465199966218
 20
38.77354173653141
 30
0.0
 10
54.76465199966218
 20
38.56339077329575
 30
0.0
 10
54.76947513652333
 20
38.32137265579895
 30
0.0
 10
54.86800493240104
 20
38.12861943624099
 30
0.0
 10
55.04852805491823
 20
38.12861943624099
 30
0.0
 10
55.20906961043924
 20
38.12861943624099
 30
0.0
 10
55.29588607393988
 20
38.30156334369067
 30
0.0
 10
55.29588607393988
 20
38.51154205203843
 30
0.0
  0
HATCH
  5
4B1
330
4AB
100
AcDbEntity
  8
\U+30EC\U+30A4\U+30E4\U+30FC 1
 62
     7
100
AcDbHatch
 10
0.0
 20
0.0
 30
0.0
210
0.0
220
0.0
230
1.0
  2
SOLID
 70
     1
 71
     0
 91
        2
 92
        1
 93
        1
 72
     4
 94
        3
 73
     0
 74
     1
 95
       32
 96
       28
 40
0.0
 40
0.0
 40
0.0
 40
0.0
 40
1.0
 40
1.0
 40
1.0
 40
2.0
 40
2.0
 40
2.0
 40
3.0
 40
3.0
 40
3.0
 40
4.0
 40
4.0
 40
4.0
 40
5.0
 40
5.0
 40
5.0
 40
6.0
 40
6.0
 40
6.0
 40
7.0
 40
7.0
 40
7.0
 40
8.0
 40
8.0
 40
8.0
 40
9.0
 40
9.0
 40
9.0
 40
9.0
 10
54.77705435159085
 20
38.95630417259128
 10
54.85835865867874
 20
39.05517847824478
 10
54.98651629527492
 20
39.12184111986134
 10
55.14774687034753
 20
39.12184111986134
 10
55.43644606246471
 20
39.12184111986134
 10
55.65899937762904
 20
38.90204388290338
 10
55.65899937762904
 20
38.52893979571613
 10
55.65899937762904
 20
38.17564502063716
 10
55.4288668473972
 20
37.86420818331743
 10
55.0512841331246
 20
37.86420818331743
 10
54.6282261284469
 20
37.86420818331743
 10
54.40153869597302
 20
38.20268903803716
 10
54.40153869597302
 20
38.65985351051868
 10
54.40153869597302
 20
39.08721788739383
 10
54.59377515086729
 20
39.78657273226005
 10
55.48329939197299
 20
39.78657273226005
 10
55.48329939197299
 20
39.78657273226005
 10
55.48329939197299
 20
39.50476373565878
 10
55.48329939197299
 20
39.50476373565878
 10
55.43644606246471
 20
39.50476373565878
 10
55.38476959609529
 20
39.49994059879764
 10
55.32275783645198
 20
39.49253363861802
 10
54.979626099759
 20
39.44550805422184
 10
54.81632846603161
 20
39.20348993672503
 10
54.76947513652333
 20
38.95630417259128
 10
54.76947513652333
 20
38.95630417259128
 10
54.77705435159085
 20
38.95630417259128
 10
54.77705435159085
 20
38.95630417259128
 97
        0
 92
        1
 93
        1
 72
     4
 94
        3
 73
     0
 74
     1
 95
       17
 96
       13
 40
0.0
 40
0.0
 40
0.0
 40
0.0
 40
1.0
 40
1.0
 40
1.0
 40
2.0
 40
2.0
 40
2.0
 40
3.0
 40
3.0
 40
3.0
 40
4.0
 40
4.0
 40
4.0
 40
4.0
 10
55.29588607393988
 20
38.51154205203843
 10
55.29588607393988
 20
38.70670684002696
 10
55.20149039537173
 20
38.86742065043587
 10
55.03130256612842
 20
38.86742065043587
 10
54.92243747697683
 20
38.86742065043587
 10
54.76465199966218
 20
38.77354173653141
 10
54.76465199966218
 20
38.56339077329575
 10
54.76947513652333
 20
38.32137265579895
 10
54.86800493240104
 20
38.12861943624099
 10
55.04852805491823
 20
38.12861943624099
 10
55.20906961043924
 20
38.12861943624099
 10
55.29588607393988
 20
38.30156334369067
 10
55.29588607393988
 20
38.51154205203843
 97
        0
 75
     2
 76
     1
 98
        0
  0
SPLINE
  5
4B2
330
4AB
100
AcDbEntity
  8
\U+30EC\U+30A4\U+30E4\U+30FC 1
370
     0
100
AcDbSpline
210
0.0
220
0.0
230
1.0
 70
    11
 71
     3
 72
    47
 73
    43
 74
     0
 42
0.0000000001
 43
0.0000000001
 40
0.0
 40
0.0
 40
0.0
 40
0.0
 40
1.0
 40
1.0
 40
1.0
 40
2.0
 40
2.0
 40
2.0
 40
3.0
 40
3.0
 40
3.0
 40
4.0
 40
4.0
 40
4.0
 40
5.0
 40
5.0
 40
5.0
 40
6.0
 40
6.0
 40
6.0
 40
7.0
 40
7.0
 40
7.0
 40
8.0
 40
8.0
 40
8.0
 40
9.0
 40
9.0
 40
9.0
 40
10.0
 40
10.0
 40
10.0
 40
11.0
 40
11.0
 40
11.0
 40
12.0
 40
12.0
 40
12.0
 40
13.0
 40
13.0
 40
13.0
 40
14.0
 40
14.0
 40
14.0
 40
14.0
 10
56.94264280224557
 20
39.76176802840273
 30
0.0
 10
56.94264280224557
 20
39.76176802840273
 30
0.0
 10
56.94264280224557
 20
39.46032197458108
 30
0.0
 10
56.94264280224557
 20
39.46032197458108
 30
0.0
 10
56.94264280224557
 20
39.46032197458108
 30
0.0
 10
56.30805579522902
 20
39.46032197458108
 30
0.0
 10
56.30805579522902
 20
39.46032197458108
 30
0.0
 10
56.30805579522902
 20
39.46032197458108
 30
0.0
 10
56.25844638751438
 20
39.09462484757344
 30
0.0
 10
56.25844638751438
 20
39.09462484757344
 30
0.0
 10
56.29289736509399
 20
39.09962023932249
 30
0.0
 10
56.32252520581246
 20
39.10203180775306
 30
0.0
 10
56.36248833980481
 20
39.10203180775306
 30
0.0
 10
56.68839458770799
 20
39.10203180775306
 30
0.0
 10
56.99500828816658
 20
38.9192693716932
 30
0.0
 10
56.99500828816658
 20
38.51653744378747
 30
0.0
 10
56.99500828816658
 20
38.15824727695946
 30
0.0
 10
56.72077850663283
 20
37.86420818331743
 30
0.0
 10
56.28049501316533
 20
37.86420818331743
 30
0.0
 10
56.09514875378699
 20
37.86420818331743
 30
0.0
 10
55.92771700275005
 20
37.9112337677136
 30
0.0
 10
55.83607740238827
 20
37.96067092054035
 30
0.0
 10
55.83607740238827
 20
37.96067092054035
 30
0.0
 10
55.90773543575387
 20
38.23731227050468
 30
0.0
 10
55.90773543575387
 20
38.23731227050468
 30
0.0
 10
55.98146052777425
 20
38.19786590117602
 30
0.0
 10
56.11788639898953
 20
38.15084031677984
 30
0.0
 10
56.26120246572074
 20
38.15084031677984
 30
0.0
 10
56.45137186196023
 20
38.15084031677984
 30
0.0
 10
56.62638282806468
 20
38.27193550297219
 30
0.0
 10
56.62638282806468
 20
38.486909603069
 30
0.0
 10
56.62638282806468
 20
38.711702231776
 30
0.0
 10
56.46101813568252
 20
38.8377928097174
 30
0.0
 10
56.14475816150163
 20
38.8377928097174
 30
0.0
 10
56.06069777620737
 20
38.8377928097174
 30
0.0
 10
55.99661895790928
 20
38.83279741796836
 30
0.0
 10
55.93460719826597
 20
38.82539045778874
 30
0.0
 10
55.93460719826597
 20
38.82539045778874
 30
0.0
 10
56.04829542427871
 20
39.76176802840273
 30
0.0
 10
56.04829542427871
 20
39.76176802840273
 30
0.0
 10
56.04829542427871
 20
39.76176802840273
 30
0.0
 10
56.94264280224557
 20
39.76176802840273
 30
0.0
 10
56.94264280224557
 20
39.76176802840273
 30
0.0
  0
HATCH
  5
4B3
330
4AB
100
AcDbEntity
  8
\U+30EC\U+30A4\U+30E4\U+30FC 1
 62
     7
100
AcDbHatch
 10
0.0
 20
0.0
 30
0.0
210
0.0
220
0.0
230
1.0
  2
SOLID
 70
     1
 71
     0
 91
        1
 92
        1
 93
        1
 72
     4
 94
        3
 73
     0
 74
     1
 95
       47
 96
       43
 40
0.0
 40
0.0
 40
0.0
 40
0.0
 40
1.0
 40
1.0
 40
1.0
 40
2.0
 40
2.0
 40
2.0
 40
3.0
 40
3.0
 40
3.0
 40
4.0
 40
4.0
 40
4.0
 40
5.0
 40
5.0
 40
5.0
 40
6.0
 40
6.0
 40
6.0
 40
7.0
 40
7.0
 40
7.0
 40
8.0
 40
8.0
 40
8.0
 40
9.0
 40
9.0
 40
9.0
 40
10.0
 40
10.0
 40
10.0
 40
11.0
 40
11.0
 40
11.0
 40
12.0
 40
12.0
 40
12.0
 40
13.0
 40
13.0
 40
13.0
 40
14.0
 40
14.0
 40
14.0
 40
14.0
 10
56.94264280224557
 20
39.76176802840273
 10
56.94264280224557
 20
39.76176802840273
 10
56.94264280224557
 20
39.46032197458108
 10
56.94264280224557
 20
39.46032197458108
 10
56.94264280224557
 20
39.46032197458108
 10
56.30805579522902
 20
39.46032197458108
 10
56.30805579522902
 20
39.46032197458108
 10
56.30805579522902
 20
39.46032197458108
 10
56.25844638751438
 20
39.09462484757344
 10
56.25844638751438
 20
39.09462484757344
 10
56.29289736509399
 20
39.09962023932249
 10
56.32252520581246
 20
39.10203180775306
 10
56.36248833980481
 20
39.10203180775306
 10
56.68839458770799
 20
39.10203180775306
 10
56.99500828816658
 20
38.9192693716932
 10
56.99500828816658
 20
38.51653744378747
 10
56.99500828816658
 20
38.15824727695946
 10
56.72077850663283
 20
37.86420818331743
 10
56.28049501316533
 20
37.86420818331743
 10
56.09514875378699
 20
37.86420818331743
 10
55.92771700275005
 20
37.9112337677136
 10
55.83607740238827
 20
37.96067092054035
 10
55.83607740238827
 20
37.96067092054035
 10
55.90773543575387
 20
38.23731227050468
 10
55.90773543575387
 20
38.23731227050468
 10
55.98146052777425
 20
38.19786590117602
 10
56.11788639898953
 20
38.15084031677984
 10
56.26120246572074
 20
38.15084031677984
 10
56.45137186196023
 20
38.15084031677984
 10
56.62638282806468
 20
38.27193550297219
 10
56.62638282806468
 20
38.486909603069
 10
56.62638282806468
 20
38.711702231776
 10
56.46101813568252
 20
38.8377928097174
 10
56.14475816150163
 20
38.8377928097174
 10
56.06069777620737
 20
38.8377928097174
 10
55.99661895790928
 20
38.83279741796836
 10
55.93460719826597
 20
38.82539045778874
 10
55.93460719826597
 20
38.82539045778874
 10
56.04829542427871
 20
39.76176802840273
 10
56.04829542427871
 20
39.76176802840273
 10
56.04829542427871
 20
39.76176802840273
 10
56.94264280224557
 20
39.76176802840273
 10
56.94264280224557
 20
39.76176802840273
 97
        0
 75
     2
 76
     1
 98
        0
  0
ENDBLK
  5
4AE
330
4AB
100
AcDbEntity
  8
0
100
AcDbBlockEnd
  0
ENDSEC
  0
SECTION
  2
ENTITIES
  0
POLYLINE
  5
3C
330
1F
100
AcDbEntity
  8
\U+30EC\U+30A4\U+30E4\U+30FC 1
 62
     7
370
    18
100
AcDb2dPolyline
 66
     1
 10
0.0
 20
0.0
 30
0.0
  0
VERTEX
  5
3D
330
3C
100
AcDbEntity
  8
\U+30EC\U+30A4\U+30E4\U+30FC 1
 62
     7
370
    18
100
AcDbVertex
100
AcDb2dVertex
 10
1.893942492439438
 20
40.92207695328423
 30
0.0
  0
VERTEX
  5
3E
330
3C
100
AcDbEntity
  8
\U+30EC\U+30A4\U+30E4\U+30FC 1
 62
     7
370
    18
100
AcDbVertex
100
AcDb2dVertex
 10
1.893942492439438
 20
43.4871244889746
 30
0.0
  0
SEQEND
  5
3F
330
3C
100
AcDbEntity
  8
\U+30EC\U+30A4\U+30E4\U+30FC 1
370
    18
  0
POLYLINE
  5
40
330
1F
100
AcDbEntity
  8
\U+30EC\U+30A4\U+30E4\U+30FC 1
 62
     7
370
    18
100
AcDb2dPolyline
 66
     1
 10
0.0
 20
0.0
 30
0.0
  0
VERTEX
  5
41
330
40
100
AcDbEntity
  8
\U+30EC\U+30A4\U+30E4\U+30FC 1
 62
     7
370
    18
100
AcDbVertex
100
AcDb2dVertex
 10
46.96185008765475
 20
40.92207695328423
 30
0.0
  0
VERTEX
  5
42
330
40
100
AcDbEntity
  8
\U+30EC\U+30A4\U+30E4\U+30FC 1
 62
     7
370
    18
100
AcDbVertex
100
AcDb2dVertex
 10
1.893942492439438
 20
40.92207695328423
 30
0.0
  0
SEQEND
  5
43
330
40
100
AcDbEntity
  8
\U+30EC\U+30A4\U+30E4\U+30FC 1
370
    18
  0
POLYLINE
  5
44
330
1F
100
AcDbEntity
  8
\U+30EC\U+30A4\U+30E4\U+30FC 1
 62
     7
370
    18
100
AcDb2dPolyline
 66
     1
 10
0.0
 20
0.0
 30
0.0
  0
VERTEX
  5
45
330
44
100
AcDbEntity
  8
\U+30EC\U+30A4\U+30E4\U+30FC 1
 62
     7
370
    18
100
AcDbVertex
100
AcDb2dVertex
 10
1.893942492439438
 20
43.4871244889746
 30
0.0
  0
VERTEX
  5
46
330
44
100
AcDbEntity
  8
\U+30EC\U+30A4\U+30E4\U+30FC 1
 62
     7
370
    18
100
AcDbVertex
100
AcDb2dVertex
 10
46.96185008765475
 20
43.4871244889746
 30
0.0
  0
SEQEND
  5
47
330
44
100
AcDbEntity
  8
\U+30EC\U+30A4\U+30E4\U+30FC 1
370
    18
  0
POLYLINE
  5
48
330
1F
100
AcDbEntity
  8
\U+30EC\U+30A4\U+30E4\U+30FC 1
 62
     7
370
    18
100
AcDb2dPolyline
 66
     1
 10
0.0
 20
0.0
 30
0.0
  0
VERTEX
  5
49
330
48
100
AcDbEntity
  8
\U+30EC\U+30A4\U+30E4\U+30FC 1
 62
     7
370
    18
100
AcDbVertex
100
AcDb2dVertex
 10
46.96185008765475
 20
43.4871244889746
 30
0.0
  0
VERTEX
  5
4A
330
48
100
AcDbEntity
  8
\U+30EC\U+30A4\U+30E4\U+30FC 1
 62
     7
370
    18
100
AcDbVertex
100
AcDb2dVertex
 10
46.96185008765475
 20
40.92207695328423
 30
0.0
  0
SEQEND
  5
4B
330
48
100
AcDbEntity
  8
\U+30EC\U+30A4\U+30E4\U+30FC 1
370
    18
  0
POLYLINE
  5
4C
330
1F
100
AcDbEntity
  8
\U+30EC\U+30A4\U+30E4\U+30FC 1
 62
     7
370
    18
100
AcDb2dPolyline
 66
     1
 10
0.0
 20
0.0
 30
0.0
  0
VERTEX
  5
4D
330
4C
100
AcDbEntity
  8
\U+30EC\U+30A4\U+30E4\U+30FC 1
 62
     7
370
    18
100
AcDbVertex
100
AcDb2dVertex
 10
2.65634262627636
 20
28.29114278838139
 30
0.0
  0
VERTEX
  5
4E
330
4C
100
AcDbEntity
  8
\U+30EC\U+30A4\U+30E4\U+30FC 1
 62
     7
370
    18
100
AcDbVertex
100
AcDb2dVertex
 10
2.636016549504386
 20
28.67699373727309
 30
0.0
  0
SEQEND
  5
4F
330
4C
100
AcDbEntity
  8
\U+30EC\U+30A4\U+30E4\U+30FC 1
370
    18
  0
POLYLINE
  5
50
330
1F
100
AcDbEntity
  8
\U+30EC\U+30A4\U+30E4\U+30FC 1
 62
     7
370
    18
100
AcDb2dPolyline
 66
     1
 10
0.0
 20
0.0
 30
0.0
  0
VERTEX
  5
51
330
50
100
AcDbEntity
  8
\U+30EC\U+30A4\U+30E4\U+30FC 1
 62
     7
370
    18
100
AcDbVertex
100
AcDb2dVertex
 10
2.627059295333686
 20
28.29114278838139
 30
0.0
  0
VERTEX
  5
52
330
50
100
AcDbEntity
  8
\U+30EC\U+30A4\U+30E4\U+30FC 1
 62
     7
370
    18
100
AcDbVertex
100
AcDb2dVertex
 10
2.592608317754069
 20
29.02770468903359
 30
0.0
  0
SEQEND
  5
53
330
50
100
AcDbEntity
  8
\U+30EC\U+30A4\U+30E4\U+30FC 1
370
    18
  0
POLYLINE
  5
54
330
1F
100
AcDbEntity
  8
\U+30EC\U+30A4\U+30E4\U+30FC 1
 62
     7
370
    18
100
AcDb2dPolyline
 66
     1
 10
0.0
 20
0.0
 30
0.0
  0
VERTEX
  5
55
330
54
100
AcDbEntity
  8
\U+30EC\U+30A4\U+30E4\U+30FC 1
 62
     7
370
    18
100
AcDbVertex
100
AcDb2dVertex
 10
2.572626750757891
 20
28.29114278838139
 30
0.0
  0
VERTEX
  5
56
330
54
100
AcDbEntity
  8
\U+30EC\U+30A4\U+30E4\U+30FC 1
 62
     7
370
    18
100
AcDbVertex
100
AcDb2dVertex
 10
2.557123810847063
 20
28.69077412830494
 30
0.0
  0
SEQEND
  5
57
330
54
100
AcDbEntity
  8
\U+30EC\U+30A4\U+30E4\U+30FC 1
370
    18
  0
POLYLINE
  5
58
330
1F
100
AcDbEntity
  8
\U+30EC\U+30A4\U+30E4\U+30FC 1
 62
     7
370
    18
100
AcDb2dPolyline
 66
     1
 10
0.0
 20
0.0
 30
0.0
  0
VERTEX
  5
59
330
58
100
AcDbEntity
  8
\U+30EC\U+30A4\U+30E4\U+30FC 1
 62
     7
370
    18
100
AcDbVertex
100
AcDb2dVertex
 10
2.590196749323495
 20
29.05044233423614
 30
0.0
  0
VERTEX
  5
5A
330
58
100
AcDbEntity
  8
\U+30EC\U+30A4\U+30E4\U+30FC 1
 62
     7
370
    18
100
AcDbVertex
100
AcDb2dVertex
 10
2.54575498824579
 20
30.7538709206603
 30
0.0
  0
SEQEND
  5
5B
330
58
100
AcDbEntity
  8
\U+30EC\U+30A4\U+30E4\U+30FC 1
370
    18
  0
POLYLINE
  5
5C
330
1F
100
AcDbEntity
  8
\U+30EC\U+30A4\U+30E4\U+30FC 1
 62
     7
370
    18
100
AcDb2dPolyline
 66
     1
 10
0.0
 20
0.0
 30
0.0
  0
VERTEX
  5
5D
330
5C
100
AcDbEntity
  8
\U+30EC\U+30A4\U+30E4\U+30FC 1
 62
     7
370
    18
100
AcDbVertex
100
AcDb2dVertex
 10
2.545065968694197
 20
30.78280974182718
 30
0.0
  0
VERTEX
  5
5E
330
5C
100
AcDbEntity
  8
\U+30EC\U+30A4\U+30E4\U+30FC 1
 62
     7
370
    18
100
AcDbVertex
100
AcDb2dVertex
 10
2.538175773178274
 20
31.04222560300169
 30
0.0
  0
SEQEND
  5
5F
330
5C
100
AcDbEntity
  8
\U+30EC\U+30A4\U+30E4\U+30FC 1
370
    18
  0
POLYLINE
  5
60
330
1F
100
AcDbEntity
  8
\U+30EC\U+30A4\U+30E4\U+30FC 1
 62
     7
370
    18
100
AcDb2dPolyline
 66
     1
 10
0.0
 20
0.0
 30
0.0
  0
VERTEX
  5
61
330
60
100
AcDbEntity
  8
\U+30EC\U+30A4\U+30E4\U+30FC 1
 62
     7
370
    18
100
AcDbVertex
100
AcDb2dVertex
 10
2.396237745550252
 20
28.29114278838139
 30
0.0
  0
VERTEX
  5
62
330
60
100
AcDbEntity
  8
\U+30EC\U+30A4\U+30E4\U+30FC 1
 62
     7
370
    18
100
AcDbVertex
100
AcDb2dVertex
 10
2.388658530482737
 20
29.02770468903359
 30
0.0
  0
SEQEND
  5
63
330
60
100
AcDbEntity
  8
\U+30EC\U+30A4\U+30E4\U+30FC 1
370
    18
  0
POLYLINE
  5
64
330
1F
100
AcDbEntity
  8
\U+30EC\U+30A4\U+30E4\U+30FC 1
 62
     7
370
    18
100
AcDb2dPolyline
 66
     1
 10
0.0
 20
0.0
 30
0.0
  0
VERTEX
  5
65
330
64
100
AcDbEntity
  8
\U+30EC\U+30A4\U+30E4\U+30FC 1
 62
     7
370
    18
100
AcDbVertex
100
AcDb2dVertex
 10
1.893942492439438
 20
23.01532008183885
 30
0.0
  0
VERTEX
  5
66
330
64
100
AcDbEntity
  8
\U+30EC\U+30A4\U+30E4\U+30FC 1
 62
     7
370
    18
100
AcDbVertex
100
AcDb2dVertex
 10
1.893942492439438
 20
27.77851224199669
 30
0.0
  0
SEQEND
  5
67
330
64
100
AcDbEntity
  8
\U+30EC\U+30A4\U+30E4\U+30FC 1
370
    18
  0
POLYLINE
  5
68
330
1F
100
AcDbEntity
  8
\U+30EC\U+30A4\U+30E4\U+30FC 1
 62
     7
370
    18
100
AcDb2dPolyline
 66
     1
 10
0.0
 20
0.0
 30
0.0
  0
VERTEX
  5
69
330
68
100
AcDbEntity
  8
\U+30EC\U+30A4\U+30E4\U+30FC 1
 62
     7
370
    18
100
AcDbVertex
100
AcDb2dVertex
 10
2.084800908230516
 20
28.29114278838139
 30
0.0
  0
VERTEX
  5
6A
330
68
100
AcDbEntity
  8
\U+30EC\U+30A4\U+30E4\U+30FC 1
 62
     7
370
    18
100
AcDbVertex
100
AcDb2dVertex
 10
2.084800908230516
 20
28.23326514604763
 30
0.0
  0
SEQEND
  5
6B
330
68
100
AcDbEntity
  8
\U+30EC\U+30A4\U+30E4\U+30FC 1
370
    18
  0
POLYLINE
  5
6C
330
1F
100
AcDbEntity
  8
\U+30EC\U+30A4\U+30E4\U+30FC 1
 62
     7
370
    18
100
AcDb2dPolyline
 66
     1
 10
0.0
 20
0.0
 30
0.0
  0
VERTEX
  5
6D
330
6C
100
AcDbEntity
  8
\U+30EC\U+30A4\U+30E4\U+30FC 1
 62
     7
370
    18
100
AcDbVertex
100
AcDb2dVertex
 10
2.113739729397394
 20
28.29114278838139
 30
0.0
  0
VERTEX
  5
6E
330
6C
100
AcDbEntity
  8
\U+30EC\U+30A4\U+30E4\U+30FC 1
 62
     7
370
    18
100
AcDbVertex
100
AcDb2dVertex
 10
2.113739729397394
 20
28.22361887232534
 30
0.0
  0
SEQEND
  5
6F
330
6C
100
AcDbEntity
  8
\U+30EC\U+30A4\U+30E4\U+30FC 1
370
    18
  0
POLYLINE
  5
70
330
1F
100
AcDbEntity
  8
\U+30EC\U+30A4\U+30E4\U+30FC 1
 62
     7
370
    18
100
AcDb2dPolyline
 66
     1
 10
0.0
 20
0.0
 30
0.0
  0
VERTEX
  5
71
330
70
100
AcDbEntity
  8
\U+30EC\U+30A4\U+30E4\U+30FC 1
 62
     7
370
    18
100
AcDbVertex
100
AcDb2dVertex
 10
2.149568746080195
 20
29.19995957693168
 30
0.0
  0
VERTEX
  5
72
330
70
100
AcDbEntity
  8
\U+30EC\U+30A4\U+30E4\U+30FC 1
 62
     7
370
    18
100
AcDbVertex
100
AcDb2dVertex
 10
2.149568746080195
 20
30.43743869159152
 30
0.0
  0
SEQEND
  5
73
330
70
100
AcDbEntity
  8
\U+30EC\U+30A4\U+30E4\U+30FC 1
370
    18
  0
POLYLINE
  5
74
330
1F
100
AcDbEntity
  8
\U+30EC\U+30A4\U+30E4\U+30FC 1
 62
     7
370
    18
100
AcDb2dPolyline
 66
     1
 10
0.0
 20
0.0
 30
0.0
  0
VERTEX
  5
75
330
74
100
AcDbEntity
  8
\U+30EC\U+30A4\U+30E4\U+30FC 1
 62
     7
370
    18
100
AcDbVertex
100
AcDb2dVertex
 10
2.168172273973189
 20
28.29114278838139
 30
0.0
  0
VERTEX
  5
76
330
74
100
AcDbEntity
  8
\U+30EC\U+30A4\U+30E4\U+30FC 1
 62
     7
370
    18
100
AcDbVertex
100
AcDb2dVertex
 10
2.168172273973189
 20
28.23326514604763
 30
0.0
  0
SEQEND
  5
77
330
74
100
AcDbEntity
  8
\U+30EC\U+30A4\U+30E4\U+30FC 1
370
    18
  0
POLYLINE
  5
78
330
1F
100
AcDbEntity
  8
\U+30EC\U+30A4\U+30E4\U+30FC 1
 62
     7
370
    18
100
AcDb2dPolyline
 66
     1
 10
0.0
 20
0.0
 30
0.0
  0
VERTEX
  5
79
330
78
100
AcDbEntity
  8
\U+30EC\U+30A4\U+30E4\U+30FC 1
 62
     7
370
    18
100
AcDbVertex
100
AcDb2dVertex
 10
2.223982857652168
 20
30.78280974182718
 30
0.0
  0
VERTEX
  5
7A
330
78
100
AcDbEntity
  8
\U+30EC\U+30A4\U+30E4\U+30FC 1
 62
     7
370
    18
100
AcDbVertex
100
AcDb2dVertex
 10
2.223982857652168
 20
30.7538709206603
 30
0.0
  0
SEQEND
  5
7B
330
78
100
AcDbEntity
  8
\U+30EC\U+30A4\U+30E4\U+30FC 1
370
    18
  0
POLYLINE
  5
7C
330
1F
100
AcDbEntity
  8
\U+30EC\U+30A4\U+30E4\U+30FC 1
 62
     7
370
    18
100
AcDb2dPolyline
 66
     1
 10
0.0
 20
0.0
 30
0.0
  0
VERTEX
  5
7D
330
7C
100
AcDbEntity
  8
\U+30EC\U+30A4\U+30E4\U+30FC 1
 62
     7
370
    18
100
AcDbVertex
100
AcDb2dVertex
 10
2.290128734605033
 20
28.1815886796782
 30
0.0
  0
VERTEX
  5
7E
330
7C
100
AcDbEntity
  8
\U+30EC\U+30A4\U+30E4\U+30FC 1
 62
     7
370
    18
100
AcDbVertex
100
AcDb2dVertex
 10
2.290128734605033
 20
28.07892476649095
 30
0.0
  0
SEQEND
  5
7F
330
7C
100
AcDbEntity
  8
\U+30EC\U+30A4\U+30E4\U+30FC 1
370
    18
  0
POLYLINE
  5
80
330
1F
100
AcDbEntity
  8
\U+30EC\U+30A4\U+30E4\U+30FC 1
 62
     7
370
    18
100
AcDb2dPolyline
 66
     1
 10
0.0
 20
0.0
 30
0.0
  0
VERTEX
  5
81
330
80
100
AcDbEntity
  8
\U+30EC\U+30A4\U+30E4\U+30FC 1
 62
     7
370
    18
100
AcDbVertex
100
AcDb2dVertex
 10
2.290128734605033
 20
28.03482751518904
 30
0.0
  0
VERTEX
  5
82
330
80
100
AcDbEntity
  8
\U+30EC\U+30A4\U+30E4\U+30FC 1
 62
     7
370
    18
100
AcDbVertex
100
AcDb2dVertex
 10
2.290128734605033
 20
27.93216360200178
 30
0.0
  0
SEQEND
  5
83
330
80
100
AcDbEntity
  8
\U+30EC\U+30A4\U+30E4\U+30FC 1
370
    18
  0
POLYLINE
  5
84
330
1F
100
AcDbEntity
  8
\U+30EC\U+30A4\U+30E4\U+30FC 1
 62
     7
370
    18
100
AcDb2dPolyline
 66
     1
 10
0.0
 20
0.0
 30
0.0
  0
VERTEX
  5
85
330
84
100
AcDbEntity
  8
\U+30EC\U+30A4\U+30E4\U+30FC 1
 62
     7
370
    18
100
AcDbVertex
100
AcDb2dVertex
 10
2.290128734605033
 20
27.88806635069987
 30
0.0
  0
VERTEX
  5
86
330
84
100
AcDbEntity
  8
\U+30EC\U+30A4\U+30E4\U+30FC 1
 62
     7
370
    18
100
AcDbVertex
100
AcDb2dVertex
 10
2.290128734605033
 20
27.78540243751261
 30
0.0
  0
SEQEND
  5
87
330
84
100
AcDbEntity
  8
\U+30EC\U+30A4\U+30E4\U+30FC 1
370
    18
  0
POLYLINE
  5
88
330
1F
100
AcDbEntity
  8
\U+30EC\U+30A4\U+30E4\U+30FC 1
 62
     7
370
    18
100
AcDb2dPolyline
 66
     1
 10
0.0
 20
0.0
 30
0.0
  0
VERTEX
  5
89
330
88
100
AcDbEntity
  8
\U+30EC\U+30A4\U+30E4\U+30FC 1
 62
     7
370
    18
100
AcDbVertex
100
AcDb2dVertex
 10
2.344561279180827
 20
28.29114278838139
 30
0.0
  0
VERTEX
  5
8A
330
88
100
AcDbEntity
  8
\U+30EC\U+30A4\U+30E4\U+30FC 1
 62
     7
370
    18
100
AcDbVertex
100
AcDb2dVertex
 10
2.344561279180827
 20
28.22361887232534
 30
0.0
  0
SEQEND
  5
8B
330
88
100
AcDbEntity
  8
\U+30EC\U+30A4\U+30E4\U+30FC 1
370
    18
  0
POLYLINE
  5
8C
330
1F
100
AcDbEntity
  8
\U+30EC\U+30A4\U+30E4\U+30FC 1
 62
     7
370
    18
100
AcDb2dPolyline
 66
     1
 10
0.0
 20
0.0
 30
0.0
  0
VERTEX
  5
8D
330
8C
100
AcDbEntity
  8
\U+30EC\U+30A4\U+30E4\U+30FC 1
 62
     7
370
    18
100
AcDbVertex
100
AcDb2dVertex
 10
2.36316480707382
 20
29.05733252975207
 30
0.0
  0
VERTEX
  5
8E
330
8C
100
AcDbEntity
  8
\U+30EC\U+30A4\U+30E4\U+30FC 1
 62
     7
370
    18
100
AcDbVertex
100
AcDb2dVertex
 10
2.36316480707382
 20
30.53321240926285
 30
0.0
  0
SEQEND
  5
8F
330
8C
100
AcDbEntity
  8
\U+30EC\U+30A4\U+30E4\U+30FC 1
370
    18
  0
POLYLINE
  5
90
330
1F
100
AcDbEntity
  8
\U+30EC\U+30A4\U+30E4\U+30FC 1
 62
     7
370
    18
100
AcDb2dPolyline
 66
     1
 10
0.0
 20
0.0
 30
0.0
  0
VERTEX
  5
91
330
90
100
AcDbEntity
  8
\U+30EC\U+30A4\U+30E4\U+30FC 1
 62
     7
370
    18
100
AcDbVertex
100
AcDb2dVertex
 10
2.37039951236554
 20
28.23326514604763
 30
0.0
  0
VERTEX
  5
92
330
90
100
AcDbEntity
  8
\U+30EC\U+30A4\U+30E4\U+30FC 1
 62
     7
370
    18
100
AcDbVertex
100
AcDb2dVertex
 10
2.37039951236554
 20
28.67699373727309
 30
0.0
  0
SEQEND
  5
93
330
90
100
AcDbEntity
  8
\U+30EC\U+30A4\U+30E4\U+30FC 1
370
    18
  0
POLYLINE
  5
94
330
1F
100
AcDbEntity
  8
\U+30EC\U+30A4\U+30E4\U+30FC 1
 62
     7
370
    18
100
AcDb2dPolyline
 66
     1
 10
0.0
 20
0.0
 30
0.0
  0
VERTEX
  5
95
330
94
100
AcDbEntity
  8
\U+30EC\U+30A4\U+30E4\U+30FC 1
 62
     7
370
    18
100
AcDbVertex
100
AcDb2dVertex
 10
2.377634217657259
 20
29.05733252975207
 30
0.0
  0
VERTEX
  5
96
330
94
100
AcDbEntity
  8
\U+30EC\U+30A4\U+30E4\U+30FC 1
 62
     7
370
    18
100
AcDbVertex
100
AcDb2dVertex
 10
2.377634217657259
 20
30.53321240926285
 30
0.0
  0
SEQEND
  5
97
330
94
100
AcDbEntity
  8
\U+30EC\U+30A4\U+30E4\U+30FC 1
370
    18
  0
POLYLINE
  5
98
330
1F
100
AcDbEntity
  8
\U+30EC\U+30A4\U+30E4\U+30FC 1
 62
     7
370
    18
100
AcDb2dPolyline
 66
     1
 10
0.0
 20
0.0
 30
0.0
  0
VERTEX
  5
99
330
98
100
AcDbEntity
  8
\U+30EC\U+30A4\U+30E4\U+30FC 1
 62
     7
370
    18
100
AcDbVertex
100
AcDb2dVertex
 10
2.396237745550252
 20
28.29114278838139
 30
0.0
  0
VERTEX
  5
9A
330
98
100
AcDbEntity
  8
\U+30EC\U+30A4\U+30E4\U+30FC 1
 62
     7
370
    18
100
AcDbVertex
100
AcDb2dVertex
 10
2.396237745550252
 20
28.22361887232534
 30
0.0
  0
SEQEND
  5
9B
330
98
100
AcDbEntity
  8
\U+30EC\U+30A4\U+30E4\U+30FC 1
370
    18
  0
POLYLINE
  5
9C
330
1F
100
AcDbEntity
  8
\U+30EC\U+30A4\U+30E4\U+30FC 1
 62
     7
370
    18
100
AcDb2dPolyline
 66
     1
 10
0.0
 20
0.0
 30
0.0
  0
VERTEX
  5
9D
330
9C
100
AcDbEntity
  8
\U+30EC\U+30A4\U+30E4\U+30FC 1
 62
     7
370
    18
100
AcDbVertex
100
AcDb2dVertex
 10
2.45135930967764
 20
28.2181067159126
 30
0.0
  0
VERTEX
  5
9E
330
9C
100
AcDbEntity
  8
\U+30EC\U+30A4\U+30E4\U+30FC 1
 62
     7
370
    18
100
AcDbVertex
100
AcDb2dVertex
 10
2.45135930967764
 20
28.14507064344381
 30
0.0
  0
SEQEND
  5
9F
330
9C
100
AcDbEntity
  8
\U+30EC\U+30A4\U+30E4\U+30FC 1
370
    18
  0
POLYLINE
  5
A0
330
1F
100
AcDbEntity
  8
\U+30EC\U+30A4\U+30E4\U+30FC 1
 62
     7
370
    18
100
AcDb2dPolyline
 66
     1
 10
0.0
 20
0.0
 30
0.0
  0
VERTEX
  5
A1
330
A0
100
AcDbEntity
  8
\U+30EC\U+30A4\U+30E4\U+30FC 1
 62
     7
370
    18
100
AcDbVertex
100
AcDb2dVertex
 10
2.45135930967764
 20
28.1009733921419
 30
0.0
  0
VERTEX
  5
A2
330
A0
100
AcDbEntity
  8
\U+30EC\U+30A4\U+30E4\U+30FC 1
 62
     7
370
    18
100
AcDbVertex
100
AcDb2dVertex
 10
2.45135930967764
 20
27.99830947895464
 30
0.0
  0
SEQEND
  5
A3
330
A0
100
AcDbEntity
  8
\U+30EC\U+30A4\U+30E4\U+30FC 1
370
    18
  0
POLYLINE
  5
A4
330
1F
100
AcDbEntity
  8
\U+30EC\U+30A4\U+30E4\U+30FC 1
 62
     7
370
    18
100
AcDb2dPolyline
 66
     1
 10
0.0
 20
0.0
 30
0.0
  0
VERTEX
  5
A5
330
A4
100
AcDbEntity
  8
\U+30EC\U+30A4\U+30E4\U+30FC 1
 62
     7
370
    18
100
AcDbVertex
100
AcDb2dVertex
 10
2.45135930967764
 20
27.95421222765273
 30
0.0
  0
VERTEX
  5
A6
330
A4
100
AcDbEntity
  8
\U+30EC\U+30A4\U+30E4\U+30FC 1
 62
     7
370
    18
100
AcDbVertex
100
AcDb2dVertex
 10
2.45135930967764
 20
27.85154831446548
 30
0.0
  0
SEQEND
  5
A7
330
A4
100
AcDbEntity
  8
\U+30EC\U+30A4\U+30E4\U+30FC 1
370
    18
  0
POLYLINE
  5
A8
330
1F
100
AcDbEntity
  8
\U+30EC\U+30A4\U+30E4\U+30FC 1
 62
     7
370
    18
100
AcDb2dPolyline
 66
     1
 10
0.0
 20
0.0
 30
0.0
  0
VERTEX
  5
A9
330
A8
100
AcDbEntity
  8
\U+30EC\U+30A4\U+30E4\U+30FC 1
 62
     7
370
    18
100
AcDbVertex
100
AcDb2dVertex
 10
2.45135930967764
 20
27.80814008271516
 30
0.0
  0
VERTEX
  5
AA
330
A8
100
AcDbEntity
  8
\U+30EC\U+30A4\U+30E4\U+30FC 1
 62
     7
370
    18
100
AcDbVertex
100
AcDb2dVertex
 10
2.45135930967764
 20
27.77851224199669
 30
0.0
  0
SEQEND
  5
AB
330
A8
100
AcDbEntity
  8
\U+30EC\U+30A4\U+30E4\U+30FC 1
370
    18
  0
POLYLINE
  5
AC
330
1F
100
AcDbEntity
  8
\U+30EC\U+30A4\U+30E4\U+30FC 1
 62
     7
370
    18
100
AcDb2dPolyline
 66
     1
 10
0.0
 20
0.0
 30
0.0
  0
VERTEX
  5
AD
330
AC
100
AcDbEntity
  8
\U+30EC\U+30A4\U+30E4\U+30FC 1
 62
     7
370
    18
100
AcDbVertex
100
AcDb2dVertex
 10
2.516816167078912
 20
30.78280974182718
 30
0.0
  0
VERTEX
  5
AE
330
AC
100
AcDbEntity
  8
\U+30EC\U+30A4\U+30E4\U+30FC 1
 62
     7
370
    18
100
AcDbVertex
100
AcDb2dVertex
 10
2.516816167078912
 20
30.7538709206603
 30
0.0
  0
SEQEND
  5
AF
330
AC
100
AcDbEntity
  8
\U+30EC\U+30A4\U+30E4\U+30FC 1
370
    18
  0
POLYLINE
  5
B0
330
1F
100
AcDbEntity
  8
\U+30EC\U+30A4\U+30E4\U+30FC 1
 62
     7
370
    18
100
AcDb2dPolyline
 66
     1
 10
0.0
 20
0.0
 30
0.0
  0
VERTEX
  5
B1
330
B0
100
AcDbEntity
  8
\U+30EC\U+30A4\U+30E4\U+30FC 1
 62
     7
370
    18
100
AcDbVertex
100
AcDb2dVertex
 10
2.572626750757891
 20
28.29114278838139
 30
0.0
  0
VERTEX
  5
B2
330
B0
100
AcDbEntity
  8
\U+30EC\U+30A4\U+30E4\U+30FC 1
 62
     7
370
    18
100
AcDbVertex
100
AcDb2dVertex
 10
2.572626750757891
 20
28.23326514604763
 30
0.0
  0
SEQEND
  5
B3
330
B0
100
AcDbEntity
  8
\U+30EC\U+30A4\U+30E4\U+30FC 1
370
    18
  0
POLYLINE
  5
B4
330
1F
100
AcDbEntity
  8
\U+30EC\U+30A4\U+30E4\U+30FC 1
 62
     7
370
    18
100
AcDb2dPolyline
 66
     1
 10
0.0
 20
0.0
 30
0.0
  0
VERTEX
  5
B5
330
B4
100
AcDbEntity
  8
\U+30EC\U+30A4\U+30E4\U+30FC 1
 62
     7
370
    18
100
AcDbVertex
100
AcDb2dVertex
 10
2.59157478842668
 20
29.19995957693168
 30
0.0
  0
VERTEX
  5
B6
330
B4
100
AcDbEntity
  8
\U+30EC\U+30A4\U+30E4\U+30FC 1
 62
     7
370
    18
100
AcDbVertex
100
AcDb2dVertex
 10
2.59157478842668
 20
30.43743869159152
 30
0.0
  0
SEQEND
  5
B7
330
B4
100
AcDbEntity
  8
\U+30EC\U+30A4\U+30E4\U+30FC 1
370
    18
  0
POLYLINE
  5
B8
330
1F
100
AcDbEntity
  8
\U+30EC\U+30A4\U+30E4\U+30FC 1
 62
     7
370
    18
100
AcDb2dPolyline
 66
     1
 10
0.0
 20
0.0
 30
0.0
  0
VERTEX
  5
B9
330
B8
100
AcDbEntity
  8
\U+30EC\U+30A4\U+30E4\U+30FC 1
 62
     7
370
    18
100
AcDbVertex
100
AcDb2dVertex
 10
2.621547138920947
 20
29.19995957693168
 30
0.0
  0
VERTEX
  5
BA
330
B8
100
AcDbEntity
  8
\U+30EC\U+30A4\U+30E4\U+30FC 1
 62
     7
370
    18
100
AcDbVertex
100
AcDb2dVertex
 10
2.621547138920947
 20
30.43743869159152
 30
0.0
  0
SEQEND
  5
BB
330
B8
100
AcDbEntity
  8
\U+30EC\U+30A4\U+30E4\U+30FC 1
370
    18
  0
POLYLINE
  5
BC
330
1F
100
AcDbEntity
  8
\U+30EC\U+30A4\U+30E4\U+30FC 1
 62
     7
370
    18
100
AcDb2dPolyline
 66
     1
 10
0.0
 20
0.0
 30
0.0
  0
VERTEX
  5
BD
330
BC
100
AcDbEntity
  8
\U+30EC\U+30A4\U+30E4\U+30FC 1
 62
     7
370
    18
100
AcDbVertex
100
AcDb2dVertex
 10
2.627059295333686
 20
28.29114278838139
 30
0.0
  0
VERTEX
  5
BE
330
BC
100
AcDbEntity
  8
\U+30EC\U+30A4\U+30E4\U+30FC 1
 62
     7
370
    18
100
AcDbVertex
100
AcDb2dVertex
 10
2.627059295333686
 20
28.22361887232534
 30
0.0
  0
SEQEND
  5
BF
330
BC
100
AcDbEntity
  8
\U+30EC\U+30A4\U+30E4\U+30FC 1
370
    18
  0
POLYLINE
  5
C0
330
1F
100
AcDbEntity
  8
\U+30EC\U+30A4\U+30E4\U+30FC 1
 62
     7
370
    18
100
AcDb2dPolyline
 66
     1
 10
0.0
 20
0.0
 30
0.0
  0
VERTEX
  5
C1
330
C0
100
AcDbEntity
  8
\U+30EC\U+30A4\U+30E4\U+30FC 1
 62
     7
370
    18
100
AcDbVertex
100
AcDb2dVertex
 10
2.65634262627636
 20
28.29114278838139
 30
0.0
  0
VERTEX
  5
C2
330
C0
100
AcDbEntity
  8
\U+30EC\U+30A4\U+30E4\U+30FC 1
 62
     7
370
    18
100
AcDbVertex
100
AcDb2dVertex
 10
2.65634262627636
 20
28.23326514604763
 30
0.0
  0
SEQEND
  5
C3
330
C0
100
AcDbEntity
  8
\U+30EC\U+30A4\U+30E4\U+30FC 1
370
    18
  0
POLYLINE
  5
C4
330
1F
100
AcDbEntity
  8
\U+30EC\U+30A4\U+30E4\U+30FC 1
 62
     7
370
    18
100
AcDb2dPolyline
 66
     1
 10
0.0
 20
0.0
 30
0.0
  0
VERTEX
  5
C5
330
C4
100
AcDbEntity
  8
\U+30EC\U+30A4\U+30E4\U+30FC 1
 62
     7
370
    18
100
AcDbVertex
100
AcDb2dVertex
 10
2.993617696780809
 20
23.38118946373439
 30
0.0
  0
VERTEX
  5
C6
330
C4
100
AcDbEntity
  8
\U+30EC\U+30A4\U+30E4\U+30FC 1
 62
     7
370
    18
100
AcDbVertex
100
AcDb2dVertex
 10
2.993617696780809
 20
27.77851224199669
 30
0.0
  0
SEQEND
  5
C7
330
C4
100
AcDbEntity
  8
\U+30EC\U+30A4\U+30E4\U+30FC 1
370
    18
  0
POLYLINE
  5
C8
330
1F
100
AcDbEntity
  8
\U+30EC\U+30A4\U+30E4\U+30FC 1
 62
     7
370
    18
100
AcDb2dPolyline
 66
     1
 10
0.0
 20
0.0
 30
0.0
  0
VERTEX
  5
C9
330
C8
100
AcDbEntity
  8
\U+30EC\U+30A4\U+30E4\U+30FC 1
 62
     7
370
    18
100
AcDbVertex
100
AcDb2dVertex
 10
2.344561279180827
 20
28.29114278838139
 30
0.0
  0
VERTEX
  5
CA
330
C8
100
AcDbEntity
  8
\U+30EC\U+30A4\U+30E4\U+30FC 1
 62
     7
370
    18
100
AcDbVertex
100
AcDb2dVertex
 10
2.352485004024139
 20
29.02770468903359
 30
0.0
  0
SEQEND
  5
CB
330
C8
100
AcDbEntity
  8
\U+30EC\U+30A4\U+30E4\U+30FC 1
370
    18
  0
POLYLINE
  5
CC
330
1F
100
AcDbEntity
  8
\U+30EC\U+30A4\U+30E4\U+30FC 1
 62
     7
370
    18
100
AcDb2dPolyline
 66
     1
 10
0.0
 20
0.0
 30
0.0
  0
VERTEX
  5
CD
330
CC
100
AcDbEntity
  8
\U+30EC\U+30A4\U+30E4\U+30FC 1
 62
     7
370
    18
100
AcDbVertex
100
AcDb2dVertex
 10
2.150602275407584
 20
29.05044233423614
 30
0.0
  0
VERTEX
  5
CE
330
CC
100
AcDbEntity
  8
\U+30EC\U+30A4\U+30E4\U+30FC 1
 62
     7
370
    18
100
AcDbVertex
100
AcDb2dVertex
 10
2.195388546261086
 20
30.7538709206603
 30
0.0
  0
SEQEND
  5
CF
330
CC
100
AcDbEntity
  8
\U+30EC\U+30A4\U+30E4\U+30FC 1
370
    18
  0
POLYLINE
  5
D0
330
1F
100
AcDbEntity
  8
\U+30EC\U+30A4\U+30E4\U+30FC 1
 62
     7
370
    18
100
AcDb2dPolyline
 66
     1
 10
0.0
 20
0.0
 30
0.0
  0
VERTEX
  5
D1
330
D0
100
AcDbEntity
  8
\U+30EC\U+30A4\U+30E4\U+30FC 1
 62
     7
370
    18
100
AcDbVertex
100
AcDb2dVertex
 10
2.196077565812678
 20
30.78280974182718
 30
0.0
  0
VERTEX
  5
D2
330
D0
100
AcDbEntity
  8
\U+30EC\U+30A4\U+30E4\U+30FC 1
 62
     7
370
    18
100
AcDbVertex
100
AcDb2dVertex
 10
2.202623251552806
 20
31.04222560300169
 30
0.0
  0
SEQEND
  5
D3
330
D0
100
AcDbEntity
  8
\U+30EC\U+30A4\U+30E4\U+30FC 1
370
    18
  0
POLYLINE
  5
D4
330
1F
100
AcDbEntity
  8
\U+30EC\U+30A4\U+30E4\U+30FC 1
 62
     7
370
    18
100
AcDb2dPolyline
 66
     1
 10
0.0
 20
0.0
 30
0.0
  0
VERTEX
  5
D5
330
D4
100
AcDbEntity
  8
\U+30EC\U+30A4\U+30E4\U+30FC 1
 62
     7
370
    18
100
AcDbVertex
100
AcDb2dVertex
 10
2.168172273973189
 20
28.29114278838139
 30
0.0
  0
VERTEX
  5
D6
330
D4
100
AcDbEntity
  8
\U+30EC\U+30A4\U+30E4\U+30FC 1
 62
     7
370
    18
100
AcDbVertex
100
AcDb2dVertex
 10
2.184019723659812
 20
28.69077412830494
 30
0.0
  0
SEQEND
  5
D7
330
D4
100
AcDbEntity
  8
\U+30EC\U+30A4\U+30E4\U+30FC 1
370
    18
  0
POLYLINE
  5
D8
330
1F
100
AcDbEntity
  8
\U+30EC\U+30A4\U+30E4\U+30FC 1
 62
     7
370
    18
100
AcDb2dPolyline
 66
     1
 10
0.0
 20
0.0
 30
0.0
  0
VERTEX
  5
D9
330
D8
100
AcDbEntity
  8
\U+30EC\U+30A4\U+30E4\U+30FC 1
 62
     7
370
    18
100
AcDbVertex
100
AcDb2dVertex
 10
2.113739729397394
 20
28.29114278838139
 30
0.0
  0
VERTEX
  5
DA
330
D8
100
AcDbEntity
  8
\U+30EC\U+30A4\U+30E4\U+30FC 1
 62
     7
370
    18
100
AcDbVertex
100
AcDb2dVertex
 10
2.148535216752807
 20
29.02770468903359
 30
0.0
  0
SEQEND
  5
DB
330
D8
100
AcDbEntity
  8
\U+30EC\U+30A4\U+30E4\U+30FC 1
370
    18
  0
POLYLINE
  5
DC
330
1F
100
AcDbEntity
  8
\U+30EC\U+30A4\U+30E4\U+30FC 1
 62
     7
370
    18
100
AcDb2dPolyline
 66
     1
 10
0.0
 20
0.0
 30
0.0
  0
VERTEX
  5
DD
330
DC
100
AcDbEntity
  8
\U+30EC\U+30A4\U+30E4\U+30FC 1
 62
     7
370
    18
100
AcDbVertex
100
AcDb2dVertex
 10
2.084800908230516
 20
28.29114278838139
 30
0.0
  0
VERTEX
  5
DE
330
DC
100
AcDbEntity
  8
\U+30EC\U+30A4\U+30E4\U+30FC 1
 62
     7
370
    18
100
AcDbVertex
100
AcDb2dVertex
 10
2.104782475226694
 20
28.67699373727309
 30
0.0
  0
SEQEND
  5
DF
330
DC
100
AcDbEntity
  8
\U+30EC\U+30A4\U+30E4\U+30FC 1
370
    18
  0
POLYLINE
  5
E0
330
1F
100
AcDbEntity
  8
\U+30EC\U+30A4\U+30E4\U+30FC 1
 62
     7
370
    18
100
AcDb2dPolyline
 66
     1
 10
0.0
 20
0.0
 30
0.0
  0
VERTEX
  5
E1
330
E0
100
AcDbEntity
  8
\U+30EC\U+30A4\U+30E4\U+30FC 1
 62
     7
370
    18
100
AcDbVertex
100
AcDb2dVertex
 10
2.104782475226694
 20
28.67699373727309
 30
0.0
  0
VERTEX
  5
E2
330
E0
100
AcDbEntity
  8
\U+30EC\U+30A4\U+30E4\U+30FC 1
 62
     7
370
    18
100
AcDbVertex
100
AcDb2dVertex
 10
2.150602275407584
 20
29.05044233423614
 30
0.0
  0
SEQEND
  5
E3
330
E0
100
AcDbEntity
  8
\U+30EC\U+30A4\U+30E4\U+30FC 1
370
    18
  0
POLYLINE
  5
E4
330
1F
100
AcDbEntity
  8
\U+30EC\U+30A4\U+30E4\U+30FC 1
 62
     7
370
    18
100
AcDb2dPolyline
 66
     1
 10
0.0
 20
0.0
 30
0.0
  0
VERTEX
  5
E5
330
E4
100
AcDbEntity
  8
\U+30EC\U+30A4\U+30E4\U+30FC 1
 62
     7
370
    18
100
AcDbVertex
100
AcDb2dVertex
 10
2.58709616134133
 20
29.17653291217754
 30
0.0
  0
VERTEX
  5
E6
330
E4
100
AcDbEntity
  8
\U+30EC\U+30A4\U+30E4\U+30FC 1
 62
     7
370
    18
100
AcDbVertex
100
AcDb2dVertex
 10
2.59157478842668
 20
29.19995957693168
 30
0.0
  0
SEQEND
  5
E7
330
E4
100
AcDbEntity
  8
\U+30EC\U+30A4\U+30E4\U+30FC 1
370
    18
  0
POLYLINE
  5
E8
330
1F
100
AcDbEntity
  8
\U+30EC\U+30A4\U+30E4\U+30FC 1
 62
     7
370
    18
100
AcDb2dPolyline
 66
     1
 10
0.0
 20
0.0
 30
0.0
  0
VERTEX
  5
E9
330
E8
100
AcDbEntity
  8
\U+30EC\U+30A4\U+30E4\U+30FC 1
 62
     7
370
    18
100
AcDbVertex
100
AcDb2dVertex
 10
2.590196749323495
 20
29.05802154930366
 30
0.0
  0
VERTEX
  5
EA
330
E8
100
AcDbEntity
  8
\U+30EC\U+30A4\U+30E4\U+30FC 1
 62
     7
370
    18
100
AcDbVertex
100
AcDb2dVertex
 10
2.621547138920947
 20
29.19995957693168
 30
0.0
  0
SEQEND
  5
EB
330
E8
100
AcDbEntity
  8
\U+30EC\U+30A4\U+30E4\U+30FC 1
370
    18
  0
POLYLINE
  5
EC
330
1F
100
AcDbEntity
  8
\U+30EC\U+30A4\U+30E4\U+30FC 1
 62
     7
370
    18
100
AcDb2dPolyline
 66
     1
 10
0.0
 20
0.0
 30
0.0
  0
VERTEX
  5
ED
330
EC
100
AcDbEntity
  8
\U+30EC\U+30A4\U+30E4\U+30FC 1
 62
     7
370
    18
100
AcDbVertex
100
AcDb2dVertex
 10
2.154047373165546
 20
29.17653291217754
 30
0.0
  0
VERTEX
  5
EE
330
EC
100
AcDbEntity
  8
\U+30EC\U+30A4\U+30E4\U+30FC 1
 62
     7
370
    18
100
AcDbVertex
100
AcDb2dVertex
 10
2.149568746080195
 20
29.19995957693168
 30
0.0
  0
SEQEND
  5
EF
330
EC
100
AcDbEntity
  8
\U+30EC\U+30A4\U+30E4\U+30FC 1
370
    18
  0
POLYLINE
  5
F0
330
1F
100
AcDbEntity
  8
\U+30EC\U+30A4\U+30E4\U+30FC 1
 62
     7
370
    18
100
AcDb2dPolyline
 66
     1
 10
0.0
 20
0.0
 30
0.0
  0
VERTEX
  5
F1
330
F0
100
AcDbEntity
  8
\U+30EC\U+30A4\U+30E4\U+30FC 1
 62
     7
370
    18
100
AcDbVertex
100
AcDb2dVertex
 10
2.636016549504386
 20
28.67699373727309
 30
0.0
  0
VERTEX
  5
F2
330
F0
100
AcDbEntity
  8
\U+30EC\U+30A4\U+30E4\U+30FC 1
 62
     7
370
    18
100
AcDbVertex
100
AcDb2dVertex
 10
2.590196749323495
 20
29.05044233423614
 30
0.0
  0
SEQEND
  5
F3
330
F0
100
AcDbEntity
  8
\U+30EC\U+30A4\U+30E4\U+30FC 1
370
    18
  0
POLYLINE
  5
F4
330
1F
100
AcDbEntity
  8
\U+30EC\U+30A4\U+30E4\U+30FC 1
 62
     7
370
    18
100
AcDb2dPolyline
 66
     1
 10
0.0
 20
0.0
 30
0.0
  0
VERTEX
  5
F5
330
F4
100
AcDbEntity
  8
\U+30EC\U+30A4\U+30E4\U+30FC 1
 62
     7
370
    18
100
AcDbVertex
100
AcDb2dVertex
 10
2.149568746080195
 20
30.43743869159152
 30
0.0
  0
VERTEX
  5
F6
330
F4
100
AcDbEntity
  8
\U+30EC\U+30A4\U+30E4\U+30FC 1
 62
     7
370
    18
100
AcDbVertex
100
AcDb2dVertex
 10
2.188842860520959
 20
30.49945045123483
 30
0.0
  0
SEQEND
  5
F7
330
F4
100
AcDbEntity
  8
\U+30EC\U+30A4\U+30E4\U+30FC 1
370
    18
  0
POLYLINE
  5
F8
330
1F
100
AcDbEntity
  8
\U+30EC\U+30A4\U+30E4\U+30FC 1
 62
     7
370
    18
100
AcDb2dPolyline
 66
     1
 10
0.0
 20
0.0
 30
0.0
  0
VERTEX
  5
F9
330
F8
100
AcDbEntity
  8
\U+30EC\U+30A4\U+30E4\U+30FC 1
 62
     7
370
    18
100
AcDbVertex
100
AcDb2dVertex
 10
2.59157478842668
 20
30.43743869159152
 30
0.0
  0
VERTEX
  5
FA
330
F8
100
AcDbEntity
  8
\U+30EC\U+30A4\U+30E4\U+30FC 1
 62
     7
370
    18
100
AcDbVertex
100
AcDb2dVertex
 10
2.552645183761713
 20
30.49945045123483
 30
0.0
  0
SEQEND
  5
FB
330
F8
100
AcDbEntity
  8
\U+30EC\U+30A4\U+30E4\U+30FC 1
370
    18
  0
POLYLINE
  5
FC
330
1F
100
AcDbEntity
  8
\U+30EC\U+30A4\U+30E4\U+30FC 1
 62
     7
370
    18
100
AcDb2dPolyline
 66
     1
 10
0.0
 20
0.0
 30
0.0
  0
VERTEX
  5
FD
330
FC
100
AcDbEntity
  8
\U+30EC\U+30A4\U+30E4\U+30FC 1
 62
     7
370
    18
100
AcDbVertex
100
AcDb2dVertex
 10
2.621547138920947
 20
30.43743869159152
 30
0.0
  0
VERTEX
  5
FE
330
FC
100
AcDbEntity
  8
\U+30EC\U+30A4\U+30E4\U+30FC 1
 62
     7
370
    18
100
AcDbVertex
100
AcDb2dVertex
 10
2.551267144658528
 20
30.53321240926285
 30
0.0
  0
SEQEND
  5
FF
330
FC
100
AcDbEntity
  8
\U+30EC\U+30A4\U+30E4\U+30FC 1
370
    18
  0
POLYLINE
  5
100
330
1F
100
AcDbEntity
  8
\U+30EC\U+30A4\U+30E4\U+30FC 1
 62
     7
370
    18
100
AcDb2dPolyline
 66
     1
 10
0.0
 20
0.0
 30
0.0
  0
VERTEX
  5
101
330
100
100
AcDbEntity
  8
\U+30EC\U+30A4\U+30E4\U+30FC 1
 62
     7
370
    18
100
AcDbVertex
100
AcDb2dVertex
 10
1.893942492439438
 20
23.01532008183885
 30
0.0
  0
VERTEX
  5
102
330
100
100
AcDbEntity
  8
\U+30EC\U+30A4\U+30E4\U+30FC 1
 62
     7
370
    18
100
AcDbVertex
100
AcDb2dVertex
 10
46.96185008765475
 20
23.01532008183885
 30
0.0
  0
SEQEND
  5
103
330
100
100
AcDbEntity
  8
\U+30EC\U+30A4\U+30E4\U+30FC 1
370
    18
  0
POLYLINE
  5
104
330
1F
100
AcDbEntity
  8
\U+30EC\U+30A4\U+30E4\U+30FC 1
 62
     7
370
    18
100
AcDb2dPolyline
 66
     1
 10
0.0
 20
0.0
 30
0.0
  0
VERTEX
  5
105
330
104
100
AcDbEntity
  8
\U+30EC\U+30A4\U+30E4\U+30FC 1
 62
     7
370
    18
100
AcDbVertex
100
AcDb2dVertex
 10
1.893942492439438
 20
23.38118946373439
 30
0.0
  0
VERTEX
  5
106
330
104
100
AcDbEntity
  8
\U+30EC\U+30A4\U+30E4\U+30FC 1
 62
     7
370
    18
100
AcDbVertex
100
AcDb2dVertex
 10
46.96185008765475
 20
23.38118946373439
 30
0.0
  0
SEQEND
  5
107
330
104
100
AcDbEntity
  8
\U+30EC\U+30A4\U+30E4\U+30FC 1
370
    18
  0
POLYLINE
  5
108
330
1F
100
AcDbEntity
  8
\U+30EC\U+30A4\U+30E4\U+30FC 1
 62
     7
370
    18
100
AcDb2dPolyline
 66
     1
 10
0.0
 20
0.0
 30
0.0
  0
VERTEX
  5
109
330
108
100
AcDbEntity
  8
\U+30EC\U+30A4\U+30E4\U+30FC 1
 62
     7
370
    18
100
AcDbVertex
100
AcDb2dVertex
 10
1.893942492439438
 20
27.77851224199669
 30
0.0
  0
VERTEX
  5
10A
330
108
100
AcDbEntity
  8
\U+30EC\U+30A4\U+30E4\U+30FC 1
 62
     7
370
    18
100
AcDbVertex
100
AcDb2dVertex
 10
2.993617696780809
 20
27.77851224199669
 30
0.0
  0
SEQEND
  5
10B
330
108
100
AcDbEntity
  8
\U+30EC\U+30A4\U+30E4\U+30FC 1
370
    18
  0
POLYLINE
  5
10C
330
1F
100
AcDbEntity
  8
\U+30EC\U+30A4\U+30E4\U+30FC 1
 62
     7
370
    18
100
AcDb2dPolyline
 66
     1
 10
0.0
 20
0.0
 30
0.0
  0
VERTEX
  5
10D
330
10C
100
AcDbEntity
  8
\U+30EC\U+30A4\U+30E4\U+30FC 1
 62
     7
370
    18
100
AcDbVertex
100
AcDb2dVertex
 10
45.86286390286498
 20
27.77851224199669
 30
0.0
  0
VERTEX
  5
10E
330
10C
100
AcDbEntity
  8
\U+30EC\U+30A4\U+30E4\U+30FC 1
 62
     7
370
    18
100
AcDbVertex
100
AcDb2dVertex
 10
46.96185008765475
 20
27.77851224199669
 30
0.0
  0
SEQEND
  5
10F
330
10C
100
AcDbEntity
  8
\U+30EC\U+30A4\U+30E4\U+30FC 1
370
    18
  0
POLYLINE
  5
110
330
1F
100
AcDbEntity
  8
\U+30EC\U+30A4\U+30E4\U+30FC 1
 62
     7
370
    18
100
AcDb2dPolyline
 66
     1
 10
0.0
 20
0.0
 30
0.0
  0
VERTEX
  5
111
330
110
100
AcDbEntity
  8
\U+30EC\U+30A4\U+30E4\U+30FC 1
 62
     7
370
    18
100
AcDbVertex
100
AcDb2dVertex
 10
2.154391882941342
 20
28.2181067159126
 30
0.0
  0
VERTEX
  5
112
330
110
100
AcDbEntity
  8
\U+30EC\U+30A4\U+30E4\U+30FC 1
 62
     7
370
    18
100
AcDbVertex
100
AcDb2dVertex
 10
2.586751651565534
 20
28.2181067159126
 30
0.0
  0
SEQEND
  5
113
330
110
100
AcDbEntity
  8
\U+30EC\U+30A4\U+30E4\U+30FC 1
370
    18
  0
POLYLINE
  5
114
330
1F
100
AcDbEntity
  8
\U+30EC\U+30A4\U+30E4\U+30FC 1
 62
     7
370
    18
100
AcDb2dPolyline
 66
     1
 10
0.0
 20
0.0
 30
0.0
  0
VERTEX
  5
115
330
114
100
AcDbEntity
  8
\U+30EC\U+30A4\U+30E4\U+30FC 1
 62
     7
370
    18
100
AcDbVertex
100
AcDb2dVertex
 10
46.12262427381529
 20
28.2181067159126
 30
0.0
  0
VERTEX
  5
116
330
114
100
AcDbEntity
  8
\U+30EC\U+30A4\U+30E4\U+30FC 1
 62
     7
370
    18
100
AcDbVertex
100
AcDb2dVertex
 10
46.55532855221528
 20
28.2181067159126
 30
0.0
  0
SEQEND
  5
117
330
114
100
AcDbEntity
  8
\U+30EC\U+30A4\U+30E4\U+30FC 1
370
    18
  0
POLYLINE
  5
118
330
1F
100
AcDbEntity
  8
\U+30EC\U+30A4\U+30E4\U+30FC 1
 62
     7
370
    18
100
AcDb2dPolyline
 66
     1
 10
0.0
 20
0.0
 30
0.0
  0
VERTEX
  5
119
330
118
100
AcDbEntity
  8
\U+30EC\U+30A4\U+30E4\U+30FC 1
 62
     7
370
    18
100
AcDbVertex
100
AcDb2dVertex
 10
46.62491952692611
 20
28.29114278838139
 30
0.0
  0
VERTEX
  5
11A
330
118
100
AcDbEntity
  8
\U+30EC\U+30A4\U+30E4\U+30FC 1
 62
     7
370
    18
100
AcDbVertex
100
AcDb2dVertex
 10
46.05303329910446
 20
28.29114278838139
 30
0.0
  0
SEQEND
  5
11B
330
118
100
AcDbEntity
  8
\U+30EC\U+30A4\U+30E4\U+30FC 1
370
    18
  0
POLYLINE
  5
11C
330
1F
100
AcDbEntity
  8
\U+30EC\U+30A4\U+30E4\U+30FC 1
 62
     7
370
    18
100
AcDb2dPolyline
 66
     1
 10
0.0
 20
0.0
 30
0.0
  0
VERTEX
  5
11D
330
11C
100
AcDbEntity
  8
\U+30EC\U+30A4\U+30E4\U+30FC 1
 62
     7
370
    18
100
AcDbVertex
100
AcDb2dVertex
 10
2.65634262627636
 20
28.29114278838139
 30
0.0
  0
VERTEX
  5
11E
330
11C
100
AcDbEntity
  8
\U+30EC\U+30A4\U+30E4\U+30FC 1
 62
     7
370
    18
100
AcDbVertex
100
AcDb2dVertex
 10
2.084800908230516
 20
28.29114278838139
 30
0.0
  0
SEQEND
  5
11F
330
11C
100
AcDbEntity
  8
\U+30EC\U+30A4\U+30E4\U+30FC 1
370
    18
  0
POLYLINE
  5
120
330
1F
100
AcDbEntity
  8
\U+30EC\U+30A4\U+30E4\U+30FC 1
 62
     7
370
    18
100
AcDb2dPolyline
 66
     1
 10
0.0
 20
0.0
 30
0.0
  0
VERTEX
  5
121
330
120
100
AcDbEntity
  8
\U+30EC\U+30A4\U+30E4\U+30FC 1
 62
     7
370
    18
100
AcDbVertex
100
AcDb2dVertex
 10
2.150602275407584
 20
29.05044233423614
 30
0.0
  0
VERTEX
  5
122
330
120
100
AcDbEntity
  8
\U+30EC\U+30A4\U+30E4\U+30FC 1
 62
     7
370
    18
100
AcDbVertex
100
AcDb2dVertex
 10
2.590196749323495
 20
29.05044233423614
 30
0.0
  0
SEQEND
  5
123
330
120
100
AcDbEntity
  8
\U+30EC\U+30A4\U+30E4\U+30FC 1
370
    18
  0
POLYLINE
  5
124
330
1F
100
AcDbEntity
  8
\U+30EC\U+30A4\U+30E4\U+30FC 1
 62
     7
370
    18
100
AcDb2dPolyline
 66
     1
 10
0.0
 20
0.0
 30
0.0
  0
VERTEX
  5
125
330
124
100
AcDbEntity
  8
\U+30EC\U+30A4\U+30E4\U+30FC 1
 62
     7
370
    18
100
AcDbVertex
100
AcDb2dVertex
 10
46.11986819560892
 20
29.05044233423614
 30
0.0
  0
VERTEX
  5
126
330
124
100
AcDbEntity
  8
\U+30EC\U+30A4\U+30E4\U+30FC 1
 62
     7
370
    18
100
AcDbVertex
100
AcDb2dVertex
 10
46.55877364997324
 20
29.05044233423614
 30
0.0
  0
SEQEND
  5
127
330
124
100
AcDbEntity
  8
\U+30EC\U+30A4\U+30E4\U+30FC 1
370
    18
  0
POLYLINE
  5
128
330
1F
100
AcDbEntity
  8
\U+30EC\U+30A4\U+30E4\U+30FC 1
 62
     7
370
    18
100
AcDb2dPolyline
 66
     1
 10
0.0
 20
0.0
 30
0.0
  0
VERTEX
  5
129
330
128
100
AcDbEntity
  8
\U+30EC\U+30A4\U+30E4\U+30FC 1
 62
     7
370
    18
100
AcDbVertex
100
AcDb2dVertex
 10
46.3465556280828
 20
29.19995957693168
 30
0.0
  0
VERTEX
  5
12A
330
128
100
AcDbEntity
  8
\U+30EC\U+30A4\U+30E4\U+30FC 1
 62
     7
370
    18
100
AcDbVertex
100
AcDb2dVertex
 10
46.33139719794777
 20
29.19995957693168
 30
0.0
  0
SEQEND
  5
12B
330
128
100
AcDbEntity
  8
\U+30EC\U+30A4\U+30E4\U+30FC 1
370
    18
  0
POLYLINE
  5
12C
330
1F
100
AcDbEntity
  8
\U+30EC\U+30A4\U+30E4\U+30FC 1
 62
     7
370
    18
100
AcDb2dPolyline
 66
     1
 10
0.0
 20
0.0
 30
0.0
  0
VERTEX
  5
12D
330
12C
100
AcDbEntity
  8
\U+30EC\U+30A4\U+30E4\U+30FC 1
 62
     7
370
    18
100
AcDbVertex
100
AcDb2dVertex
 10
2.377634217657259
 20
29.19995957693168
 30
0.0
  0
VERTEX
  5
12E
330
12C
100
AcDbEntity
  8
\U+30EC\U+30A4\U+30E4\U+30FC 1
 62
     7
370
    18
100
AcDbVertex
100
AcDb2dVertex
 10
2.36316480707382
 20
29.19995957693168
 30
0.0
  0
SEQEND
  5
12F
330
12C
100
AcDbEntity
  8
\U+30EC\U+30A4\U+30E4\U+30FC 1
370
    18
  0
POLYLINE
  5
130
330
1F
100
AcDbEntity
  8
\U+30EC\U+30A4\U+30E4\U+30FC 1
 62
     7
370
    18
100
AcDb2dPolyline
 66
     1
 10
0.0
 20
0.0
 30
0.0
  0
VERTEX
  5
131
330
130
100
AcDbEntity
  8
\U+30EC\U+30A4\U+30E4\U+30FC 1
 62
     7
370
    18
100
AcDbVertex
100
AcDb2dVertex
 10
2.198489134243252
 20
30.34304301302337
 30
0.0
  0
VERTEX
  5
132
330
130
100
AcDbEntity
  8
\U+30EC\U+30A4\U+30E4\U+30FC 1
 62
     7
370
    18
100
AcDbVertex
100
AcDb2dVertex
 10
2.224327367427964
 20
30.34304301302337
 30
0.0
  0
SEQEND
  5
133
330
130
100
AcDbEntity
  8
\U+30EC\U+30A4\U+30E4\U+30FC 1
370
    18
  0
POLYLINE
  5
134
330
1F
100
AcDbEntity
  8
\U+30EC\U+30A4\U+30E4\U+30FC 1
 62
     7
370
    18
100
AcDb2dPolyline
 66
     1
 10
0.0
 20
0.0
 30
0.0
  0
VERTEX
  5
135
330
134
100
AcDbEntity
  8
\U+30EC\U+30A4\U+30E4\U+30FC 1
 62
     7
370
    18
100
AcDbVertex
100
AcDb2dVertex
 10
2.516816167078912
 20
30.34304301302337
 30
0.0
  0
VERTEX
  5
136
330
134
100
AcDbEntity
  8
\U+30EC\U+30A4\U+30E4\U+30FC 1
 62
     7
370
    18
100
AcDbVertex
100
AcDb2dVertex
 10
2.542654400263624
 20
30.34304301302337
 30
0.0
  0
SEQEND
  5
137
330
134
100
AcDbEntity
  8
\U+30EC\U+30A4\U+30E4\U+30FC 1
370
    18
  0
POLYLINE
  5
138
330
1F
100
AcDbEntity
  8
\U+30EC\U+30A4\U+30E4\U+30FC 1
 62
     7
370
    18
100
AcDb2dPolyline
 66
     1
 10
0.0
 20
0.0
 30
0.0
  0
VERTEX
  5
139
330
138
100
AcDbEntity
  8
\U+30EC\U+30A4\U+30E4\U+30FC 1
 62
     7
370
    18
100
AcDbVertex
100
AcDb2dVertex
 10
46.1667215251172
 20
30.34304301302337
 30
0.0
  0
VERTEX
  5
13A
330
138
100
AcDbEntity
  8
\U+30EC\U+30A4\U+30E4\U+30FC 1
 62
     7
370
    18
100
AcDbVertex
100
AcDb2dVertex
 10
46.19221524852612
 20
30.34304301302337
 30
0.0
  0
SEQEND
  5
13B
330
138
100
AcDbEntity
  8
\U+30EC\U+30A4\U+30E4\U+30FC 1
370
    18
  0
POLYLINE
  5
13C
330
1F
100
AcDbEntity
  8
\U+30EC\U+30A4\U+30E4\U+30FC 1
 62
     7
370
    18
100
AcDb2dPolyline
 66
     1
 10
0.0
 20
0.0
 30
0.0
  0
VERTEX
  5
13D
330
13C
100
AcDbEntity
  8
\U+30EC\U+30A4\U+30E4\U+30FC 1
 62
     7
370
    18
100
AcDbVertex
100
AcDb2dVertex
 10
46.48504855795286
 20
30.34304301302337
 30
0.0
  0
VERTEX
  5
13E
330
13C
100
AcDbEntity
  8
\U+30EC\U+30A4\U+30E4\U+30FC 1
 62
     7
370
    18
100
AcDbVertex
100
AcDb2dVertex
 10
46.51123130091337
 20
30.34304301302337
 30
0.0
  0
SEQEND
  5
13F
330
13C
100
AcDbEntity
  8
\U+30EC\U+30A4\U+30E4\U+30FC 1
370
    18
  0
POLYLINE
  5
140
330
1F
100
AcDbEntity
  8
\U+30EC\U+30A4\U+30E4\U+30FC 1
 62
     7
370
    18
100
AcDb2dPolyline
 66
     1
 10
0.0
 20
0.0
 30
0.0
  0
VERTEX
  5
141
330
140
100
AcDbEntity
  8
\U+30EC\U+30A4\U+30E4\U+30FC 1
 62
     7
370
    18
100
AcDbVertex
100
AcDb2dVertex
 10
46.3465556280828
 20
30.43743869159152
 30
0.0
  0
VERTEX
  5
142
330
140
100
AcDbEntity
  8
\U+30EC\U+30A4\U+30E4\U+30FC 1
 62
     7
370
    18
100
AcDbVertex
100
AcDb2dVertex
 10
46.33139719794777
 20
30.43743869159152
 30
0.0
  0
SEQEND
  5
143
330
140
100
AcDbEntity
  8
\U+30EC\U+30A4\U+30E4\U+30FC 1
370
    18
  0
POLYLINE
  5
144
330
1F
100
AcDbEntity
  8
\U+30EC\U+30A4\U+30E4\U+30FC 1
 62
     7
370
    18
100
AcDb2dPolyline
 66
     1
 10
0.0
 20
0.0
 30
0.0
  0
VERTEX
  5
145
330
144
100
AcDbEntity
  8
\U+30EC\U+30A4\U+30E4\U+30FC 1
 62
     7
370
    18
100
AcDbVertex
100
AcDb2dVertex
 10
2.377634217657259
 20
30.43743869159152
 30
0.0
  0
VERTEX
  5
146
330
144
100
AcDbEntity
  8
\U+30EC\U+30A4\U+30E4\U+30FC 1
 62
     7
370
    18
100
AcDbVertex
100
AcDb2dVertex
 10
2.36316480707382
 20
30.43743869159152
 30
0.0
  0
SEQEND
  5
147
330
144
100
AcDbEntity
  8
\U+30EC\U+30A4\U+30E4\U+30FC 1
370
    18
  0
POLYLINE
  5
148
330
1F
100
AcDbEntity
  8
\U+30EC\U+30A4\U+30E4\U+30FC 1
 62
     7
370
    18
100
AcDb2dPolyline
 66
     1
 10
0.0
 20
0.0
 30
0.0
  0
VERTEX
  5
149
330
148
100
AcDbEntity
  8
\U+30EC\U+30A4\U+30E4\U+30FC 1
 62
     7
370
    18
100
AcDbVertex
100
AcDb2dVertex
 10
2.195388546261086
 20
30.7538709206603
 30
0.0
  0
VERTEX
  5
14A
330
148
100
AcDbEntity
  8
\U+30EC\U+30A4\U+30E4\U+30FC 1
 62
     7
370
    18
100
AcDbVertex
100
AcDb2dVertex
 10
2.54575498824579
 20
30.7538709206603
 30
0.0
  0
SEQEND
  5
14B
330
148
100
AcDbEntity
  8
\U+30EC\U+30A4\U+30E4\U+30FC 1
370
    18
  0
POLYLINE
  5
14C
330
1F
100
AcDbEntity
  8
\U+30EC\U+30A4\U+30E4\U+30FC 1
 62
     7
370
    18
100
AcDb2dPolyline
 66
     1
 10
0.0
 20
0.0
 30
0.0
  0
VERTEX
  5
14D
330
14C
100
AcDbEntity
  8
\U+30EC\U+30A4\U+30E4\U+30FC 1
 62
     7
370
    18
100
AcDbVertex
100
AcDb2dVertex
 10
46.16396544691083
 20
30.7538709206603
 30
0.0
  0
VERTEX
  5
14E
330
14C
100
AcDbEntity
  8
\U+30EC\U+30A4\U+30E4\U+30FC 1
 62
     7
370
    18
100
AcDbVertex
100
AcDb2dVertex
 10
46.51398737911974
 20
30.7538709206603
 30
0.0
  0
SEQEND
  5
14F
330
14C
100
AcDbEntity
  8
\U+30EC\U+30A4\U+30E4\U+30FC 1
370
    18
  0
POLYLINE
  5
150
330
1F
100
AcDbEntity
  8
\U+30EC\U+30A4\U+30E4\U+30FC 1
 62
     7
370
    18
100
AcDb2dPolyline
 66
     1
 10
0.0
 20
0.0
 30
0.0
  0
VERTEX
  5
151
330
150
100
AcDbEntity
  8
\U+30EC\U+30A4\U+30E4\U+30FC 1
 62
     7
370
    18
100
AcDbVertex
100
AcDb2dVertex
 10
46.51398737911974
 20
30.78280974182718
 30
0.0
  0
VERTEX
  5
152
330
150
100
AcDbEntity
  8
\U+30EC\U+30A4\U+30E4\U+30FC 1
 62
     7
370
    18
100
AcDbVertex
100
AcDb2dVertex
 10
46.16465446646242
 20
30.78280974182718
 30
0.0
  0
SEQEND
  5
153
330
150
100
AcDbEntity
  8
\U+30EC\U+30A4\U+30E4\U+30FC 1
370
    18
  0
POLYLINE
  5
154
330
1F
100
AcDbEntity
  8
\U+30EC\U+30A4\U+30E4\U+30FC 1
 62
     7
370
    18
100
AcDb2dPolyline
 66
     1
 10
0.0
 20
0.0
 30
0.0
  0
VERTEX
  5
155
330
154
100
AcDbEntity
  8
\U+30EC\U+30A4\U+30E4\U+30FC 1
 62
     7
370
    18
100
AcDbVertex
100
AcDb2dVertex
 10
2.545065968694197
 20
30.78280974182718
 30
0.0
  0
VERTEX
  5
156
330
154
100
AcDbEntity
  8
\U+30EC\U+30A4\U+30E4\U+30FC 1
 62
     7
370
    18
100
AcDbVertex
100
AcDb2dVertex
 10
2.196077565812678
 20
30.78280974182718
 30
0.0
  0
SEQEND
  5
157
330
154
100
AcDbEntity
  8
\U+30EC\U+30A4\U+30E4\U+30FC 1
370
    18
  0
POLYLINE
  5
158
330
1F
100
AcDbEntity
  8
\U+30EC\U+30A4\U+30E4\U+30FC 1
 62
     7
370
    18
100
AcDb2dPolyline
 66
     1
 10
0.0
 20
0.0
 30
0.0
  0
VERTEX
  5
159
330
158
100
AcDbEntity
  8
\U+30EC\U+30A4\U+30E4\U+30FC 1
 62
     7
370
    18
100
AcDbVertex
100
AcDb2dVertex
 10
2.202623251552806
 20
31.04222560300169
 30
0.0
  0
VERTEX
  5
15A
330
158
100
AcDbEntity
  8
\U+30EC\U+30A4\U+30E4\U+30FC 1
 62
     7
370
    18
100
AcDbVertex
100
AcDb2dVertex
 10
2.538175773178274
 20
31.04222560300169
 30
0.0
  0
SEQEND
  5
15B
330
158
100
AcDbEntity
  8
\U+30EC\U+30A4\U+30E4\U+30FC 1
370
    18
  0
POLYLINE
  5
15C
330
1F
100
AcDbEntity
  8
\U+30EC\U+30A4\U+30E4\U+30FC 1
 62
     7
370
    18
100
AcDb2dPolyline
 66
     1
 10
0.0
 20
0.0
 30
0.0
  0
VERTEX
  5
15D
330
15C
100
AcDbEntity
  8
\U+30EC\U+30A4\U+30E4\U+30FC 1
 62
     7
370
    18
100
AcDbVertex
100
AcDb2dVertex
 10
46.17154466197834
 20
31.04222560300169
 30
0.0
  0
VERTEX
  5
15E
330
15C
100
AcDbEntity
  8
\U+30EC\U+30A4\U+30E4\U+30FC 1
 62
     7
370
    18
100
AcDbVertex
100
AcDb2dVertex
 10
46.50640816405222
 20
31.04222560300169
 30
0.0
  0
SEQEND
  5
15F
330
15C
100
AcDbEntity
  8
\U+30EC\U+30A4\U+30E4\U+30FC 1
370
    18
  0
POLYLINE
  5
160
330
1F
100
AcDbEntity
  8
\U+30EC\U+30A4\U+30E4\U+30FC 1
 62
     7
370
    18
100
AcDb2dPolyline
 66
     1
 10
0.0
 20
0.0
 30
0.0
  0
VERTEX
  5
161
330
160
100
AcDbEntity
  8
\U+30EC\U+30A4\U+30E4\U+30FC 1
 62
     7
370
    18
100
AcDbVertex
100
AcDb2dVertex
 10
2.31286637980758
 20
31.1490236334985
 30
0.0
  0
VERTEX
  5
162
330
160
100
AcDbEntity
  8
\U+30EC\U+30A4\U+30E4\U+30FC 1
 62
     7
370
    18
100
AcDbVertex
100
AcDb2dVertex
 10
2.428277154699296
 20
31.1490236334985
 30
0.0
  0
SEQEND
  5
163
330
160
100
AcDbEntity
  8
\U+30EC\U+30A4\U+30E4\U+30FC 1
370
    18
  0
POLYLINE
  5
164
330
1F
100
AcDbEntity
  8
\U+30EC\U+30A4\U+30E4\U+30FC 1
 62
     7
370
    18
100
AcDb2dPolyline
 66
     1
 10
0.0
 20
0.0
 30
0.0
  0
VERTEX
  5
165
330
164
100
AcDbEntity
  8
\U+30EC\U+30A4\U+30E4\U+30FC 1
 62
     7
370
    18
100
AcDbVertex
100
AcDb2dVertex
 10
46.28109877068152
 20
31.1490236334985
 30
0.0
  0
VERTEX
  5
166
330
164
100
AcDbEntity
  8
\U+30EC\U+30A4\U+30E4\U+30FC 1
 62
     7
370
    18
100
AcDbVertex
100
AcDb2dVertex
 10
46.39685405534904
 20
31.1490236334985
 30
0.0
  0
SEQEND
  5
167
330
164
100
AcDbEntity
  8
\U+30EC\U+30A4\U+30E4\U+30FC 1
370
    18
  0
POLYLINE
  5
168
330
1F
100
AcDbEntity
  8
\U+30EC\U+30A4\U+30E4\U+30FC 1
 62
     7
370
    18
100
AcDb2dPolyline
 66
     1
 10
0.0
 20
0.0
 30
0.0
  0
VERTEX
  5
169
330
168
100
AcDbEntity
  8
\U+30EC\U+30A4\U+30E4\U+30FC 1
 62
     7
370
    18
100
AcDbVertex
100
AcDb2dVertex
 10
46.11849015650574
 20
30.43743869159152
 30
0.0
  0
VERTEX
  5
16A
330
168
100
AcDbEntity
  8
\U+30EC\U+30A4\U+30E4\U+30FC 1
 62
     7
370
    18
100
AcDbVertex
100
AcDb2dVertex
 10
46.15707525139491
 20
30.49945045123483
 30
0.0
  0
SEQEND
  5
16B
330
168
100
AcDbEntity
  8
\U+30EC\U+30A4\U+30E4\U+30FC 1
370
    18
  0
POLYLINE
  5
16C
330
1F
100
AcDbEntity
  8
\U+30EC\U+30A4\U+30E4\U+30FC 1
 62
     7
370
    18
100
AcDb2dPolyline
 66
     1
 10
0.0
 20
0.0
 30
0.0
  0
VERTEX
  5
16D
330
16C
100
AcDbEntity
  8
\U+30EC\U+30A4\U+30E4\U+30FC 1
 62
     7
370
    18
100
AcDbVertex
100
AcDb2dVertex
 10
46.59046854934649
 20
30.43743869159152
 30
0.0
  0
VERTEX
  5
16E
330
16C
100
AcDbEntity
  8
\U+30EC\U+30A4\U+30E4\U+30FC 1
 62
     7
370
    18
100
AcDbVertex
100
AcDb2dVertex
 10
46.51949953553247
 20
30.53321240926285
 30
0.0
  0
SEQEND
  5
16F
330
16C
100
AcDbEntity
  8
\U+30EC\U+30A4\U+30E4\U+30FC 1
370
    18
  0
POLYLINE
  5
170
330
1F
100
AcDbEntity
  8
\U+30EC\U+30A4\U+30E4\U+30FC 1
 62
     7
370
    18
100
AcDb2dPolyline
 66
     1
 10
0.0
 20
0.0
 30
0.0
  0
VERTEX
  5
171
330
170
100
AcDbEntity
  8
\U+30EC\U+30A4\U+30E4\U+30FC 1
 62
     7
370
    18
100
AcDbVertex
100
AcDb2dVertex
 10
46.62491952692611
 20
28.29114278838139
 30
0.0
  0
VERTEX
  5
172
330
170
100
AcDbEntity
  8
\U+30EC\U+30A4\U+30E4\U+30FC 1
 62
     7
370
    18
100
AcDbVertex
100
AcDb2dVertex
 10
46.60493795992993
 20
28.67699373727309
 30
0.0
  0
SEQEND
  5
173
330
170
100
AcDbEntity
  8
\U+30EC\U+30A4\U+30E4\U+30FC 1
370
    18
  0
POLYLINE
  5
174
330
1F
100
AcDbEntity
  8
\U+30EC\U+30A4\U+30E4\U+30FC 1
 62
     7
370
    18
100
AcDb2dPolyline
 66
     1
 10
0.0
 20
0.0
 30
0.0
  0
VERTEX
  5
175
330
174
100
AcDbEntity
  8
\U+30EC\U+30A4\U+30E4\U+30FC 1
 62
     7
370
    18
100
AcDbVertex
100
AcDb2dVertex
 10
46.59598070575922
 20
28.29114278838139
 30
0.0
  0
VERTEX
  5
176
330
174
100
AcDbEntity
  8
\U+30EC\U+30A4\U+30E4\U+30FC 1
 62
     7
370
    18
100
AcDbVertex
100
AcDb2dVertex
 10
46.56084070862801
 20
29.02770468903359
 30
0.0
  0
SEQEND
  5
177
330
174
100
AcDbEntity
  8
\U+30EC\U+30A4\U+30E4\U+30FC 1
370
    18
  0
POLYLINE
  5
178
330
1F
100
AcDbEntity
  8
\U+30EC\U+30A4\U+30E4\U+30FC 1
 62
     7
370
    18
100
AcDb2dPolyline
 66
     1
 10
0.0
 20
0.0
 30
0.0
  0
VERTEX
  5
179
330
178
100
AcDbEntity
  8
\U+30EC\U+30A4\U+30E4\U+30FC 1
 62
     7
370
    18
100
AcDbVertex
100
AcDb2dVertex
 10
46.54085914163184
 20
28.29114278838139
 30
0.0
  0
VERTEX
  5
17A
330
178
100
AcDbEntity
  8
\U+30EC\U+30A4\U+30E4\U+30FC 1
 62
     7
370
    18
100
AcDbVertex
100
AcDb2dVertex
 10
46.5257007114968
 20
28.69077412830494
 30
0.0
  0
SEQEND
  5
17B
330
178
100
AcDbEntity
  8
\U+30EC\U+30A4\U+30E4\U+30FC 1
370
    18
  0
POLYLINE
  5
17C
330
1F
100
AcDbEntity
  8
\U+30EC\U+30A4\U+30E4\U+30FC 1
 62
     7
370
    18
100
AcDb2dPolyline
 66
     1
 10
0.0
 20
0.0
 30
0.0
  0
VERTEX
  5
17D
330
17C
100
AcDbEntity
  8
\U+30EC\U+30A4\U+30E4\U+30FC 1
 62
     7
370
    18
100
AcDbVertex
100
AcDb2dVertex
 10
46.55877364997324
 20
29.05044233423614
 30
0.0
  0
VERTEX
  5
17E
330
17C
100
AcDbEntity
  8
\U+30EC\U+30A4\U+30E4\U+30FC 1
 62
     7
370
    18
100
AcDbVertex
100
AcDb2dVertex
 10
46.51398737911974
 20
30.7538709206603
 30
0.0
  0
SEQEND
  5
17F
330
17C
100
AcDbEntity
  8
\U+30EC\U+30A4\U+30E4\U+30FC 1
370
    18
  0
POLYLINE
  5
180
330
1F
100
AcDbEntity
  8
\U+30EC\U+30A4\U+30E4\U+30FC 1
 62
     7
370
    18
100
AcDb2dPolyline
 66
     1
 10
0.0
 20
0.0
 30
0.0
  0
VERTEX
  5
181
330
180
100
AcDbEntity
  8
\U+30EC\U+30A4\U+30E4\U+30FC 1
 62
     7
370
    18
100
AcDbVertex
100
AcDb2dVertex
 10
46.51398737911974
 20
30.78280974182718
 30
0.0
  0
VERTEX
  5
182
330
180
100
AcDbEntity
  8
\U+30EC\U+30A4\U+30E4\U+30FC 1
 62
     7
370
    18
100
AcDbVertex
100
AcDb2dVertex
 10
46.50640816405222
 20
31.04222560300169
 30
0.0
  0
SEQEND
  5
183
330
180
100
AcDbEntity
  8
\U+30EC\U+30A4\U+30E4\U+30FC 1
370
    18
  0
POLYLINE
  5
184
330
1F
100
AcDbEntity
  8
\U+30EC\U+30A4\U+30E4\U+30FC 1
 62
     7
370
    18
100
AcDb2dPolyline
 66
     1
 10
0.0
 20
0.0
 30
0.0
  0
VERTEX
  5
185
330
184
100
AcDbEntity
  8
\U+30EC\U+30A4\U+30E4\U+30FC 1
 62
     7
370
    18
100
AcDbVertex
100
AcDb2dVertex
 10
46.36515915597579
 20
28.29114278838139
 30
0.0
  0
VERTEX
  5
186
330
184
100
AcDbEntity
  8
\U+30EC\U+30A4\U+30E4\U+30FC 1
 62
     7
370
    18
100
AcDbVertex
100
AcDb2dVertex
 10
46.35689092135669
 20
29.02770468903359
 30
0.0
  0
SEQEND
  5
187
330
184
100
AcDbEntity
  8
\U+30EC\U+30A4\U+30E4\U+30FC 1
370
    18
  0
POLYLINE
  5
188
330
1F
100
AcDbEntity
  8
\U+30EC\U+30A4\U+30E4\U+30FC 1
 62
     7
370
    18
100
AcDb2dPolyline
 66
     1
 10
0.0
 20
0.0
 30
0.0
  0
VERTEX
  5
189
330
188
100
AcDbEntity
  8
\U+30EC\U+30A4\U+30E4\U+30FC 1
 62
     7
370
    18
100
AcDbVertex
100
AcDb2dVertex
 10
45.86286390286498
 20
23.38118946373439
 30
0.0
  0
VERTEX
  5
18A
330
188
100
AcDbEntity
  8
\U+30EC\U+30A4\U+30E4\U+30FC 1
 62
     7
370
    18
100
AcDbVertex
100
AcDb2dVertex
 10
45.86286390286498
 20
27.77851224199669
 30
0.0
  0
SEQEND
  5
18B
330
188
100
AcDbEntity
  8
\U+30EC\U+30A4\U+30E4\U+30FC 1
370
    18
  0
POLYLINE
  5
18C
330
1F
100
AcDbEntity
  8
\U+30EC\U+30A4\U+30E4\U+30FC 1
 62
     7
370
    18
100
AcDb2dPolyline
 66
     1
 10
0.0
 20
0.0
 30
0.0
  0
VERTEX
  5
18D
330
18C
100
AcDbEntity
  8
\U+30EC\U+30A4\U+30E4\U+30FC 1
 62
     7
370
    18
100
AcDbVertex
100
AcDb2dVertex
 10
46.05303329910446
 20
28.29114278838139
 30
0.0
  0
VERTEX
  5
18E
330
18C
100
AcDbEntity
  8
\U+30EC\U+30A4\U+30E4\U+30FC 1
 62
     7
370
    18
100
AcDbVertex
100
AcDb2dVertex
 10
46.05303329910446
 20
28.23326514604763
 30
0.0
  0
SEQEND
  5
18F
330
18C
100
AcDbEntity
  8
\U+30EC\U+30A4\U+30E4\U+30FC 1
370
    18
  0
POLYLINE
  5
190
330
1F
100
AcDbEntity
  8
\U+30EC\U+30A4\U+30E4\U+30FC 1
 62
     7
370
    18
100
AcDb2dPolyline
 66
     1
 10
0.0
 20
0.0
 30
0.0
  0
VERTEX
  5
191
330
190
100
AcDbEntity
  8
\U+30EC\U+30A4\U+30E4\U+30FC 1
 62
     7
370
    18
100
AcDbVertex
100
AcDb2dVertex
 10
46.08197212027134
 20
28.29114278838139
 30
0.0
  0
VERTEX
  5
192
330
190
100
AcDbEntity
  8
\U+30EC\U+30A4\U+30E4\U+30FC 1
 62
     7
370
    18
100
AcDbVertex
100
AcDb2dVertex
 10
46.08197212027134
 20
28.22361887232534
 30
0.0
  0
SEQEND
  5
193
330
190
100
AcDbEntity
  8
\U+30EC\U+30A4\U+30E4\U+30FC 1
370
    18
  0
POLYLINE
  5
194
330
1F
100
AcDbEntity
  8
\U+30EC\U+30A4\U+30E4\U+30FC 1
 62
     7
370
    18
100
AcDb2dPolyline
 66
     1
 10
0.0
 20
0.0
 30
0.0
  0
VERTEX
  5
195
330
194
100
AcDbEntity
  8
\U+30EC\U+30A4\U+30E4\U+30FC 1
 62
     7
370
    18
100
AcDbVertex
100
AcDb2dVertex
 10
46.11849015650574
 20
29.19995957693168
 30
0.0
  0
VERTEX
  5
196
330
194
100
AcDbEntity
  8
\U+30EC\U+30A4\U+30E4\U+30FC 1
 62
     7
370
    18
100
AcDbVertex
100
AcDb2dVertex
 10
46.11849015650574
 20
30.43743869159152
 30
0.0
  0
SEQEND
  5
197
330
194
100
AcDbEntity
  8
\U+30EC\U+30A4\U+30E4\U+30FC 1
370
    18
  0
POLYLINE
  5
198
330
1F
100
AcDbEntity
  8
\U+30EC\U+30A4\U+30E4\U+30FC 1
 62
     7
370
    18
100
AcDb2dPolyline
 66
     1
 10
0.0
 20
0.0
 30
0.0
  0
VERTEX
  5
199
330
198
100
AcDbEntity
  8
\U+30EC\U+30A4\U+30E4\U+30FC 1
 62
     7
370
    18
100
AcDbVertex
100
AcDb2dVertex
 10
46.13640466484713
 20
28.29114278838139
 30
0.0
  0
VERTEX
  5
19A
330
198
100
AcDbEntity
  8
\U+30EC\U+30A4\U+30E4\U+30FC 1
 62
     7
370
    18
100
AcDbVertex
100
AcDb2dVertex
 10
46.13640466484713
 20
28.23326514604763
 30
0.0
  0
SEQEND
  5
19B
330
198
100
AcDbEntity
  8
\U+30EC\U+30A4\U+30E4\U+30FC 1
370
    18
  0
POLYLINE
  5
19C
330
1F
100
AcDbEntity
  8
\U+30EC\U+30A4\U+30E4\U+30FC 1
 62
     7
370
    18
100
AcDb2dPolyline
 66
     1
 10
0.0
 20
0.0
 30
0.0
  0
VERTEX
  5
19D
330
19C
100
AcDbEntity
  8
\U+30EC\U+30A4\U+30E4\U+30FC 1
 62
     7
370
    18
100
AcDbVertex
100
AcDb2dVertex
 10
46.19221524852612
 20
30.78280974182718
 30
0.0
  0
VERTEX
  5
19E
330
19C
100
AcDbEntity
  8
\U+30EC\U+30A4\U+30E4\U+30FC 1
 62
     7
370
    18
100
AcDbVertex
100
AcDb2dVertex
 10
46.19221524852612
 20
30.7538709206603
 30
0.0
  0
SEQEND
  5
19F
330
19C
100
AcDbEntity
  8
\U+30EC\U+30A4\U+30E4\U+30FC 1
370
    18
  0
POLYLINE
  5
1A0
330
1F
100
AcDbEntity
  8
\U+30EC\U+30A4\U+30E4\U+30FC 1
 62
     7
370
    18
100
AcDb2dPolyline
 66
     1
 10
0.0
 20
0.0
 30
0.0
  0
VERTEX
  5
1A1
330
1A0
100
AcDbEntity
  8
\U+30EC\U+30A4\U+30E4\U+30FC 1
 62
     7
370
    18
100
AcDbVertex
100
AcDb2dVertex
 10
46.25836112547898
 20
28.1815886796782
 30
0.0
  0
VERTEX
  5
1A2
330
1A0
100
AcDbEntity
  8
\U+30EC\U+30A4\U+30E4\U+30FC 1
 62
     7
370
    18
100
AcDbVertex
100
AcDb2dVertex
 10
46.25836112547898
 20
28.07892476649095
 30
0.0
  0
SEQEND
  5
1A3
330
1A0
100
AcDbEntity
  8
\U+30EC\U+30A4\U+30E4\U+30FC 1
370
    18
  0
POLYLINE
  5
1A4
330
1F
100
AcDbEntity
  8
\U+30EC\U+30A4\U+30E4\U+30FC 1
 62
     7
370
    18
100
AcDb2dPolyline
 66
     1
 10
0.0
 20
0.0
 30
0.0
  0
VERTEX
  5
1A5
330
1A4
100
AcDbEntity
  8
\U+30EC\U+30A4\U+30E4\U+30FC 1
 62
     7
370
    18
100
AcDbVertex
100
AcDb2dVertex
 10
46.25836112547898
 20
28.03482751518904
 30
0.0
  0
VERTEX
  5
1A6
330
1A4
100
AcDbEntity
  8
\U+30EC\U+30A4\U+30E4\U+30FC 1
 62
     7
370
    18
100
AcDbVertex
100
AcDb2dVertex
 10
46.25836112547898
 20
27.93216360200178
 30
0.0
  0
SEQEND
  5
1A7
330
1A4
100
AcDbEntity
  8
\U+30EC\U+30A4\U+30E4\U+30FC 1
370
    18
  0
POLYLINE
  5
1A8
330
1F
100
AcDbEntity
  8
\U+30EC\U+30A4\U+30E4\U+30FC 1
 62
     7
370
    18
100
AcDb2dPolyline
 66
     1
 10
0.0
 20
0.0
 30
0.0
  0
VERTEX
  5
1A9
330
1A8
100
AcDbEntity
  8
\U+30EC\U+30A4\U+30E4\U+30FC 1
 62
     7
370
    18
100
AcDbVertex
100
AcDb2dVertex
 10
46.25836112547898
 20
27.88806635069987
 30
0.0
  0
VERTEX
  5
1AA
330
1A8
100
AcDbEntity
  8
\U+30EC\U+30A4\U+30E4\U+30FC 1
 62
     7
370
    18
100
AcDbVertex
100
AcDb2dVertex
 10
46.25836112547898
 20
27.78540243751261
 30
0.0
  0
SEQEND
  5
1AB
330
1A8
100
AcDbEntity
  8
\U+30EC\U+30A4\U+30E4\U+30FC 1
370
    18
  0
POLYLINE
  5
1AC
330
1F
100
AcDbEntity
  8
\U+30EC\U+30A4\U+30E4\U+30FC 1
 62
     7
370
    18
100
AcDb2dPolyline
 66
     1
 10
0.0
 20
0.0
 30
0.0
  0
VERTEX
  5
1AD
330
1AC
100
AcDbEntity
  8
\U+30EC\U+30A4\U+30E4\U+30FC 1
 62
     7
370
    18
100
AcDbVertex
100
AcDb2dVertex
 10
46.31279367005477
 20
28.29114278838139
 30
0.0
  0
VERTEX
  5
1AE
330
1AC
100
AcDbEntity
  8
\U+30EC\U+30A4\U+30E4\U+30FC 1
 62
     7
370
    18
100
AcDbVertex
100
AcDb2dVertex
 10
46.31279367005477
 20
28.22361887232534
 30
0.0
  0
SEQEND
  5
1AF
330
1AC
100
AcDbEntity
  8
\U+30EC\U+30A4\U+30E4\U+30FC 1
370
    18
  0
POLYLINE
  5
1B0
330
1F
100
AcDbEntity
  8
\U+30EC\U+30A4\U+30E4\U+30FC 1
 62
     7
370
    18
100
AcDb2dPolyline
 66
     1
 10
0.0
 20
0.0
 30
0.0
  0
VERTEX
  5
1B1
330
1B0
100
AcDbEntity
  8
\U+30EC\U+30A4\U+30E4\U+30FC 1
 62
     7
370
    18
100
AcDbVertex
100
AcDb2dVertex
 10
46.33139719794777
 20
29.05733252975207
 30
0.0
  0
VERTEX
  5
1B2
330
1B0
100
AcDbEntity
  8
\U+30EC\U+30A4\U+30E4\U+30FC 1
 62
     7
370
    18
100
AcDbVertex
100
AcDb2dVertex
 10
46.33139719794777
 20
30.53321240926285
 30
0.0
  0
SEQEND
  5
1B3
330
1B0
100
AcDbEntity
  8
\U+30EC\U+30A4\U+30E4\U+30FC 1
370
    18
  0
POLYLINE
  5
1B4
330
1F
100
AcDbEntity
  8
\U+30EC\U+30A4\U+30E4\U+30FC 1
 62
     7
370
    18
100
AcDb2dPolyline
 66
     1
 10
0.0
 20
0.0
 30
0.0
  0
VERTEX
  5
1B5
330
1B4
100
AcDbEntity
  8
\U+30EC\U+30A4\U+30E4\U+30FC 1
 62
     7
370
    18
100
AcDbVertex
100
AcDb2dVertex
 10
46.33897641301528
 20
28.23326514604763
 30
0.0
  0
VERTEX
  5
1B6
330
1B4
100
AcDbEntity
  8
\U+30EC\U+30A4\U+30E4\U+30FC 1
 62
     7
370
    18
100
AcDbVertex
100
AcDb2dVertex
 10
46.33897641301528
 20
28.67699373727309
 30
0.0
  0
SEQEND
  5
1B7
330
1B4
100
AcDbEntity
  8
\U+30EC\U+30A4\U+30E4\U+30FC 1
370
    18
  0
POLYLINE
  5
1B8
330
1F
100
AcDbEntity
  8
\U+30EC\U+30A4\U+30E4\U+30FC 1
 62
     7
370
    18
100
AcDb2dPolyline
 66
     1
 10
0.0
 20
0.0
 30
0.0
  0
VERTEX
  5
1B9
330
1B8
100
AcDbEntity
  8
\U+30EC\U+30A4\U+30E4\U+30FC 1
 62
     7
370
    18
100
AcDbVertex
100
AcDb2dVertex
 10
46.3465556280828
 20
29.05733252975207
 30
0.0
  0
VERTEX
  5
1BA
330
1B8
100
AcDbEntity
  8
\U+30EC\U+30A4\U+30E4\U+30FC 1
 62
     7
370
    18
100
AcDbVertex
100
AcDb2dVertex
 10
46.3465556280828
 20
30.53321240926285
 30
0.0
  0
SEQEND
  5
1BB
330
1B8
100
AcDbEntity
  8
\U+30EC\U+30A4\U+30E4\U+30FC 1
370
    18
  0
POLYLINE
  5
1BC
330
1F
100
AcDbEntity
  8
\U+30EC\U+30A4\U+30E4\U+30FC 1
 62
     7
370
    18
100
AcDb2dPolyline
 66
     1
 10
0.0
 20
0.0
 30
0.0
  0
VERTEX
  5
1BD
330
1BC
100
AcDbEntity
  8
\U+30EC\U+30A4\U+30E4\U+30FC 1
 62
     7
370
    18
100
AcDbVertex
100
AcDb2dVertex
 10
46.36515915597579
 20
28.29114278838139
 30
0.0
  0
VERTEX
  5
1BE
330
1BC
100
AcDbEntity
  8
\U+30EC\U+30A4\U+30E4\U+30FC 1
 62
     7
370
    18
100
AcDbVertex
100
AcDb2dVertex
 10
46.36515915597579
 20
28.22361887232534
 30
0.0
  0
SEQEND
  5
1BF
330
1BC
100
AcDbEntity
  8
\U+30EC\U+30A4\U+30E4\U+30FC 1
370
    18
  0
POLYLINE
  5
1C0
330
1F
100
AcDbEntity
  8
\U+30EC\U+30A4\U+30E4\U+30FC 1
 62
     7
370
    18
100
AcDb2dPolyline
 66
     1
 10
0.0
 20
0.0
 30
0.0
  0
VERTEX
  5
1C1
330
1C0
100
AcDbEntity
  8
\U+30EC\U+30A4\U+30E4\U+30FC 1
 62
     7
370
    18
100
AcDbVertex
100
AcDb2dVertex
 10
46.41959170055159
 20
28.2181067159126
 30
0.0
  0
VERTEX
  5
1C2
330
1C0
100
AcDbEntity
  8
\U+30EC\U+30A4\U+30E4\U+30FC 1
 62
     7
370
    18
100
AcDbVertex
100
AcDb2dVertex
 10
46.41959170055159
 20
28.14507064344381
 30
0.0
  0
SEQEND
  5
1C3
330
1C0
100
AcDbEntity
  8
\U+30EC\U+30A4\U+30E4\U+30FC 1
370
    18
  0
POLYLINE
  5
1C4
330
1F
100
AcDbEntity
  8
\U+30EC\U+30A4\U+30E4\U+30FC 1
 62
     7
370
    18
100
AcDb2dPolyline
 66
     1
 10
0.0
 20
0.0
 30
0.0
  0
VERTEX
  5
1C5
330
1C4
100
AcDbEntity
  8
\U+30EC\U+30A4\U+30E4\U+30FC 1
 62
     7
370
    18
100
AcDbVertex
100
AcDb2dVertex
 10
46.41959170055159
 20
28.1009733921419
 30
0.0
  0
VERTEX
  5
1C6
330
1C4
100
AcDbEntity
  8
\U+30EC\U+30A4\U+30E4\U+30FC 1
 62
     7
370
    18
100
AcDbVertex
100
AcDb2dVertex
 10
46.41959170055159
 20
27.99830947895464
 30
0.0
  0
SEQEND
  5
1C7
330
1C4
100
AcDbEntity
  8
\U+30EC\U+30A4\U+30E4\U+30FC 1
370
    18
  0
POLYLINE
  5
1C8
330
1F
100
AcDbEntity
  8
\U+30EC\U+30A4\U+30E4\U+30FC 1
 62
     7
370
    18
100
AcDb2dPolyline
 66
     1
 10
0.0
 20
0.0
 30
0.0
  0
VERTEX
  5
1C9
330
1C8
100
AcDbEntity
  8
\U+30EC\U+30A4\U+30E4\U+30FC 1
 62
     7
370
    18
100
AcDbVertex
100
AcDb2dVertex
 10
46.41959170055159
 20
27.95421222765273
 30
0.0
  0
VERTEX
  5
1CA
330
1C8
100
AcDbEntity
  8
\U+30EC\U+30A4\U+30E4\U+30FC 1
 62
     7
370
    18
100
AcDbVertex
100
AcDb2dVertex
 10
46.41959170055159
 20
27.85154831446548
 30
0.0
  0
SEQEND
  5
1CB
330
1C8
100
AcDbEntity
  8
\U+30EC\U+30A4\U+30E4\U+30FC 1
370
    18
  0
POLYLINE
  5
1CC
330
1F
100
AcDbEntity
  8
\U+30EC\U+30A4\U+30E4\U+30FC 1
 62
     7
370
    18
100
AcDb2dPolyline
 66
     1
 10
0.0
 20
0.0
 30
0.0
  0
VERTEX
  5
1CD
330
1CC
100
AcDbEntity
  8
\U+30EC\U+30A4\U+30E4\U+30FC 1
 62
     7
370
    18
100
AcDbVertex
100
AcDb2dVertex
 10
46.41959170055159
 20
27.80814008271516
 30
0.0
  0
VERTEX
  5
1CE
330
1CC
100
AcDbEntity
  8
\U+30EC\U+30A4\U+30E4\U+30FC 1
 62
     7
370
    18
100
AcDbVertex
100
AcDb2dVertex
 10
46.41959170055159
 20
27.77851224199669
 30
0.0
  0
SEQEND
  5
1CF
330
1CC
100
AcDbEntity
  8
\U+30EC\U+30A4\U+30E4\U+30FC 1
370
    18
  0
POLYLINE
  5
1D0
330
1F
100
AcDbEntity
  8
\U+30EC\U+30A4\U+30E4\U+30FC 1
 62
     7
370
    18
100
AcDb2dPolyline
 66
     1
 10
0.0
 20
0.0
 30
0.0
  0
VERTEX
  5
1D1
330
1D0
100
AcDbEntity
  8
\U+30EC\U+30A4\U+30E4\U+30FC 1
 62
     7
370
    18
100
AcDbVertex
100
AcDb2dVertex
 10
46.48573757750445
 20
30.78280974182718
 30
0.0
  0
VERTEX
  5
1D2
330
1D0
100
AcDbEntity
  8
\U+30EC\U+30A4\U+30E4\U+30FC 1
 62
     7
370
    18
100
AcDbVertex
100
AcDb2dVertex
 10
46.48573757750445
 20
30.7538709206603
 30
0.0
  0
SEQEND
  5
1D3
330
1D0
100
AcDbEntity
  8
\U+30EC\U+30A4\U+30E4\U+30FC 1
370
    18
  0
POLYLINE
  5
1D4
330
1F
100
AcDbEntity
  8
\U+30EC\U+30A4\U+30E4\U+30FC 1
 62
     7
370
    18
100
AcDb2dPolyline
 66
     1
 10
0.0
 20
0.0
 30
0.0
  0
VERTEX
  5
1D5
330
1D4
100
AcDbEntity
  8
\U+30EC\U+30A4\U+30E4\U+30FC 1
 62
     7
370
    18
100
AcDbVertex
100
AcDb2dVertex
 10
46.54085914163184
 20
28.29114278838139
 30
0.0
  0
VERTEX
  5
1D6
330
1D4
100
AcDbEntity
  8
\U+30EC\U+30A4\U+30E4\U+30FC 1
 62
     7
370
    18
100
AcDbVertex
100
AcDb2dVertex
 10
46.54085914163184
 20
28.23326514604763
 30
0.0
  0
SEQEND
  5
1D7
330
1D4
100
AcDbEntity
  8
\U+30EC\U+30A4\U+30E4\U+30FC 1
370
    18
  0
POLYLINE
  5
1D8
330
1F
100
AcDbEntity
  8
\U+30EC\U+30A4\U+30E4\U+30FC 1
 62
     7
370
    18
100
AcDb2dPolyline
 66
     1
 10
0.0
 20
0.0
 30
0.0
  0
VERTEX
  5
1D9
330
1D8
100
AcDbEntity
  8
\U+30EC\U+30A4\U+30E4\U+30FC 1
 62
     7
370
    18
100
AcDbVertex
100
AcDb2dVertex
 10
46.56015168907642
 20
29.19995957693168
 30
0.0
  0
VERTEX
  5
1DA
330
1D8
100
AcDbEntity
  8
\U+30EC\U+30A4\U+30E4\U+30FC 1
 62
     7
370
    18
100
AcDbVertex
100
AcDb2dVertex
 10
46.56015168907642
 20
30.43743869159152
 30
0.0
  0
SEQEND
  5
1DB
330
1D8
100
AcDbEntity
  8
\U+30EC\U+30A4\U+30E4\U+30FC 1
370
    18
  0
POLYLINE
  5
1DC
330
1F
100
AcDbEntity
  8
\U+30EC\U+30A4\U+30E4\U+30FC 1
 62
     7
370
    18
100
AcDb2dPolyline
 66
     1
 10
0.0
 20
0.0
 30
0.0
  0
VERTEX
  5
1DD
330
1DC
100
AcDbEntity
  8
\U+30EC\U+30A4\U+30E4\U+30FC 1
 62
     7
370
    18
100
AcDbVertex
100
AcDb2dVertex
 10
46.59046854934649
 20
29.19995957693168
 30
0.0
  0
VERTEX
  5
1DE
330
1DC
100
AcDbEntity
  8
\U+30EC\U+30A4\U+30E4\U+30FC 1
 62
     7
370
    18
100
AcDbVertex
100
AcDb2dVertex
 10
46.59046854934649
 20
30.43743869159152
 30
0.0
  0
SEQEND
  5
1DF
330
1DC
100
AcDbEntity
  8
\U+30EC\U+30A4\U+30E4\U+30FC 1
370
    18
  0
POLYLINE
  5
1E0
330
1F
100
AcDbEntity
  8
\U+30EC\U+30A4\U+30E4\U+30FC 1
 62
     7
370
    18
100
AcDb2dPolyline
 66
     1
 10
0.0
 20
0.0
 30
0.0
  0
VERTEX
  5
1E1
330
1E0
100
AcDbEntity
  8
\U+30EC\U+30A4\U+30E4\U+30FC 1
 62
     7
370
    18
100
AcDbVertex
100
AcDb2dVertex
 10
46.59598070575922
 20
28.29114278838139
 30
0.0
  0
VERTEX
  5
1E2
330
1E0
100
AcDbEntity
  8
\U+30EC\U+30A4\U+30E4\U+30FC 1
 62
     7
370
    18
100
AcDbVertex
100
AcDb2dVertex
 10
46.59598070575922
 20
28.22361887232534
 30
0.0
  0
SEQEND
  5
1E3
330
1E0
100
AcDbEntity
  8
\U+30EC\U+30A4\U+30E4\U+30FC 1
370
    18
  0
POLYLINE
  5
1E4
330
1F
100
AcDbEntity
  8
\U+30EC\U+30A4\U+30E4\U+30FC 1
 62
     7
370
    18
100
AcDb2dPolyline
 66
     1
 10
0.0
 20
0.0
 30
0.0
  0
VERTEX
  5
1E5
330
1E4
100
AcDbEntity
  8
\U+30EC\U+30A4\U+30E4\U+30FC 1
 62
     7
370
    18
100
AcDbVertex
100
AcDb2dVertex
 10
46.62491952692611
 20
28.29114278838139
 30
0.0
  0
VERTEX
  5
1E6
330
1E4
100
AcDbEntity
  8
\U+30EC\U+30A4\U+30E4\U+30FC 1
 62
     7
370
    18
100
AcDbVertex
100
AcDb2dVertex
 10
46.62491952692611
 20
28.23326514604763
 30
0.0
  0
SEQEND
  5
1E7
330
1E4
100
AcDbEntity
  8
\U+30EC\U+30A4\U+30E4\U+30FC 1
370
    18
  0
POLYLINE
  5
1E8
330
1F
100
AcDbEntity
  8
\U+30EC\U+30A4\U+30E4\U+30FC 1
 62
     7
370
    18
100
AcDb2dPolyline
 66
     1
 10
0.0
 20
0.0
 30
0.0
  0
VERTEX
  5
1E9
330
1E8
100
AcDbEntity
  8
\U+30EC\U+30A4\U+30E4\U+30FC 1
 62
     7
370
    18
100
AcDbVertex
100
AcDb2dVertex
 10
46.96185008765475
 20
23.01532008183885
 30
0.0
  0
VERTEX
  5
1EA
330
1E8
100
AcDbEntity
  8
\U+30EC\U+30A4\U+30E4\U+30FC 1
 62
     7
370
    18
100
AcDbVertex
100
AcDb2dVertex
 10
46.96185008765475
 20
27.77851224199669
 30
0.0
  0
SEQEND
  5
1EB
330
1E8
100
AcDbEntity
  8
\U+30EC\U+30A4\U+30E4\U+30FC 1
370
    18
  0
POLYLINE
  5
1EC
330
1F
100
AcDbEntity
  8
\U+30EC\U+30A4\U+30E4\U+30FC 1
 62
     7
370
    18
100
AcDb2dPolyline
 66
     1
 10
0.0
 20
0.0
 30
0.0
  0
VERTEX
  5
1ED
330
1EC
100
AcDbEntity
  8
\U+30EC\U+30A4\U+30E4\U+30FC 1
 62
     7
370
    18
100
AcDbVertex
100
AcDb2dVertex
 10
46.31279367005477
 20
28.29114278838139
 30
0.0
  0
VERTEX
  5
1EE
330
1EC
100
AcDbEntity
  8
\U+30EC\U+30A4\U+30E4\U+30FC 1
 62
     7
370
    18
100
AcDbVertex
100
AcDb2dVertex
 10
46.32106190467388
 20
29.02770468903359
 30
0.0
  0
SEQEND
  5
1EF
330
1EC
100
AcDbEntity
  8
\U+30EC\U+30A4\U+30E4\U+30FC 1
370
    18
  0
POLYLINE
  5
1F0
330
1F
100
AcDbEntity
  8
\U+30EC\U+30A4\U+30E4\U+30FC 1
 62
     7
370
    18
100
AcDb2dPolyline
 66
     1
 10
0.0
 20
0.0
 30
0.0
  0
VERTEX
  5
1F1
330
1F0
100
AcDbEntity
  8
\U+30EC\U+30A4\U+30E4\U+30FC 1
 62
     7
370
    18
100
AcDbVertex
100
AcDb2dVertex
 10
46.11986819560892
 20
29.05044233423614
 30
0.0
  0
VERTEX
  5
1F2
330
1F0
100
AcDbEntity
  8
\U+30EC\U+30A4\U+30E4\U+30FC 1
 62
     7
370
    18
100
AcDbVertex
100
AcDb2dVertex
 10
46.16396544691083
 20
30.7538709206603
 30
0.0
  0
SEQEND
  5
1F3
330
1F0
100
AcDbEntity
  8
\U+30EC\U+30A4\U+30E4\U+30FC 1
370
    18
  0
POLYLINE
  5
1F4
330
1F
100
AcDbEntity
  8
\U+30EC\U+30A4\U+30E4\U+30FC 1
 62
     7
370
    18
100
AcDb2dPolyline
 66
     1
 10
0.0
 20
0.0
 30
0.0
  0
VERTEX
  5
1F5
330
1F4
100
AcDbEntity
  8
\U+30EC\U+30A4\U+30E4\U+30FC 1
 62
     7
370
    18
100
AcDbVertex
100
AcDb2dVertex
 10
46.16465446646242
 20
30.78280974182718
 30
0.0
  0
VERTEX
  5
1F6
330
1F4
100
AcDbEntity
  8
\U+30EC\U+30A4\U+30E4\U+30FC 1
 62
     7
370
    18
100
AcDbVertex
100
AcDb2dVertex
 10
46.17154466197834
 20
31.04222560300169
 30
0.0
  0
SEQEND
  5
1F7
330
1F4
100
AcDbEntity
  8
\U+30EC\U+30A4\U+30E4\U+30FC 1
370
    18
  0
POLYLINE
  5
1F8
330
1F
100
AcDbEntity
  8
\U+30EC\U+30A4\U+30E4\U+30FC 1
 62
     7
370
    18
100
AcDb2dPolyline
 66
     1
 10
0.0
 20
0.0
 30
0.0
  0
VERTEX
  5
1F9
330
1F8
100
AcDbEntity
  8
\U+30EC\U+30A4\U+30E4\U+30FC 1
 62
     7
370
    18
100
AcDbVertex
100
AcDb2dVertex
 10
46.13640466484713
 20
28.29114278838139
 30
0.0
  0
VERTEX
  5
1FA
330
1F8
100
AcDbEntity
  8
\U+30EC\U+30A4\U+30E4\U+30FC 1
 62
     7
370
    18
100
AcDbVertex
100
AcDb2dVertex
 10
46.15225211453376
 20
28.69077412830494
 30
0.0
  0
SEQEND
  5
1FB
330
1F8
100
AcDbEntity
  8
\U+30EC\U+30A4\U+30E4\U+30FC 1
370
    18
  0
POLYLINE
  5
1FC
330
1F
100
AcDbEntity
  8
\U+30EC\U+30A4\U+30E4\U+30FC 1
 62
     7
370
    18
100
AcDb2dPolyline
 66
     1
 10
0.0
 20
0.0
 30
0.0
  0
VERTEX
  5
1FD
330
1FC
100
AcDbEntity
  8
\U+30EC\U+30A4\U+30E4\U+30FC 1
 62
     7
370
    18
100
AcDbVertex
100
AcDb2dVertex
 10
46.08197212027134
 20
28.29114278838139
 30
0.0
  0
VERTEX
  5
1FE
330
1FC
100
AcDbEntity
  8
\U+30EC\U+30A4\U+30E4\U+30FC 1
 62
     7
370
    18
100
AcDbVertex
100
AcDb2dVertex
 10
46.11711211740255
 20
29.02770468903359
 30
0.0
  0
SEQEND
  5
1FF
330
1FC
100
AcDbEntity
  8
\U+30EC\U+30A4\U+30E4\U+30FC 1
370
    18
  0
POLYLINE
  5
200
330
1F
100
AcDbEntity
  8
\U+30EC\U+30A4\U+30E4\U+30FC 1
 62
     7
370
    18
100
AcDb2dPolyline
 66
     1
 10
0.0
 20
0.0
 30
0.0
  0
VERTEX
  5
201
330
200
100
AcDbEntity
  8
\U+30EC\U+30A4\U+30E4\U+30FC 1
 62
     7
370
    18
100
AcDbVertex
100
AcDb2dVertex
 10
46.05303329910446
 20
28.29114278838139
 30
0.0
  0
VERTEX
  5
202
330
200
100
AcDbEntity
  8
\U+30EC\U+30A4\U+30E4\U+30FC 1
 62
     7
370
    18
100
AcDbVertex
100
AcDb2dVertex
 10
46.07301486610064
 20
28.67699373727309
 30
0.0
  0
SEQEND
  5
203
330
200
100
AcDbEntity
  8
\U+30EC\U+30A4\U+30E4\U+30FC 1
370
    18
  0
POLYLINE
  5
204
330
1F
100
AcDbEntity
  8
\U+30EC\U+30A4\U+30E4\U+30FC 1
 62
     7
370
    18
100
AcDb2dPolyline
 66
     1
 10
0.0
 20
0.0
 30
0.0
  0
VERTEX
  5
205
330
204
100
AcDbEntity
  8
\U+30EC\U+30A4\U+30E4\U+30FC 1
 62
     7
370
    18
100
AcDbVertex
100
AcDb2dVertex
 10
46.07301486610064
 20
28.67699373727309
 30
0.0
  0
VERTEX
  5
206
330
204
100
AcDbEntity
  8
\U+30EC\U+30A4\U+30E4\U+30FC 1
 62
     7
370
    18
100
AcDbVertex
100
AcDb2dVertex
 10
46.11986819560892
 20
29.05044233423614
 30
0.0
  0
SEQEND
  5
207
330
204
100
AcDbEntity
  8
\U+30EC\U+30A4\U+30E4\U+30FC 1
370
    18
  0
POLYLINE
  5
208
330
1F
100
AcDbEntity
  8
\U+30EC\U+30A4\U+30E4\U+30FC 1
 62
     7
370
    18
100
AcDb2dPolyline
 66
     1
 10
0.0
 20
0.0
 30
0.0
  0
VERTEX
  5
209
330
208
100
AcDbEntity
  8
\U+30EC\U+30A4\U+30E4\U+30FC 1
 62
     7
370
    18
100
AcDbVertex
100
AcDb2dVertex
 10
46.55532855221528
 20
29.17653291217754
 30
0.0
  0
VERTEX
  5
20A
330
208
100
AcDbEntity
  8
\U+30EC\U+30A4\U+30E4\U+30FC 1
 62
     7
370
    18
100
AcDbVertex
100
AcDb2dVertex
 10
46.56015168907642
 20
29.19995957693168
 30
0.0
  0
SEQEND
  5
20B
330
208
100
AcDbEntity
  8
\U+30EC\U+30A4\U+30E4\U+30FC 1
370
    18
  0
POLYLINE
  5
20C
330
1F
100
AcDbEntity
  8
\U+30EC\U+30A4\U+30E4\U+30FC 1
 62
     7
370
    18
100
AcDb2dPolyline
 66
     1
 10
0.0
 20
0.0
 30
0.0
  0
VERTEX
  5
20D
330
20C
100
AcDbEntity
  8
\U+30EC\U+30A4\U+30E4\U+30FC 1
 62
     7
370
    18
100
AcDbVertex
100
AcDb2dVertex
 10
46.55877364997324
 20
29.05802154930366
 30
0.0
  0
VERTEX
  5
20E
330
20C
100
AcDbEntity
  8
\U+30EC\U+30A4\U+30E4\U+30FC 1
 62
     7
370
    18
100
AcDbVertex
100
AcDb2dVertex
 10
46.59046854934649
 20
29.19995957693168
 30
0.0
  0
SEQEND
  5
20F
330
20C
100
AcDbEntity
  8
\U+30EC\U+30A4\U+30E4\U+30FC 1
370
    18
  0
POLYLINE
  5
210
330
1F
100
AcDbEntity
  8
\U+30EC\U+30A4\U+30E4\U+30FC 1
 62
     7
370
    18
100
AcDb2dPolyline
 66
     1
 10
0.0
 20
0.0
 30
0.0
  0
VERTEX
  5
211
330
210
100
AcDbEntity
  8
\U+30EC\U+30A4\U+30E4\U+30FC 1
 62
     7
370
    18
100
AcDbVertex
100
AcDb2dVertex
 10
46.56015168907642
 20
30.43743869159152
 30
0.0
  0
VERTEX
  5
212
330
210
100
AcDbEntity
  8
\U+30EC\U+30A4\U+30E4\U+30FC 1
 62
     7
370
    18
100
AcDbVertex
100
AcDb2dVertex
 10
46.52087757463566
 20
30.49945045123483
 30
0.0
  0
SEQEND
  5
213
330
210
100
AcDbEntity
  8
\U+30EC\U+30A4\U+30E4\U+30FC 1
370
    18
  0
POLYLINE
  5
214
330
1F
100
AcDbEntity
  8
\U+30EC\U+30A4\U+30E4\U+30FC 1
 62
     7
370
    18
100
AcDb2dPolyline
 66
     1
 10
0.0
 20
0.0
 30
0.0
  0
VERTEX
  5
215
330
214
100
AcDbEntity
  8
\U+30EC\U+30A4\U+30E4\U+30FC 1
 62
     7
370
    18
100
AcDbVertex
100
AcDb2dVertex
 10
46.12262427381529
 20
29.17653291217754
 30
0.0
  0
VERTEX
  5
216
330
214
100
AcDbEntity
  8
\U+30EC\U+30A4\U+30E4\U+30FC 1
 62
     7
370
    18
100
AcDbVertex
100
AcDb2dVertex
 10
46.11849015650574
 20
29.19995957693168
 30
0.0
  0
SEQEND
  5
217
330
214
100
AcDbEntity
  8
\U+30EC\U+30A4\U+30E4\U+30FC 1
370
    18
  0
POLYLINE
  5
218
330
1F
100
AcDbEntity
  8
\U+30EC\U+30A4\U+30E4\U+30FC 1
 62
     7
370
    18
100
AcDb2dPolyline
 66
     1
 10
0.0
 20
0.0
 30
0.0
  0
VERTEX
  5
219
330
218
100
AcDbEntity
  8
\U+30EC\U+30A4\U+30E4\U+30FC 1
 62
     7
370
    18
100
AcDbVertex
100
AcDb2dVertex
 10
46.60493795992993
 20
28.67699373727309
 30
0.0
  0
VERTEX
  5
21A
330
218
100
AcDbEntity
  8
\U+30EC\U+30A4\U+30E4\U+30FC 1
 62
     7
370
    18
100
AcDbVertex
100
AcDb2dVertex
 10
46.55877364997324
 20
29.05044233423614
 30
0.0
  0
SEQEND
  5
21B
330
218
100
AcDbEntity
  8
\U+30EC\U+30A4\U+30E4\U+30FC 1
370
    18
  0
POLYLINE
  5
21C
330
1F
100
AcDbEntity
  8
\U+30EC\U+30A4\U+30E4\U+30FC 1
 62
     7
370
    18
100
AcDb2dPolyline
 66
     1
 10
0.0
 20
0.0
 30
0.0
  0
VERTEX
  5
21D
330
21C
100
AcDbEntity
  8
\U+30EC\U+30A4\U+30E4\U+30FC 1
 62
     7
370
    18
100
AcDbVertex
100
AcDb2dVertex
 10
50.68324468580497
 20
42.99051364716442
 30
0.0
  0
VERTEX
  5
21E
330
21C
100
AcDbEntity
  8
\U+30EC\U+30A4\U+30E4\U+30FC 1
 62
     7
370
    18
100
AcDbVertex
100
AcDb2dVertex
 10
50.58815998768523
 20
42.9205781626778
 30
0.0
  0
SEQEND
  5
21F
330
21C
100
AcDbEntity
  8
\U+30EC\U+30A4\U+30E4\U+30FC 1
370
    18
  0
POLYLINE
  5
220
330
1F
100
AcDbEntity
  8
\U+30EC\U+30A4\U+30E4\U+30FC 1
 62
     7
370
    18
100
AcDb2dPolyline
 66
     1
 10
0.0
 20
0.0
 30
0.0
  0
VERTEX
  5
221
330
220
100
AcDbEntity
  8
\U+30EC\U+30A4\U+30E4\U+30FC 1
 62
     7
370
    18
100
AcDbVertex
100
AcDb2dVertex
 10
49.97217650856168
 20
41.58267444837337
 30
0.0
  0
VERTEX
  5
222
330
220
100
AcDbEntity
  8
\U+30EC\U+30A4\U+30E4\U+30FC 1
 62
     7
370
    18
100
AcDbVertex
100
AcDb2dVertex
 10
49.97217650856168
 20
41.6980852232651
 30
0.0
  0
SEQEND
  5
223
330
220
100
AcDbEntity
  8
\U+30EC\U+30A4\U+30E4\U+30FC 1
370
    18
  0
POLYLINE
  5
224
330
1F
100
AcDbEntity
  8
\U+30EC\U+30A4\U+30E4\U+30FC 1
 62
     7
370
    18
100
AcDb2dPolyline
 66
     1
 10
0.0
 20
0.0
 30
0.0
  0
VERTEX
  5
225
330
224
100
AcDbEntity
  8
\U+30EC\U+30A4\U+30E4\U+30FC 1
 62
     7
370
    18
100
AcDbVertex
100
AcDb2dVertex
 10
49.97217650856168
 20
42.68183288805105
 30
0.0
  0
VERTEX
  5
226
330
224
100
AcDbEntity
  8
\U+30EC\U+30A4\U+30E4\U+30FC 1
 62
     7
370
    18
100
AcDbVertex
100
AcDb2dVertex
 10
49.97217650856168
 20
42.79758817271856
 30
0.0
  0
SEQEND
  5
227
330
224
100
AcDbEntity
  8
\U+30EC\U+30A4\U+30E4\U+30FC 1
370
    18
  0
POLYLINE
  5
228
330
1F
100
AcDbEntity
  8
\U+30EC\U+30A4\U+30E4\U+30FC 1
 62
     7
370
    18
100
AcDb2dPolyline
 66
     1
 10
0.0
 20
0.0
 30
0.0
  0
VERTEX
  5
229
330
228
100
AcDbEntity
  8
\U+30EC\U+30A4\U+30E4\U+30FC 1
 62
     7
370
    18
100
AcDbVertex
100
AcDb2dVertex
 10
50.68324468580497
 20
41.86155511188038
 30
0.0
  0
VERTEX
  5
22A
330
228
100
AcDbEntity
  8
\U+30EC\U+30A4\U+30E4\U+30FC 1
 62
     7
370
    18
100
AcDbVertex
100
AcDb2dVertex
 10
50.58815998768523
 20
41.80057688156445
 30
0.0
  0
SEQEND
  5
22B
330
228
100
AcDbEntity
  8
\U+30EC\U+30A4\U+30E4\U+30FC 1
370
    18
  0
POLYLINE
  5
22C
330
1F
100
AcDbEntity
  8
\U+30EC\U+30A4\U+30E4\U+30FC 1
 62
     7
370
    18
100
AcDb2dPolyline
 66
     1
 10
0.0
 20
0.0
 30
0.0
  0
VERTEX
  5
22D
330
22C
100
AcDbEntity
  8
\U+30EC\U+30A4\U+30E4\U+30FC 1
 62
     7
370
    18
100
AcDbVertex
100
AcDb2dVertex
 10
50.68324468580497
 20
41.85414815170076
 30
0.0
  0
VERTEX
  5
22E
330
22C
100
AcDbEntity
  8
\U+30EC\U+30A4\U+30E4\U+30FC 1
 62
     7
370
    18
100
AcDbVertex
100
AcDb2dVertex
 10
50.58815998768523
 20
41.79316992138484
 30
0.0
  0
SEQEND
  5
22F
330
22C
100
AcDbEntity
  8
\U+30EC\U+30A4\U+30E4\U+30FC 1
370
    18
  0
POLYLINE
  5
230
330
1F
100
AcDbEntity
  8
\U+30EC\U+30A4\U+30E4\U+30FC 1
 62
     7
370
    18
100
AcDb2dPolyline
 66
     1
 10
0.0
 20
0.0
 30
0.0
  0
VERTEX
  5
231
330
230
100
AcDbEntity
  8
\U+30EC\U+30A4\U+30E4\U+30FC 1
 62
     7
370
    18
100
AcDbVertex
100
AcDb2dVertex
 10
50.07897453905849
 20
41.4727758298944
 30
0.0
  0
VERTEX
  5
232
330
230
100
AcDbEntity
  8
\U+30EC\U+30A4\U+30E4\U+30FC 1
 62
     7
370
    18
100
AcDbVertex
100
AcDb2dVertex
 10
50.07897453905849
 20
41.80798384174407
 30
0.0
  0
SEQEND
  5
233
330
230
100
AcDbEntity
  8
\U+30EC\U+30A4\U+30E4\U+30FC 1
370
    18
  0
POLYLINE
  5
234
330
1F
100
AcDbEntity
  8
\U+30EC\U+30A4\U+30E4\U+30FC 1
 62
     7
370
    18
100
AcDb2dPolyline
 66
     1
 10
0.0
 20
0.0
 30
0.0
  0
VERTEX
  5
235
330
234
100
AcDbEntity
  8
\U+30EC\U+30A4\U+30E4\U+30FC 1
 62
     7
370
    18
100
AcDbVertex
100
AcDb2dVertex
 10
50.07897453905849
 20
42.57193426957208
 30
0.0
  0
VERTEX
  5
236
330
234
100
AcDbEntity
  8
\U+30EC\U+30A4\U+30E4\U+30FC 1
 62
     7
370
    18
100
AcDbVertex
100
AcDb2dVertex
 10
50.07897453905849
 20
42.90714228142175
 30
0.0
  0
SEQEND
  5
237
330
234
100
AcDbEntity
  8
\U+30EC\U+30A4\U+30E4\U+30FC 1
370
    18
  0
POLYLINE
  5
238
330
1F
100
AcDbEntity
  8
\U+30EC\U+30A4\U+30E4\U+30FC 1
 62
     7
370
    18
100
AcDb2dPolyline
 66
     1
 10
0.0
 20
0.0
 30
0.0
  0
VERTEX
  5
239
330
238
100
AcDbEntity
  8
\U+30EC\U+30A4\U+30E4\U+30FC 1
 62
     7
370
    18
100
AcDbVertex
100
AcDb2dVertex
 10
50.3387349100088
 20
42.91403247693767
 30
0.0
  0
VERTEX
  5
23A
330
238
100
AcDbEntity
  8
\U+30EC\U+30A4\U+30E4\U+30FC 1
 62
     7
370
    18
100
AcDbVertex
100
AcDb2dVertex
 10
50.3387349100088
 20
42.56504407405615
 30
0.0
  0
SEQEND
  5
23B
330
238
100
AcDbEntity
  8
\U+30EC\U+30A4\U+30E4\U+30FC 1
370
    18
  0
POLYLINE
  5
23C
330
1F
100
AcDbEntity
  8
\U+30EC\U+30A4\U+30E4\U+30FC 1
 62
     7
370
    18
100
AcDb2dPolyline
 66
     1
 10
0.0
 20
0.0
 30
0.0
  0
VERTEX
  5
23D
330
23C
100
AcDbEntity
  8
\U+30EC\U+30A4\U+30E4\U+30FC 1
 62
     7
370
    18
100
AcDbVertex
100
AcDb2dVertex
 10
50.3387349100088
 20
41.81487403725999
 30
0.0
  0
VERTEX
  5
23E
330
23C
100
AcDbEntity
  8
\U+30EC\U+30A4\U+30E4\U+30FC 1
 62
     7
370
    18
100
AcDbVertex
100
AcDb2dVertex
 10
50.3387349100088
 20
41.46588563437847
 30
0.0
  0
SEQEND
  5
23F
330
23C
100
AcDbEntity
  8
\U+30EC\U+30A4\U+30E4\U+30FC 1
370
    18
  0
POLYLINE
  5
240
330
1F
100
AcDbEntity
  8
\U+30EC\U+30A4\U+30E4\U+30FC 1
 62
     7
370
    18
100
AcDb2dPolyline
 66
     1
 10
0.0
 20
0.0
 30
0.0
  0
VERTEX
  5
241
330
240
100
AcDbEntity
  8
\U+30EC\U+30A4\U+30E4\U+30FC 1
 62
     7
370
    18
100
AcDbVertex
100
AcDb2dVertex
 10
50.36698471162409
 20
41.46519661482688
 30
0.0
  0
VERTEX
  5
242
330
240
100
AcDbEntity
  8
\U+30EC\U+30A4\U+30E4\U+30FC 1
 62
     7
370
    18
100
AcDbVertex
100
AcDb2dVertex
 10
50.36698471162409
 20
41.81573531169948
 30
0.0
  0
SEQEND
  5
243
330
240
100
AcDbEntity
  8
\U+30EC\U+30A4\U+30E4\U+30FC 1
370
    18
  0
POLYLINE
  5
244
330
1F
100
AcDbEntity
  8
\U+30EC\U+30A4\U+30E4\U+30FC 1
 62
     7
370
    18
100
AcDb2dPolyline
 66
     1
 10
0.0
 20
0.0
 30
0.0
  0
VERTEX
  5
245
330
244
100
AcDbEntity
  8
\U+30EC\U+30A4\U+30E4\U+30FC 1
 62
     7
370
    18
100
AcDbVertex
100
AcDb2dVertex
 10
50.36698471162409
 20
42.56435505450456
 30
0.0
  0
VERTEX
  5
246
330
244
100
AcDbEntity
  8
\U+30EC\U+30A4\U+30E4\U+30FC 1
 62
     7
370
    18
100
AcDbVertex
100
AcDb2dVertex
 10
50.36698471162409
 20
42.91489375137716
 30
0.0
  0
SEQEND
  5
247
330
244
100
AcDbEntity
  8
\U+30EC\U+30A4\U+30E4\U+30FC 1
370
    18
  0
POLYLINE
  5
248
330
1F
100
AcDbEntity
  8
\U+30EC\U+30A4\U+30E4\U+30FC 1
 62
     7
370
    18
100
AcDb2dPolyline
 66
     1
 10
0.0
 20
0.0
 30
0.0
  0
VERTEX
  5
249
330
248
100
AcDbEntity
  8
\U+30EC\U+30A4\U+30E4\U+30FC 1
 62
     7
370
    18
100
AcDbVertex
100
AcDb2dVertex
 10
50.68324468580497
 20
42.62033789307144
 30
0.0
  0
VERTEX
  5
24A
330
248
100
AcDbEntity
  8
\U+30EC\U+30A4\U+30E4\U+30FC 1
 62
     7
370
    18
100
AcDbVertex
100
AcDb2dVertex
 10
50.68324468580497
 20
42.60776328625488
 30
0.0
  0
SEQEND
  5
24B
330
248
100
AcDbEntity
  8
\U+30EC\U+30A4\U+30E4\U+30FC 1
370
    18
  0
POLYLINE
  5
24C
330
1F
100
AcDbEntity
  8
\U+30EC\U+30A4\U+30E4\U+30FC 1
 62
     7
370
    18
100
AcDb2dPolyline
 66
     1
 10
0.0
 20
0.0
 30
0.0
  0
VERTEX
  5
24D
330
24C
100
AcDbEntity
  8
\U+30EC\U+30A4\U+30E4\U+30FC 1
 62
     7
370
    18
100
AcDbVertex
100
AcDb2dVertex
 10
50.68324468580497
 20
41.86155511188038
 30
0.0
  0
VERTEX
  5
24E
330
24C
100
AcDbEntity
  8
\U+30EC\U+30A4\U+30E4\U+30FC 1
 62
     7
370
    18
100
AcDbVertex
100
AcDb2dVertex
 10
50.68324468580497
 20
41.85414815170076
 30
0.0
  0
SEQEND
  5
24F
330
24C
100
AcDbEntity
  8
\U+30EC\U+30A4\U+30E4\U+30FC 1
370
    18
  0
POLYLINE
  5
250
330
1F
100
AcDbEntity
  8
\U+30EC\U+30A4\U+30E4\U+30FC 1
 62
     7
370
    18
100
AcDb2dPolyline
 66
     1
 10
0.0
 20
0.0
 30
0.0
  0
VERTEX
  5
251
330
250
100
AcDbEntity
  8
\U+30EC\U+30A4\U+30E4\U+30FC 1
 62
     7
370
    18
100
AcDbVertex
100
AcDb2dVertex
 10
50.68324468580497
 20
41.42661151993771
 30
0.0
  0
VERTEX
  5
252
330
250
100
AcDbEntity
  8
\U+30EC\U+30A4\U+30E4\U+30FC 1
 62
     7
370
    18
100
AcDbVertex
100
AcDb2dVertex
 10
50.68324468580497
 20
41.41920455975809
 30
0.0
  0
SEQEND
  5
253
330
250
100
AcDbEntity
  8
\U+30EC\U+30A4\U+30E4\U+30FC 1
370
    18
  0
POLYLINE
  5
254
330
1F
100
AcDbEntity
  8
\U+30EC\U+30A4\U+30E4\U+30FC 1
 62
     7
370
    18
100
AcDb2dPolyline
 66
     1
 10
0.0
 20
0.0
 30
0.0
  0
VERTEX
  5
255
330
254
100
AcDbEntity
  8
\U+30EC\U+30A4\U+30E4\U+30FC 1
 62
     7
370
    18
100
AcDbVertex
100
AcDb2dVertex
 10
50.77832938392471
 20
41.61436934774662
 30
0.0
  0
VERTEX
  5
256
330
254
100
AcDbEntity
  8
\U+30EC\U+30A4\U+30E4\U+30FC 1
 62
     7
370
    18
100
AcDbVertex
100
AcDb2dVertex
 10
50.77832938392471
 20
41.66604581411605
 30
0.0
  0
SEQEND
  5
257
330
254
100
AcDbEntity
  8
\U+30EC\U+30A4\U+30E4\U+30FC 1
370
    18
  0
POLYLINE
  5
258
330
1F
100
AcDbEntity
  8
\U+30EC\U+30A4\U+30E4\U+30FC 1
 62
     7
370
    18
100
AcDb2dPolyline
 66
     1
 10
0.0
 20
0.0
 30
0.0
  0
VERTEX
  5
259
330
258
100
AcDbEntity
  8
\U+30EC\U+30A4\U+30E4\U+30FC 1
 62
     7
370
    18
100
AcDbVertex
100
AcDb2dVertex
 10
50.77832938392471
 20
42.81016277953513
 30
0.0
  0
VERTEX
  5
25A
330
258
100
AcDbEntity
  8
\U+30EC\U+30A4\U+30E4\U+30FC 1
 62
     7
370
    18
100
AcDbVertex
100
AcDb2dVertex
 10
50.77832938392471
 20
42.85443228572493
 30
0.0
  0
SEQEND
  5
25B
330
258
100
AcDbEntity
  8
\U+30EC\U+30A4\U+30E4\U+30FC 1
370
    18
  0
POLYLINE
  5
25C
330
1F
100
AcDbEntity
  8
\U+30EC\U+30A4\U+30E4\U+30FC 1
 62
     7
370
    18
100
AcDb2dPolyline
 66
     1
 10
0.0
 20
0.0
 30
0.0
  0
VERTEX
  5
25D
330
25C
100
AcDbEntity
  8
\U+30EC\U+30A4\U+30E4\U+30FC 1
 62
     7
370
    18
100
AcDbVertex
100
AcDb2dVertex
 10
51.92072380046481
 20
42.62033789307144
 30
0.0
  0
VERTEX
  5
25E
330
25C
100
AcDbEntity
  8
\U+30EC\U+30A4\U+30E4\U+30FC 1
 62
     7
370
    18
100
AcDbVertex
100
AcDb2dVertex
 10
51.92072380046481
 20
42.60776328625488
 30
0.0
  0
SEQEND
  5
25F
330
25C
100
AcDbEntity
  8
\U+30EC\U+30A4\U+30E4\U+30FC 1
370
    18
  0
POLYLINE
  5
260
330
1F
100
AcDbEntity
  8
\U+30EC\U+30A4\U+30E4\U+30FC 1
 62
     7
370
    18
100
AcDb2dPolyline
 66
     1
 10
0.0
 20
0.0
 30
0.0
  0
VERTEX
  5
261
330
260
100
AcDbEntity
  8
\U+30EC\U+30A4\U+30E4\U+30FC 1
 62
     7
370
    18
100
AcDbVertex
100
AcDb2dVertex
 10
51.92072380046481
 20
41.86155511188038
 30
0.0
  0
VERTEX
  5
262
330
260
100
AcDbEntity
  8
\U+30EC\U+30A4\U+30E4\U+30FC 1
 62
     7
370
    18
100
AcDbVertex
100
AcDb2dVertex
 10
51.92072380046481
 20
41.85414815170076
 30
0.0
  0
SEQEND
  5
263
330
260
100
AcDbEntity
  8
\U+30EC\U+30A4\U+30E4\U+30FC 1
370
    18
  0
POLYLINE
  5
264
330
1F
100
AcDbEntity
  8
\U+30EC\U+30A4\U+30E4\U+30FC 1
 62
     7
370
    18
100
AcDb2dPolyline
 66
     1
 10
0.0
 20
0.0
 30
0.0
  0
VERTEX
  5
265
330
264
100
AcDbEntity
  8
\U+30EC\U+30A4\U+30E4\U+30FC 1
 62
     7
370
    18
100
AcDbVertex
100
AcDb2dVertex
 10
51.92072380046481
 20
41.42661151993771
 30
0.0
  0
VERTEX
  5
266
330
264
100
AcDbEntity
  8
\U+30EC\U+30A4\U+30E4\U+30FC 1
 62
     7
370
    18
100
AcDbVertex
100
AcDb2dVertex
 10
51.92072380046481
 20
41.41920455975809
 30
0.0
  0
SEQEND
  5
267
330
264
100
AcDbEntity
  8
\U+30EC\U+30A4\U+30E4\U+30FC 1
370
    18
  0
POLYLINE
  5
268
330
1F
100
AcDbEntity
  8
\U+30EC\U+30A4\U+30E4\U+30FC 1
 62
     7
370
    18
100
AcDb2dPolyline
 66
     1
 10
0.0
 20
0.0
 30
0.0
  0
VERTEX
  5
269
330
268
100
AcDbEntity
  8
\U+30EC\U+30A4\U+30E4\U+30FC 1
 62
     7
370
    18
100
AcDbVertex
100
AcDb2dVertex
 10
52.07024104316035
 20
41.42058259886128
 30
0.0
  0
VERTEX
  5
26A
330
268
100
AcDbEntity
  8
\U+30EC\U+30A4\U+30E4\U+30FC 1
 62
     7
370
    18
100
AcDbVertex
100
AcDb2dVertex
 10
52.07024104316035
 20
41.86017707277719
 30
0.0
  0
SEQEND
  5
26B
330
268
100
AcDbEntity
  8
\U+30EC\U+30A4\U+30E4\U+30FC 1
370
    18
  0
POLYLINE
  5
26C
330
1F
100
AcDbEntity
  8
\U+30EC\U+30A4\U+30E4\U+30FC 1
 62
     7
370
    18
100
AcDb2dPolyline
 66
     1
 10
0.0
 20
0.0
 30
0.0
  0
VERTEX
  5
26D
330
26C
100
AcDbEntity
  8
\U+30EC\U+30A4\U+30E4\U+30FC 1
 62
     7
370
    18
100
AcDbVertex
100
AcDb2dVertex
 10
52.07024104316035
 20
42.51974103853895
 30
0.0
  0
VERTEX
  5
26E
330
26C
100
AcDbEntity
  8
\U+30EC\U+30A4\U+30E4\U+30FC 1
 62
     7
370
    18
100
AcDbVertex
100
AcDb2dVertex
 10
52.07024104316035
 20
42.95933551245486
 30
0.0
  0
SEQEND
  5
26F
330
26C
100
AcDbEntity
  8
\U+30EC\U+30A4\U+30E4\U+30FC 1
370
    18
  0
POLYLINE
  5
270
330
1F
100
AcDbEntity
  8
\U+30EC\U+30A4\U+30E4\U+30FC 1
 62
     7
370
    18
100
AcDb2dPolyline
 66
     1
 10
0.0
 20
0.0
 30
0.0
  0
VERTEX
  5
271
330
270
100
AcDbEntity
  8
\U+30EC\U+30A4\U+30E4\U+30FC 1
 62
     7
370
    18
100
AcDbVertex
100
AcDb2dVertex
 10
52.8295405890151
 20
43.02530913451983
 30
0.0
  0
VERTEX
  5
272
330
270
100
AcDbEntity
  8
\U+30EC\U+30A4\U+30E4\U+30FC 1
 62
     7
370
    18
100
AcDbVertex
100
AcDb2dVertex
 10
52.8295405890151
 20
42.45376741647399
 30
0.0
  0
SEQEND
  5
273
330
270
100
AcDbEntity
  8
\U+30EC\U+30A4\U+30E4\U+30FC 1
370
    18
  0
POLYLINE
  5
274
330
1F
100
AcDbEntity
  8
\U+30EC\U+30A4\U+30E4\U+30FC 1
 62
     7
370
    18
100
AcDb2dPolyline
 66
     1
 10
0.0
 20
0.0
 30
0.0
  0
VERTEX
  5
275
330
274
100
AcDbEntity
  8
\U+30EC\U+30A4\U+30E4\U+30FC 1
 62
     7
370
    18
100
AcDbVertex
100
AcDb2dVertex
 10
52.8295405890151
 20
41.92615069484216
 30
0.0
  0
VERTEX
  5
276
330
274
100
AcDbEntity
  8
\U+30EC\U+30A4\U+30E4\U+30FC 1
 62
     7
370
    18
100
AcDbVertex
100
AcDb2dVertex
 10
52.8295405890151
 20
41.35460897679631
 30
0.0
  0
SEQEND
  5
277
330
274
100
AcDbEntity
  8
\U+30EC\U+30A4\U+30E4\U+30FC 1
370
    18
  0
POLYLINE
  5
278
330
1F
100
AcDbEntity
  8
\U+30EC\U+30A4\U+30E4\U+30FC 1
 62
     7
370
    18
100
AcDb2dPolyline
 66
     1
 10
0.0
 20
0.0
 30
0.0
  0
VERTEX
  5
279
330
278
100
AcDbEntity
  8
\U+30EC\U+30A4\U+30E4\U+30FC 1
 62
     7
370
    18
100
AcDbVertex
100
AcDb2dVertex
 10
52.90326568103549
 20
41.85673197501923
 30
0.0
  0
VERTEX
  5
27A
330
278
100
AcDbEntity
  8
\U+30EC\U+30A4\U+30E4\U+30FC 1
 62
     7
370
    18
100
AcDbVertex
100
AcDb2dVertex
 10
52.90326568103549
 20
41.42402769661924
 30
0.0
  0
SEQEND
  5
27B
330
278
100
AcDbEntity
  8
\U+30EC\U+30A4\U+30E4\U+30FC 1
370
    18
  0
POLYLINE
  5
27C
330
1F
100
AcDbEntity
  8
\U+30EC\U+30A4\U+30E4\U+30FC 1
 62
     7
370
    18
100
AcDb2dPolyline
 66
     1
 10
0.0
 20
0.0
 30
0.0
  0
VERTEX
  5
27D
330
27C
100
AcDbEntity
  8
\U+30EC\U+30A4\U+30E4\U+30FC 1
 62
     7
370
    18
100
AcDbVertex
100
AcDb2dVertex
 10
52.90326568103549
 20
42.52353064607271
 30
0.0
  0
VERTEX
  5
27E
330
27C
100
AcDbEntity
  8
\U+30EC\U+30A4\U+30E4\U+30FC 1
 62
     7
370
    18
100
AcDbVertex
100
AcDb2dVertex
 10
52.90326568103549
 20
42.9558904146969
 30
0.0
  0
SEQEND
  5
27F
330
27C
100
AcDbEntity
  8
\U+30EC\U+30A4\U+30E4\U+30FC 1
370
    18
  0
POLYLINE
  5
280
330
1F
100
AcDbEntity
  8
\U+30EC\U+30A4\U+30E4\U+30FC 1
 62
     7
370
    18
100
AcDb2dPolyline
 66
     1
 10
0.0
 20
0.0
 30
0.0
  0
VERTEX
  5
281
330
280
100
AcDbEntity
  8
\U+30EC\U+30A4\U+30E4\U+30FC 1
 62
     7
370
    18
100
AcDbVertex
100
AcDb2dVertex
 10
53.3428601549514
 20
40.92207695328423
 30
0.0
  0
VERTEX
  5
282
330
280
100
AcDbEntity
  8
\U+30EC\U+30A4\U+30E4\U+30FC 1
 62
     7
370
    18
100
AcDbVertex
100
AcDb2dVertex
 10
53.3428601549514
 20
43.4871244889746
 30
0.0
  0
SEQEND
  5
283
330
280
100
AcDbEntity
  8
\U+30EC\U+30A4\U+30E4\U+30FC 1
370
    18
  0
POLYLINE
  5
284
330
1F
100
AcDbEntity
  8
\U+30EC\U+30A4\U+30E4\U+30FC 1
 62
     7
370
    18
100
AcDb2dPolyline
 66
     1
 10
0.0
 20
0.0
 30
0.0
  0
VERTEX
  5
285
330
284
100
AcDbEntity
  8
\U+30EC\U+30A4\U+30E4\U+30FC 1
 62
     7
370
    18
100
AcDbVertex
100
AcDb2dVertex
 10
50.68324468580497
 20
41.41920455975809
 30
0.0
  0
VERTEX
  5
286
330
284
100
AcDbEntity
  8
\U+30EC\U+30A4\U+30E4\U+30FC 1
 62
     7
370
    18
100
AcDbVertex
100
AcDb2dVertex
 10
50.58815998768523
 20
41.48018279007402
 30
0.0
  0
SEQEND
  5
287
330
284
100
AcDbEntity
  8
\U+30EC\U+30A4\U+30E4\U+30FC 1
370
    18
  0
POLYLINE
  5
288
330
1F
100
AcDbEntity
  8
\U+30EC\U+30A4\U+30E4\U+30FC 1
 62
     7
370
    18
100
AcDb2dPolyline
 66
     1
 10
0.0
 20
0.0
 30
0.0
  0
VERTEX
  5
289
330
288
100
AcDbEntity
  8
\U+30EC\U+30A4\U+30E4\U+30FC 1
 62
     7
370
    18
100
AcDbVertex
100
AcDb2dVertex
 10
50.68324468580497
 20
41.42661151993771
 30
0.0
  0
VERTEX
  5
28A
330
288
100
AcDbEntity
  8
\U+30EC\U+30A4\U+30E4\U+30FC 1
 62
     7
370
    18
100
AcDbVertex
100
AcDb2dVertex
 10
50.58815998768523
 20
41.48724524047784
 30
0.0
  0
SEQEND
  5
28B
330
288
100
AcDbEntity
  8
\U+30EC\U+30A4\U+30E4\U+30FC 1
370
    18
  0
POLYLINE
  5
28C
330
1F
100
AcDbEntity
  8
\U+30EC\U+30A4\U+30E4\U+30FC 1
 62
     7
370
    18
100
AcDb2dPolyline
 66
     1
 10
0.0
 20
0.0
 30
0.0
  0
VERTEX
  5
28D
330
28C
100
AcDbEntity
  8
\U+30EC\U+30A4\U+30E4\U+30FC 1
 62
     7
370
    18
100
AcDbVertex
100
AcDb2dVertex
 10
58.10674133466082
 20
40.92207695328423
 30
0.0
  0
VERTEX
  5
28E
330
28C
100
AcDbEntity
  8
\U+30EC\U+30A4\U+30E4\U+30FC 1
 62
     7
370
    18
100
AcDbVertex
100
AcDb2dVertex
 10
53.3428601549514
 20
40.92207695328423
 30
0.0
  0
SEQEND
  5
28F
330
28C
100
AcDbEntity
  8
\U+30EC\U+30A4\U+30E4\U+30FC 1
370
    18
  0
POLYLINE
  5
290
330
1F
100
AcDbEntity
  8
\U+30EC\U+30A4\U+30E4\U+30FC 1
 62
     7
370
    18
100
AcDb2dPolyline
 66
     1
 10
0.0
 20
0.0
 30
0.0
  0
VERTEX
  5
291
330
290
100
AcDbEntity
  8
\U+30EC\U+30A4\U+30E4\U+30FC 1
 62
     7
370
    18
100
AcDbVertex
100
AcDb2dVertex
 10
52.4436896401234
 20
41.37459054379249
 30
0.0
  0
VERTEX
  5
292
330
290
100
AcDbEntity
  8
\U+30EC\U+30A4\U+30E4\U+30FC 1
 62
     7
370
    18
100
AcDbVertex
100
AcDb2dVertex
 10
52.07024104316035
 20
41.42058259886128
 30
0.0
  0
SEQEND
  5
293
330
290
100
AcDbEntity
  8
\U+30EC\U+30A4\U+30E4\U+30FC 1
370
    18
  0
POLYLINE
  5
294
330
1F
100
AcDbEntity
  8
\U+30EC\U+30A4\U+30E4\U+30FC 1
 62
     7
370
    18
100
AcDb2dPolyline
 66
     1
 10
0.0
 20
0.0
 30
0.0
  0
VERTEX
  5
295
330
294
100
AcDbEntity
  8
\U+30EC\U+30A4\U+30E4\U+30FC 1
 62
     7
370
    18
100
AcDbVertex
100
AcDb2dVertex
 10
52.8295405890151
 20
41.35460897679631
 30
0.0
  0
VERTEX
  5
296
330
294
100
AcDbEntity
  8
\U+30EC\U+30A4\U+30E4\U+30FC 1
 62
     7
370
    18
100
AcDbVertex
100
AcDb2dVertex
 10
52.88741823134886
 20
41.35460897679631
 30
0.0
  0
SEQEND
  5
297
330
294
100
AcDbEntity
  8
\U+30EC\U+30A4\U+30E4\U+30FC 1
370
    18
  0
POLYLINE
  5
298
330
1F
100
AcDbEntity
  8
\U+30EC\U+30A4\U+30E4\U+30FC 1
 62
     7
370
    18
100
AcDb2dPolyline
 66
     1
 10
0.0
 20
0.0
 30
0.0
  0
VERTEX
  5
299
330
298
100
AcDbEntity
  8
\U+30EC\U+30A4\U+30E4\U+30FC 1
 62
     7
370
    18
100
AcDbVertex
100
AcDb2dVertex
 10
52.8295405890151
 20
41.38372005285109
 30
0.0
  0
VERTEX
  5
29A
330
298
100
AcDbEntity
  8
\U+30EC\U+30A4\U+30E4\U+30FC 1
 62
     7
370
    18
100
AcDbVertex
100
AcDb2dVertex
 10
52.89775352462274
 20
41.38372005285109
 30
0.0
  0
SEQEND
  5
29B
330
298
100
AcDbEntity
  8
\U+30EC\U+30A4\U+30E4\U+30FC 1
370
    18
  0
POLYLINE
  5
29C
330
1F
100
AcDbEntity
  8
\U+30EC\U+30A4\U+30E4\U+30FC 1
 62
     7
370
    18
100
AcDb2dPolyline
 66
     1
 10
0.0
 20
0.0
 30
0.0
  0
VERTEX
  5
29D
330
29C
100
AcDbEntity
  8
\U+30EC\U+30A4\U+30E4\U+30FC 1
 62
     7
370
    18
100
AcDbVertex
100
AcDb2dVertex
 10
51.92072380046481
 20
41.41920455975809
 30
0.0
  0
VERTEX
  5
29E
330
29C
100
AcDbEntity
  8
\U+30EC\U+30A4\U+30E4\U+30FC 1
 62
     7
370
    18
100
AcDbVertex
100
AcDb2dVertex
 10
50.68324468580497
 20
41.41920455975809
 30
0.0
  0
SEQEND
  5
29F
330
29C
100
AcDbEntity
  8
\U+30EC\U+30A4\U+30E4\U+30FC 1
370
    18
  0
POLYLINE
  5
2A0
330
1F
100
AcDbEntity
  8
\U+30EC\U+30A4\U+30E4\U+30FC 1
 62
     7
370
    18
100
AcDb2dPolyline
 66
     1
 10
0.0
 20
0.0
 30
0.0
  0
VERTEX
  5
2A1
330
2A0
100
AcDbEntity
  8
\U+30EC\U+30A4\U+30E4\U+30FC 1
 62
     7
370
    18
100
AcDbVertex
100
AcDb2dVertex
 10
51.92072380046481
 20
41.42661151993771
 30
0.0
  0
VERTEX
  5
2A2
330
2A0
100
AcDbEntity
  8
\U+30EC\U+30A4\U+30E4\U+30FC 1
 62
     7
370
    18
100
AcDbVertex
100
AcDb2dVertex
 10
50.68324468580497
 20
41.42661151993771
 30
0.0
  0
SEQEND
  5
2A3
330
2A0
100
AcDbEntity
  8
\U+30EC\U+30A4\U+30E4\U+30FC 1
370
    18
  0
POLYLINE
  5
2A4
330
1F
100
AcDbEntity
  8
\U+30EC\U+30A4\U+30E4\U+30FC 1
 62
     7
370
    18
100
AcDb2dPolyline
 66
     1
 10
0.0
 20
0.0
 30
0.0
  0
VERTEX
  5
2A5
330
2A4
100
AcDbEntity
  8
\U+30EC\U+30A4\U+30E4\U+30FC 1
 62
     7
370
    18
100
AcDbVertex
100
AcDb2dVertex
 10
52.8295405890151
 20
41.43832485231478
 30
0.0
  0
VERTEX
  5
2A6
330
2A4
100
AcDbEntity
  8
\U+30EC\U+30A4\U+30E4\U+30FC 1
 62
     7
370
    18
100
AcDbVertex
100
AcDb2dVertex
 10
52.88741823134886
 20
41.43832485231478
 30
0.0
  0
SEQEND
  5
2A7
330
2A4
100
AcDbEntity
  8
\U+30EC\U+30A4\U+30E4\U+30FC 1
370
    18
  0
POLYLINE
  5
2A8
330
1F
100
AcDbEntity
  8
\U+30EC\U+30A4\U+30E4\U+30FC 1
 62
     7
370
    18
100
AcDb2dPolyline
 66
     1
 10
0.0
 20
0.0
 30
0.0
  0
VERTEX
  5
2A9
330
2A8
100
AcDbEntity
  8
\U+30EC\U+30A4\U+30E4\U+30FC 1
 62
     7
370
    18
100
AcDbVertex
100
AcDb2dVertex
 10
50.3387349100088
 20
41.49379092621796
 30
0.0
  0
VERTEX
  5
2AA
330
2A8
100
AcDbEntity
  8
\U+30EC\U+30A4\U+30E4\U+30FC 1
 62
     7
370
    18
100
AcDbVertex
100
AcDb2dVertex
 10
50.36698471162409
 20
41.49379092621796
 30
0.0
  0
SEQEND
  5
2AB
330
2A8
100
AcDbEntity
  8
\U+30EC\U+30A4\U+30E4\U+30FC 1
370
    18
  0
POLYLINE
  5
2AC
330
1F
100
AcDbEntity
  8
\U+30EC\U+30A4\U+30E4\U+30FC 1
 62
     7
370
    18
100
AcDb2dPolyline
 66
     1
 10
0.0
 20
0.0
 30
0.0
  0
VERTEX
  5
2AD
330
2AC
100
AcDbEntity
  8
\U+30EC\U+30A4\U+30E4\U+30FC 1
 62
     7
370
    18
100
AcDbVertex
100
AcDb2dVertex
 10
52.90326568103549
 20
41.55976454828293
 30
0.0
  0
VERTEX
  5
2AE
330
2AC
100
AcDbEntity
  8
\U+30EC\U+30A4\U+30E4\U+30FC 1
 62
     7
370
    18
100
AcDbVertex
100
AcDb2dVertex
 10
52.93289352175395
 20
41.55976454828293
 30
0.0
  0
SEQEND
  5
2AF
330
2AC
100
AcDbEntity
  8
\U+30EC\U+30A4\U+30E4\U+30FC 1
370
    18
  0
POLYLINE
  5
2B0
330
1F
100
AcDbEntity
  8
\U+30EC\U+30A4\U+30E4\U+30FC 1
 62
     7
370
    18
100
AcDb2dPolyline
 66
     1
 10
0.0
 20
0.0
 30
0.0
  0
VERTEX
  5
2B1
330
2B0
100
AcDbEntity
  8
\U+30EC\U+30A4\U+30E4\U+30FC 1
 62
     7
370
    18
100
AcDbVertex
100
AcDb2dVertex
 10
52.97630175350427
 20
41.55976454828293
 30
0.0
  0
VERTEX
  5
2B2
330
2B0
100
AcDbEntity
  8
\U+30EC\U+30A4\U+30E4\U+30FC 1
 62
     7
370
    18
100
AcDbVertex
100
AcDb2dVertex
 10
53.07896566669153
 20
41.55976454828293
 30
0.0
  0
SEQEND
  5
2B3
330
2B0
100
AcDbEntity
  8
\U+30EC\U+30A4\U+30E4\U+30FC 1
370
    18
  0
POLYLINE
  5
2B4
330
1F
100
AcDbEntity
  8
\U+30EC\U+30A4\U+30E4\U+30FC 1
 62
     7
370
    18
100
AcDb2dPolyline
 66
     1
 10
0.0
 20
0.0
 30
0.0
  0
VERTEX
  5
2B5
330
2B4
100
AcDbEntity
  8
\U+30EC\U+30A4\U+30E4\U+30FC 1
 62
     7
370
    18
100
AcDbVertex
100
AcDb2dVertex
 10
53.12237389844185
 20
41.55976454828293
 30
0.0
  0
VERTEX
  5
2B6
330
2B4
100
AcDbEntity
  8
\U+30EC\U+30A4\U+30E4\U+30FC 1
 62
     7
370
    18
100
AcDbVertex
100
AcDb2dVertex
 10
53.2257268311807
 20
41.55976454828293
 30
0.0
  0
SEQEND
  5
2B7
330
2B4
100
AcDbEntity
  8
\U+30EC\U+30A4\U+30E4\U+30FC 1
370
    18
  0
POLYLINE
  5
2B8
330
1F
100
AcDbEntity
  8
\U+30EC\U+30A4\U+30E4\U+30FC 1
 62
     7
370
    18
100
AcDb2dPolyline
 66
     1
 10
0.0
 20
0.0
 30
0.0
  0
VERTEX
  5
2B9
330
2B8
100
AcDbEntity
  8
\U+30EC\U+30A4\U+30E4\U+30FC 1
 62
     7
370
    18
100
AcDbVertex
100
AcDb2dVertex
 10
53.26982408248261
 20
41.55976454828293
 30
0.0
  0
VERTEX
  5
2BA
330
2B8
100
AcDbEntity
  8
\U+30EC\U+30A4\U+30E4\U+30FC 1
 62
     7
370
    18
100
AcDbVertex
100
AcDb2dVertex
 10
53.3428601549514
 20
41.55976454828293
 30
0.0
  0
SEQEND
  5
2BB
330
2B8
100
AcDbEntity
  8
\U+30EC\U+30A4\U+30E4\U+30FC 1
370
    18
  0
POLYLINE
  5
2BC
330
1F
100
AcDbEntity
  8
\U+30EC\U+30A4\U+30E4\U+30FC 1
 62
     7
370
    18
100
AcDb2dPolyline
 66
     1
 10
0.0
 20
0.0
 30
0.0
  0
VERTEX
  5
2BD
330
2BC
100
AcDbEntity
  8
\U+30EC\U+30A4\U+30E4\U+30FC 1
 62
     7
370
    18
100
AcDbVertex
100
AcDb2dVertex
 10
52.07024104316035
 20
41.42058259886128
 30
0.0
  0
VERTEX
  5
2BE
330
2BC
100
AcDbEntity
  8
\U+30EC\U+30A4\U+30E4\U+30FC 1
 62
     7
370
    18
100
AcDbVertex
100
AcDb2dVertex
 10
51.94483948477054
 20
41.42385544173134
 30
0.0
  0
SEQEND
  5
2BF
330
2BC
100
AcDbEntity
  8
\U+30EC\U+30A4\U+30E4\U+30FC 1
370
    18
  0
POLYLINE
  5
2C0
330
1F
100
AcDbEntity
  8
\U+30EC\U+30A4\U+30E4\U+30FC 1
 62
     7
370
    18
100
AcDb2dPolyline
 66
     1
 10
0.0
 20
0.0
 30
0.0
  0
VERTEX
  5
2C1
330
2C0
100
AcDbEntity
  8
\U+30EC\U+30A4\U+30E4\U+30FC 1
 62
     7
370
    18
100
AcDbVertex
100
AcDb2dVertex
 10
50.62192194571325
 20
41.45847867419886
 30
0.0
  0
VERTEX
  5
2C2
330
2C0
100
AcDbEntity
  8
\U+30EC\U+30A4\U+30E4\U+30FC 1
 62
     7
370
    18
100
AcDbVertex
100
AcDb2dVertex
 10
50.36698471162409
 20
41.46519661482688
 30
0.0
  0
SEQEND
  5
2C3
330
2C0
100
AcDbEntity
  8
\U+30EC\U+30A4\U+30E4\U+30FC 1
370
    18
  0
POLYLINE
  5
2C4
330
1F
100
AcDbEntity
  8
\U+30EC\U+30A4\U+30E4\U+30FC 1
 62
     7
370
    18
100
AcDb2dPolyline
 66
     1
 10
0.0
 20
0.0
 30
0.0
  0
VERTEX
  5
2C5
330
2C4
100
AcDbEntity
  8
\U+30EC\U+30A4\U+30E4\U+30FC 1
 62
     7
370
    18
100
AcDbVertex
100
AcDb2dVertex
 10
50.3387349100088
 20
41.46588563437847
 30
0.0
  0
VERTEX
  5
2C6
330
2C4
100
AcDbEntity
  8
\U+30EC\U+30A4\U+30E4\U+30FC 1
 62
     7
370
    18
100
AcDbVertex
100
AcDb2dVertex
 10
50.07897453905849
 20
41.4727758298944
 30
0.0
  0
SEQEND
  5
2C7
330
2C4
100
AcDbEntity
  8
\U+30EC\U+30A4\U+30E4\U+30FC 1
370
    18
  0
POLYLINE
  5
2C8
330
1F
100
AcDbEntity
  8
\U+30EC\U+30A4\U+30E4\U+30FC 1
 62
     7
370
    18
100
AcDb2dPolyline
 66
     1
 10
0.0
 20
0.0
 30
0.0
  0
VERTEX
  5
2C9
330
2C8
100
AcDbEntity
  8
\U+30EC\U+30A4\U+30E4\U+30FC 1
 62
     7
370
    18
100
AcDbVertex
100
AcDb2dVertex
 10
52.8295405890151
 20
41.43832485231478
 30
0.0
  0
VERTEX
  5
2CA
330
2C8
100
AcDbEntity
  8
\U+30EC\U+30A4\U+30E4\U+30FC 1
 62
     7
370
    18
100
AcDbVertex
100
AcDb2dVertex
 10
52.42990924909155
 20
41.45365553733771
 30
0.0
  0
SEQEND
  5
2CB
330
2C8
100
AcDbEntity
  8
\U+30EC\U+30A4\U+30E4\U+30FC 1
370
    18
  0
POLYLINE
  5
2CC
330
1F
100
AcDbEntity
  8
\U+30EC\U+30A4\U+30E4\U+30FC 1
 62
     7
370
    18
100
AcDb2dPolyline
 66
     1
 10
0.0
 20
0.0
 30
0.0
  0
VERTEX
  5
2CD
330
2CC
100
AcDbEntity
  8
\U+30EC\U+30A4\U+30E4\U+30FC 1
 62
     7
370
    18
100
AcDbVertex
100
AcDb2dVertex
 10
52.8295405890151
 20
41.38372005285109
 30
0.0
  0
VERTEX
  5
2CE
330
2CC
100
AcDbEntity
  8
\U+30EC\U+30A4\U+30E4\U+30FC 1
 62
     7
370
    18
100
AcDbVertex
100
AcDb2dVertex
 10
52.09366770791448
 20
41.41834328531861
 30
0.0
  0
SEQEND
  5
2CF
330
2CC
100
AcDbEntity
  8
\U+30EC\U+30A4\U+30E4\U+30FC 1
370
    18
  0
POLYLINE
  5
2D0
330
1F
100
AcDbEntity
  8
\U+30EC\U+30A4\U+30E4\U+30FC 1
 62
     7
370
    18
100
AcDb2dPolyline
 66
     1
 10
0.0
 20
0.0
 30
0.0
  0
VERTEX
  5
2D1
330
2D0
100
AcDbEntity
  8
\U+30EC\U+30A4\U+30E4\U+30FC 1
 62
     7
370
    18
100
AcDbVertex
100
AcDb2dVertex
 10
52.8295405890151
 20
41.35460897679631
 30
0.0
  0
VERTEX
  5
2D2
330
2D0
100
AcDbEntity
  8
\U+30EC\U+30A4\U+30E4\U+30FC 1
 62
     7
370
    18
100
AcDbVertex
100
AcDb2dVertex
 10
52.4436896401234
 20
41.37459054379249
 30
0.0
  0
SEQEND
  5
2D3
330
2D0
100
AcDbEntity
  8
\U+30EC\U+30A4\U+30E4\U+30FC 1
370
    18
  0
POLYLINE
  5
2D4
330
1F
100
AcDbEntity
  8
\U+30EC\U+30A4\U+30E4\U+30FC 1
 62
     7
370
    18
100
AcDb2dPolyline
 66
     1
 10
0.0
 20
0.0
 30
0.0
  0
VERTEX
  5
2D5
330
2D4
100
AcDbEntity
  8
\U+30EC\U+30A4\U+30E4\U+30FC 1
 62
     7
370
    18
100
AcDbVertex
100
AcDb2dVertex
 10
52.06403986719602
 20
41.82693187941286
 30
0.0
  0
VERTEX
  5
2D6
330
2D4
100
AcDbEntity
  8
\U+30EC\U+30A4\U+30E4\U+30FC 1
 62
     7
370
    18
100
AcDbVertex
100
AcDb2dVertex
 10
51.92072380046481
 20
41.85414815170076
 30
0.0
  0
SEQEND
  5
2D7
330
2D4
100
AcDbEntity
  8
\U+30EC\U+30A4\U+30E4\U+30FC 1
370
    18
  0
POLYLINE
  5
2D8
330
1F
100
AcDbEntity
  8
\U+30EC\U+30A4\U+30E4\U+30FC 1
 62
     7
370
    18
100
AcDb2dPolyline
 66
     1
 10
0.0
 20
0.0
 30
0.0
  0
VERTEX
  5
2D9
330
2D8
100
AcDbEntity
  8
\U+30EC\U+30A4\U+30E4\U+30FC 1
 62
     7
370
    18
100
AcDbVertex
100
AcDb2dVertex
 10
52.06403986719602
 20
41.83433883959248
 30
0.0
  0
VERTEX
  5
2DA
330
2D8
100
AcDbEntity
  8
\U+30EC\U+30A4\U+30E4\U+30FC 1
 62
     7
370
    18
100
AcDbVertex
100
AcDb2dVertex
 10
51.92072380046481
 20
41.86155511188038
 30
0.0
  0
SEQEND
  5
2DB
330
2D8
100
AcDbEntity
  8
\U+30EC\U+30A4\U+30E4\U+30FC 1
370
    18
  0
POLYLINE
  5
2DC
330
1F
100
AcDbEntity
  8
\U+30EC\U+30A4\U+30E4\U+30FC 1
 62
     7
370
    18
100
AcDb2dPolyline
 66
     1
 10
0.0
 20
0.0
 30
0.0
  0
VERTEX
  5
2DD
330
2DC
100
AcDbEntity
  8
\U+30EC\U+30A4\U+30E4\U+30FC 1
 62
     7
370
    18
100
AcDbVertex
100
AcDb2dVertex
 10
50.68324468580497
 20
42.60776328625488
 30
0.0
  0
VERTEX
  5
2DE
330
2DC
100
AcDbEntity
  8
\U+30EC\U+30A4\U+30E4\U+30FC 1
 62
     7
370
    18
100
AcDbVertex
100
AcDb2dVertex
 10
50.58815998768523
 20
42.64273102849819
 30
0.0
  0
SEQEND
  5
2DF
330
2DC
100
AcDbEntity
  8
\U+30EC\U+30A4\U+30E4\U+30FC 1
370
    18
  0
POLYLINE
  5
2E0
330
1F
100
AcDbEntity
  8
\U+30EC\U+30A4\U+30E4\U+30FC 1
 62
     7
370
    18
100
AcDb2dPolyline
 66
     1
 10
0.0
 20
0.0
 30
0.0
  0
VERTEX
  5
2E1
330
2E0
100
AcDbEntity
  8
\U+30EC\U+30A4\U+30E4\U+30FC 1
 62
     7
370
    18
100
AcDbVertex
100
AcDb2dVertex
 10
50.68324468580497
 20
42.62033789307144
 30
0.0
  0
VERTEX
  5
2E2
330
2E0
100
AcDbEntity
  8
\U+30EC\U+30A4\U+30E4\U+30FC 1
 62
     7
370
    18
100
AcDbVertex
100
AcDb2dVertex
 10
50.58815998768523
 20
42.65565014509055
 30
0.0
  0
SEQEND
  5
2E3
330
2E0
100
AcDbEntity
  8
\U+30EC\U+30A4\U+30E4\U+30FC 1
370
    18
  0
POLYLINE
  5
2E4
330
1F
100
AcDbEntity
  8
\U+30EC\U+30A4\U+30E4\U+30FC 1
 62
     7
370
    18
100
AcDb2dPolyline
 66
     1
 10
0.0
 20
0.0
 30
0.0
  0
VERTEX
  5
2E5
330
2E4
100
AcDbEntity
  8
\U+30EC\U+30A4\U+30E4\U+30FC 1
 62
     7
370
    18
100
AcDbVertex
100
AcDb2dVertex
 10
52.06403986719602
 20
41.44659308693389
 30
0.0
  0
VERTEX
  5
2E6
330
2E4
100
AcDbEntity
  8
\U+30EC\U+30A4\U+30E4\U+30FC 1
 62
     7
370
    18
100
AcDbVertex
100
AcDb2dVertex
 10
51.92072380046481
 20
41.41920455975809
 30
0.0
  0
SEQEND
  5
2E7
330
2E4
100
AcDbEntity
  8
\U+30EC\U+30A4\U+30E4\U+30FC 1
370
    18
  0
POLYLINE
  5
2E8
330
1F
100
AcDbEntity
  8
\U+30EC\U+30A4\U+30E4\U+30FC 1
 62
     7
370
    18
100
AcDb2dPolyline
 66
     1
 10
0.0
 20
0.0
 30
0.0
  0
VERTEX
  5
2E9
330
2E8
100
AcDbEntity
  8
\U+30EC\U+30A4\U+30E4\U+30FC 1
 62
     7
370
    18
100
AcDbVertex
100
AcDb2dVertex
 10
52.06403986719602
 20
41.45400004711351
 30
0.0
  0
VERTEX
  5
2EA
330
2E8
100
AcDbEntity
  8
\U+30EC\U+30A4\U+30E4\U+30FC 1
 62
     7
370
    18
100
AcDbVertex
100
AcDb2dVertex
 10
51.92072380046481
 20
41.42661151993771
 30
0.0
  0
SEQEND
  5
2EB
330
2E8
100
AcDbEntity
  8
\U+30EC\U+30A4\U+30E4\U+30FC 1
370
    18
  0
POLYLINE
  5
2EC
330
1F
100
AcDbEntity
  8
\U+30EC\U+30A4\U+30E4\U+30FC 1
 62
     7
370
    18
100
AcDb2dPolyline
 66
     1
 10
0.0
 20
0.0
 30
0.0
  0
VERTEX
  5
2ED
330
2EC
100
AcDbEntity
  8
\U+30EC\U+30A4\U+30E4\U+30FC 1
 62
     7
370
    18
100
AcDbVertex
100
AcDb2dVertex
 10
52.8295405890151
 20
41.89721187367527
 30
0.0
  0
VERTEX
  5
2EE
330
2EC
100
AcDbEntity
  8
\U+30EC\U+30A4\U+30E4\U+30FC 1
 62
     7
370
    18
100
AcDbVertex
100
AcDb2dVertex
 10
52.09366770791448
 20
41.86207187654407
 30
0.0
  0
SEQEND
  5
2EF
330
2EC
100
AcDbEntity
  8
\U+30EC\U+30A4\U+30E4\U+30FC 1
370
    18
  0
POLYLINE
  5
2F0
330
1F
100
AcDbEntity
  8
\U+30EC\U+30A4\U+30E4\U+30FC 1
 62
     7
370
    18
100
AcDb2dPolyline
 66
     1
 10
0.0
 20
0.0
 30
0.0
  0
VERTEX
  5
2F1
330
2F0
100
AcDbEntity
  8
\U+30EC\U+30A4\U+30E4\U+30FC 1
 62
     7
370
    18
100
AcDbVertex
100
AcDb2dVertex
 10
52.8295405890151
 20
41.84243481932369
 30
0.0
  0
VERTEX
  5
2F2
330
2F0
100
AcDbEntity
  8
\U+30EC\U+30A4\U+30E4\U+30FC 1
 62
     7
370
    18
100
AcDbVertex
100
AcDb2dVertex
 10
52.42990924909155
 20
41.82710413430076
 30
0.0
  0
SEQEND
  5
2F3
330
2F0
100
AcDbEntity
  8
\U+30EC\U+30A4\U+30E4\U+30FC 1
370
    18
  0
POLYLINE
  5
2F4
330
1F
100
AcDbEntity
  8
\U+30EC\U+30A4\U+30E4\U+30FC 1
 62
     7
370
    18
100
AcDb2dPolyline
 66
     1
 10
0.0
 20
0.0
 30
0.0
  0
VERTEX
  5
2F5
330
2F4
100
AcDbEntity
  8
\U+30EC\U+30A4\U+30E4\U+30FC 1
 62
     7
370
    18
100
AcDbVertex
100
AcDb2dVertex
 10
52.07024104316035
 20
41.86017707277719
 30
0.0
  0
VERTEX
  5
2F6
330
2F4
100
AcDbEntity
  8
\U+30EC\U+30A4\U+30E4\U+30FC 1
 62
     7
370
    18
100
AcDbVertex
100
AcDb2dVertex
 10
51.94483948477054
 20
41.85690422990713
 30
0.0
  0
SEQEND
  5
2F7
330
2F4
100
AcDbEntity
  8
\U+30EC\U+30A4\U+30E4\U+30FC 1
370
    18
  0
POLYLINE
  5
2F8
330
1F
100
AcDbEntity
  8
\U+30EC\U+30A4\U+30E4\U+30FC 1
 62
     7
370
    18
100
AcDb2dPolyline
 66
     1
 10
0.0
 20
0.0
 30
0.0
  0
VERTEX
  5
2F9
330
2F8
100
AcDbEntity
  8
\U+30EC\U+30A4\U+30E4\U+30FC 1
 62
     7
370
    18
100
AcDbVertex
100
AcDb2dVertex
 10
50.62192194571325
 20
41.82228099743961
 30
0.0
  0
VERTEX
  5
2FA
330
2F8
100
AcDbEntity
  8
\U+30EC\U+30A4\U+30E4\U+30FC 1
 62
     7
370
    18
100
AcDbVertex
100
AcDb2dVertex
 10
50.36698471162409
 20
41.81573531169948
 30
0.0
  0
SEQEND
  5
2FB
330
2F8
100
AcDbEntity
  8
\U+30EC\U+30A4\U+30E4\U+30FC 1
370
    18
  0
POLYLINE
  5
2FC
330
1F
100
AcDbEntity
  8
\U+30EC\U+30A4\U+30E4\U+30FC 1
 62
     7
370
    18
100
AcDb2dPolyline
 66
     1
 10
0.0
 20
0.0
 30
0.0
  0
VERTEX
  5
2FD
330
2FC
100
AcDbEntity
  8
\U+30EC\U+30A4\U+30E4\U+30FC 1
 62
     7
370
    18
100
AcDbVertex
100
AcDb2dVertex
 10
50.3387349100088
 20
41.81487403725999
 30
0.0
  0
VERTEX
  5
2FE
330
2FC
100
AcDbEntity
  8
\U+30EC\U+30A4\U+30E4\U+30FC 1
 62
     7
370
    18
100
AcDbVertex
100
AcDb2dVertex
 10
50.07897453905849
 20
41.80798384174407
 30
0.0
  0
SEQEND
  5
2FF
330
2FC
100
AcDbEntity
  8
\U+30EC\U+30A4\U+30E4\U+30FC 1
370
    18
  0
POLYLINE
  5
300
330
1F
100
AcDbEntity
  8
\U+30EC\U+30A4\U+30E4\U+30FC 1
 62
     7
370
    18
100
AcDb2dPolyline
 66
     1
 10
0.0
 20
0.0
 30
0.0
  0
VERTEX
  5
301
330
300
100
AcDbEntity
  8
\U+30EC\U+30A4\U+30E4\U+30FC 1
 62
     7
370
    18
100
AcDbVertex
100
AcDb2dVertex
 10
52.8295405890151
 20
41.66639032389185
 30
0.0
  0
VERTEX
  5
302
330
300
100
AcDbEntity
  8
\U+30EC\U+30A4\U+30E4\U+30FC 1
 62
     7
370
    18
100
AcDbVertex
100
AcDb2dVertex
 10
52.09366770791448
 20
41.65846659904853
 30
0.0
  0
SEQEND
  5
303
330
300
100
AcDbEntity
  8
\U+30EC\U+30A4\U+30E4\U+30FC 1
370
    18
  0
POLYLINE
  5
304
330
1F
100
AcDbEntity
  8
\U+30EC\U+30A4\U+30E4\U+30FC 1
 62
     7
370
    18
100
AcDb2dPolyline
 66
     1
 10
0.0
 20
0.0
 30
0.0
  0
VERTEX
  5
305
330
304
100
AcDbEntity
  8
\U+30EC\U+30A4\U+30E4\U+30FC 1
 62
     7
370
    18
100
AcDbVertex
100
AcDb2dVertex
 10
50.77832938392471
 20
41.66604581411605
 30
0.0
  0
VERTEX
  5
306
330
304
100
AcDbEntity
  8
\U+30EC\U+30A4\U+30E4\U+30FC 1
 62
     7
370
    18
100
AcDbVertex
100
AcDb2dVertex
 10
51.98549163831449
 20
41.67259149985617
 30
0.0
  0
SEQEND
  5
307
330
304
100
AcDbEntity
  8
\U+30EC\U+30A4\U+30E4\U+30FC 1
370
    18
  0
POLYLINE
  5
308
330
1F
100
AcDbEntity
  8
\U+30EC\U+30A4\U+30E4\U+30FC 1
 62
     7
370
    18
100
AcDb2dPolyline
 66
     1
 10
0.0
 20
0.0
 30
0.0
  0
VERTEX
  5
309
330
308
100
AcDbEntity
  8
\U+30EC\U+30A4\U+30E4\U+30FC 1
 62
     7
370
    18
100
AcDbVertex
100
AcDb2dVertex
 10
52.8295405890151
 20
41.61436934774662
 30
0.0
  0
VERTEX
  5
30A
330
308
100
AcDbEntity
  8
\U+30EC\U+30A4\U+30E4\U+30FC 1
 62
     7
370
    18
100
AcDbVertex
100
AcDb2dVertex
 10
52.89775352462274
 20
41.61436934774662
 30
0.0
  0
SEQEND
  5
30B
330
308
100
AcDbEntity
  8
\U+30EC\U+30A4\U+30E4\U+30FC 1
370
    18
  0
POLYLINE
  5
30C
330
1F
100
AcDbEntity
  8
\U+30EC\U+30A4\U+30E4\U+30FC 1
 62
     7
370
    18
100
AcDb2dPolyline
 66
     1
 10
0.0
 20
0.0
 30
0.0
  0
VERTEX
  5
30D
330
30C
100
AcDbEntity
  8
\U+30EC\U+30A4\U+30E4\U+30FC 1
 62
     7
370
    18
100
AcDbVertex
100
AcDb2dVertex
 10
52.4436896401234
 20
41.64037983581923
 30
0.0
  0
VERTEX
  5
30E
330
30C
100
AcDbEntity
  8
\U+30EC\U+30A4\U+30E4\U+30FC 1
 62
     7
370
    18
100
AcDbVertex
100
AcDb2dVertex
 10
52.88741823134886
 20
41.64037983581923
 30
0.0
  0
SEQEND
  5
30F
330
30C
100
AcDbEntity
  8
\U+30EC\U+30A4\U+30E4\U+30FC 1
370
    18
  0
POLYLINE
  5
310
330
1F
100
AcDbEntity
  8
\U+30EC\U+30A4\U+30E4\U+30FC 1
 62
     7
370
    18
100
AcDb2dPolyline
 66
     1
 10
0.0
 20
0.0
 30
0.0
  0
VERTEX
  5
311
330
310
100
AcDbEntity
  8
\U+30EC\U+30A4\U+30E4\U+30FC 1
 62
     7
370
    18
100
AcDbVertex
100
AcDb2dVertex
 10
52.8295405890151
 20
41.66639032389185
 30
0.0
  0
VERTEX
  5
312
330
310
100
AcDbEntity
  8
\U+30EC\U+30A4\U+30E4\U+30FC 1
 62
     7
370
    18
100
AcDbVertex
100
AcDb2dVertex
 10
52.89775352462274
 20
41.66639032389185
 30
0.0
  0
SEQEND
  5
313
330
310
100
AcDbEntity
  8
\U+30EC\U+30A4\U+30E4\U+30FC 1
370
    18
  0
POLYLINE
  5
314
330
1F
100
AcDbEntity
  8
\U+30EC\U+30A4\U+30E4\U+30FC 1
 62
     7
370
    18
100
AcDb2dPolyline
 66
     1
 10
0.0
 20
0.0
 30
0.0
  0
VERTEX
  5
315
330
314
100
AcDbEntity
  8
\U+30EC\U+30A4\U+30E4\U+30FC 1
 62
     7
370
    18
100
AcDbVertex
100
AcDb2dVertex
 10
52.91015587655141
 20
41.72099512335554
 30
0.0
  0
VERTEX
  5
316
330
314
100
AcDbEntity
  8
\U+30EC\U+30A4\U+30E4\U+30FC 1
 62
     7
370
    18
100
AcDbVertex
100
AcDb2dVertex
 10
53.01281978973866
 20
41.72099512335554
 30
0.0
  0
SEQEND
  5
317
330
314
100
AcDbEntity
  8
\U+30EC\U+30A4\U+30E4\U+30FC 1
370
    18
  0
POLYLINE
  5
318
330
1F
100
AcDbEntity
  8
\U+30EC\U+30A4\U+30E4\U+30FC 1
 62
     7
370
    18
100
AcDb2dPolyline
 66
     1
 10
0.0
 20
0.0
 30
0.0
  0
VERTEX
  5
319
330
318
100
AcDbEntity
  8
\U+30EC\U+30A4\U+30E4\U+30FC 1
 62
     7
370
    18
100
AcDbVertex
100
AcDb2dVertex
 10
53.05622802148898
 20
41.72099512335554
 30
0.0
  0
VERTEX
  5
31A
330
318
100
AcDbEntity
  8
\U+30EC\U+30A4\U+30E4\U+30FC 1
 62
     7
370
    18
100
AcDbVertex
100
AcDb2dVertex
 10
53.15958095422783
 20
41.72099512335554
 30
0.0
  0
SEQEND
  5
31B
330
318
100
AcDbEntity
  8
\U+30EC\U+30A4\U+30E4\U+30FC 1
370
    18
  0
POLYLINE
  5
31C
330
1F
100
AcDbEntity
  8
\U+30EC\U+30A4\U+30E4\U+30FC 1
 62
     7
370
    18
100
AcDb2dPolyline
 66
     1
 10
0.0
 20
0.0
 30
0.0
  0
VERTEX
  5
31D
330
31C
100
AcDbEntity
  8
\U+30EC\U+30A4\U+30E4\U+30FC 1
 62
     7
370
    18
100
AcDbVertex
100
AcDb2dVertex
 10
53.20367820552974
 20
41.72099512335554
 30
0.0
  0
VERTEX
  5
31E
330
31C
100
AcDbEntity
  8
\U+30EC\U+30A4\U+30E4\U+30FC 1
 62
     7
370
    18
100
AcDbVertex
100
AcDb2dVertex
 10
53.30634211871701
 20
41.72099512335554
 30
0.0
  0
SEQEND
  5
31F
330
31C
100
AcDbEntity
  8
\U+30EC\U+30A4\U+30E4\U+30FC 1
370
    18
  0
POLYLINE
  5
320
330
1F
100
AcDbEntity
  8
\U+30EC\U+30A4\U+30E4\U+30FC 1
 62
     7
370
    18
100
AcDb2dPolyline
 66
     1
 10
0.0
 20
0.0
 30
0.0
  0
VERTEX
  5
321
330
320
100
AcDbEntity
  8
\U+30EC\U+30A4\U+30E4\U+30FC 1
 62
     7
370
    18
100
AcDbVertex
100
AcDb2dVertex
 10
50.3387349100088
 20
41.7869687454205
 30
0.0
  0
VERTEX
  5
322
330
320
100
AcDbEntity
  8
\U+30EC\U+30A4\U+30E4\U+30FC 1
 62
     7
370
    18
100
AcDbVertex
100
AcDb2dVertex
 10
50.36698471162409
 20
41.7869687454205
 30
0.0
  0
SEQEND
  5
323
330
320
100
AcDbEntity
  8
\U+30EC\U+30A4\U+30E4\U+30FC 1
370
    18
  0
POLYLINE
  5
324
330
1F
100
AcDbEntity
  8
\U+30EC\U+30A4\U+30E4\U+30FC 1
 62
     7
370
    18
100
AcDb2dPolyline
 66
     1
 10
0.0
 20
0.0
 30
0.0
  0
VERTEX
  5
325
330
324
100
AcDbEntity
  8
\U+30EC\U+30A4\U+30E4\U+30FC 1
 62
     7
370
    18
100
AcDbVertex
100
AcDb2dVertex
 10
52.8295405890151
 20
41.84243481932369
 30
0.0
  0
VERTEX
  5
326
330
324
100
AcDbEntity
  8
\U+30EC\U+30A4\U+30E4\U+30FC 1
 62
     7
370
    18
100
AcDbVertex
100
AcDb2dVertex
 10
52.88741823134886
 20
41.84243481932369
 30
0.0
  0
SEQEND
  5
327
330
324
100
AcDbEntity
  8
\U+30EC\U+30A4\U+30E4\U+30FC 1
370
    18
  0
POLYLINE
  5
328
330
1F
100
AcDbEntity
  8
\U+30EC\U+30A4\U+30E4\U+30FC 1
 62
     7
370
    18
100
AcDb2dPolyline
 66
     1
 10
0.0
 20
0.0
 30
0.0
  0
VERTEX
  5
329
330
328
100
AcDbEntity
  8
\U+30EC\U+30A4\U+30E4\U+30FC 1
 62
     7
370
    18
100
AcDbVertex
100
AcDb2dVertex
 10
51.92072380046481
 20
41.85414815170076
 30
0.0
  0
VERTEX
  5
32A
330
328
100
AcDbEntity
  8
\U+30EC\U+30A4\U+30E4\U+30FC 1
 62
     7
370
    18
100
AcDbVertex
100
AcDb2dVertex
 10
50.68324468580497
 20
41.85414815170076
 30
0.0
  0
SEQEND
  5
32B
330
328
100
AcDbEntity
  8
\U+30EC\U+30A4\U+30E4\U+30FC 1
370
    18
  0
POLYLINE
  5
32C
330
1F
100
AcDbEntity
  8
\U+30EC\U+30A4\U+30E4\U+30FC 1
 62
     7
370
    18
100
AcDb2dPolyline
 66
     1
 10
0.0
 20
0.0
 30
0.0
  0
VERTEX
  5
32D
330
32C
100
AcDbEntity
  8
\U+30EC\U+30A4\U+30E4\U+30FC 1
 62
     7
370
    18
100
AcDbVertex
100
AcDb2dVertex
 10
51.92072380046481
 20
41.86155511188038
 30
0.0
  0
VERTEX
  5
32E
330
32C
100
AcDbEntity
  8
\U+30EC\U+30A4\U+30E4\U+30FC 1
 62
     7
370
    18
100
AcDbVertex
100
AcDb2dVertex
 10
50.68324468580497
 20
41.86155511188038
 30
0.0
  0
SEQEND
  5
32F
330
32C
100
AcDbEntity
  8
\U+30EC\U+30A4\U+30E4\U+30FC 1
370
    18
  0
POLYLINE
  5
330
330
1F
100
AcDbEntity
  8
\U+30EC\U+30A4\U+30E4\U+30FC 1
 62
     7
370
    18
100
AcDb2dPolyline
 66
     1
 10
0.0
 20
0.0
 30
0.0
  0
VERTEX
  5
331
330
330
100
AcDbEntity
  8
\U+30EC\U+30A4\U+30E4\U+30FC 1
 62
     7
370
    18
100
AcDbVertex
100
AcDb2dVertex
 10
52.8295405890151
 20
41.89721187367527
 30
0.0
  0
VERTEX
  5
332
330
330
100
AcDbEntity
  8
\U+30EC\U+30A4\U+30E4\U+30FC 1
 62
     7
370
    18
100
AcDbVertex
100
AcDb2dVertex
 10
52.89775352462274
 20
41.89721187367527
 30
0.0
  0
SEQEND
  5
333
330
330
100
AcDbEntity
  8
\U+30EC\U+30A4\U+30E4\U+30FC 1
370
    18
  0
POLYLINE
  5
334
330
1F
100
AcDbEntity
  8
\U+30EC\U+30A4\U+30E4\U+30FC 1
 62
     7
370
    18
100
AcDb2dPolyline
 66
     1
 10
0.0
 20
0.0
 30
0.0
  0
VERTEX
  5
335
330
334
100
AcDbEntity
  8
\U+30EC\U+30A4\U+30E4\U+30FC 1
 62
     7
370
    18
100
AcDbVertex
100
AcDb2dVertex
 10
52.8295405890151
 20
41.92615069484216
 30
0.0
  0
VERTEX
  5
336
330
334
100
AcDbEntity
  8
\U+30EC\U+30A4\U+30E4\U+30FC 1
 62
     7
370
    18
100
AcDbVertex
100
AcDb2dVertex
 10
52.88741823134886
 20
41.92615069484216
 30
0.0
  0
SEQEND
  5
337
330
334
100
AcDbEntity
  8
\U+30EC\U+30A4\U+30E4\U+30FC 1
370
    18
  0
POLYLINE
  5
338
330
1F
100
AcDbEntity
  8
\U+30EC\U+30A4\U+30E4\U+30FC 1
 62
     7
370
    18
100
AcDb2dPolyline
 66
     1
 10
0.0
 20
0.0
 30
0.0
  0
VERTEX
  5
339
330
338
100
AcDbEntity
  8
\U+30EC\U+30A4\U+30E4\U+30FC 1
 62
     7
370
    18
100
AcDbVertex
100
AcDb2dVertex
 10
51.98549163831449
 20
41.6081681717823
 30
0.0
  0
VERTEX
  5
33A
330
338
100
AcDbEntity
  8
\U+30EC\U+30A4\U+30E4\U+30FC 1
 62
     7
370
    18
100
AcDbVertex
100
AcDb2dVertex
 10
50.77832938392471
 20
41.61436934774662
 30
0.0
  0
SEQEND
  5
33B
330
338
100
AcDbEntity
  8
\U+30EC\U+30A4\U+30E4\U+30FC 1
370
    18
  0
POLYLINE
  5
33C
330
1F
100
AcDbEntity
  8
\U+30EC\U+30A4\U+30E4\U+30FC 1
 62
     7
370
    18
100
AcDb2dPolyline
 66
     1
 10
0.0
 20
0.0
 30
0.0
  0
VERTEX
  5
33D
330
33C
100
AcDbEntity
  8
\U+30EC\U+30A4\U+30E4\U+30FC 1
 62
     7
370
    18
100
AcDbVertex
100
AcDb2dVertex
 10
52.8295405890151
 20
41.61436934774662
 30
0.0
  0
VERTEX
  5
33E
330
33C
100
AcDbEntity
  8
\U+30EC\U+30A4\U+30E4\U+30FC 1
 62
     7
370
    18
100
AcDbVertex
100
AcDb2dVertex
 10
52.09366770791448
 20
41.62229307258993
 30
0.0
  0
SEQEND
  5
33F
330
33C
100
AcDbEntity
  8
\U+30EC\U+30A4\U+30E4\U+30FC 1
370
    18
  0
POLYLINE
  5
340
330
1F
100
AcDbEntity
  8
\U+30EC\U+30A4\U+30E4\U+30FC 1
 62
     7
370
    18
100
AcDb2dPolyline
 66
     1
 10
0.0
 20
0.0
 30
0.0
  0
VERTEX
  5
341
330
340
100
AcDbEntity
  8
\U+30EC\U+30A4\U+30E4\U+30FC 1
 62
     7
370
    18
100
AcDbVertex
100
AcDb2dVertex
 10
52.4436896401234
 20
41.90616912784598
 30
0.0
  0
VERTEX
  5
342
330
340
100
AcDbEntity
  8
\U+30EC\U+30A4\U+30E4\U+30FC 1
 62
     7
370
    18
100
AcDbVertex
100
AcDb2dVertex
 10
52.07024104316035
 20
41.86017707277719
 30
0.0
  0
SEQEND
  5
343
330
340
100
AcDbEntity
  8
\U+30EC\U+30A4\U+30E4\U+30FC 1
370
    18
  0
POLYLINE
  5
344
330
1F
100
AcDbEntity
  8
\U+30EC\U+30A4\U+30E4\U+30FC 1
 62
     7
370
    18
100
AcDb2dPolyline
 66
     1
 10
0.0
 20
0.0
 30
0.0
  0
VERTEX
  5
345
330
344
100
AcDbEntity
  8
\U+30EC\U+30A4\U+30E4\U+30FC 1
 62
     7
370
    18
100
AcDbVertex
100
AcDb2dVertex
 10
52.8295405890151
 20
41.92615069484216
 30
0.0
  0
VERTEX
  5
346
330
344
100
AcDbEntity
  8
\U+30EC\U+30A4\U+30E4\U+30FC 1
 62
     7
370
    18
100
AcDbVertex
100
AcDb2dVertex
 10
52.4436896401234
 20
41.90616912784598
 30
0.0
  0
SEQEND
  5
347
330
344
100
AcDbEntity
  8
\U+30EC\U+30A4\U+30E4\U+30FC 1
370
    18
  0
POLYLINE
  5
348
330
1F
100
AcDbEntity
  8
\U+30EC\U+30A4\U+30E4\U+30FC 1
 62
     7
370
    18
100
AcDb2dPolyline
 66
     1
 10
0.0
 20
0.0
 30
0.0
  0
VERTEX
  5
349
330
348
100
AcDbEntity
  8
\U+30EC\U+30A4\U+30E4\U+30FC 1
 62
     7
370
    18
100
AcDbVertex
100
AcDb2dVertex
 10
52.4436896401234
 20
42.47374898347017
 30
0.0
  0
VERTEX
  5
34A
330
348
100
AcDbEntity
  8
\U+30EC\U+30A4\U+30E4\U+30FC 1
 62
     7
370
    18
100
AcDbVertex
100
AcDb2dVertex
 10
52.07024104316035
 20
42.51974103853895
 30
0.0
  0
SEQEND
  5
34B
330
348
100
AcDbEntity
  8
\U+30EC\U+30A4\U+30E4\U+30FC 1
370
    18
  0
POLYLINE
  5
34C
330
1F
100
AcDbEntity
  8
\U+30EC\U+30A4\U+30E4\U+30FC 1
 62
     7
370
    18
100
AcDb2dPolyline
 66
     1
 10
0.0
 20
0.0
 30
0.0
  0
VERTEX
  5
34D
330
34C
100
AcDbEntity
  8
\U+30EC\U+30A4\U+30E4\U+30FC 1
 62
     7
370
    18
100
AcDbVertex
100
AcDb2dVertex
 10
52.8295405890151
 20
42.45376741647399
 30
0.0
  0
VERTEX
  5
34E
330
34C
100
AcDbEntity
  8
\U+30EC\U+30A4\U+30E4\U+30FC 1
 62
     7
370
    18
100
AcDbVertex
100
AcDb2dVertex
 10
52.88741823134886
 20
42.45376741647399
 30
0.0
  0
SEQEND
  5
34F
330
34C
100
AcDbEntity
  8
\U+30EC\U+30A4\U+30E4\U+30FC 1
370
    18
  0
POLYLINE
  5
350
330
1F
100
AcDbEntity
  8
\U+30EC\U+30A4\U+30E4\U+30FC 1
 62
     7
370
    18
100
AcDb2dPolyline
 66
     1
 10
0.0
 20
0.0
 30
0.0
  0
VERTEX
  5
351
330
350
100
AcDbEntity
  8
\U+30EC\U+30A4\U+30E4\U+30FC 1
 62
     7
370
    18
100
AcDbVertex
100
AcDb2dVertex
 10
52.8295405890151
 20
42.48287849252876
 30
0.0
  0
VERTEX
  5
352
330
350
100
AcDbEntity
  8
\U+30EC\U+30A4\U+30E4\U+30FC 1
 62
     7
370
    18
100
AcDbVertex
100
AcDb2dVertex
 10
52.89775352462274
 20
42.48287849252876
 30
0.0
  0
SEQEND
  5
353
330
350
100
AcDbEntity
  8
\U+30EC\U+30A4\U+30E4\U+30FC 1
370
    18
  0
POLYLINE
  5
354
330
1F
100
AcDbEntity
  8
\U+30EC\U+30A4\U+30E4\U+30FC 1
 62
     7
370
    18
100
AcDb2dPolyline
 66
     1
 10
0.0
 20
0.0
 30
0.0
  0
VERTEX
  5
355
330
354
100
AcDbEntity
  8
\U+30EC\U+30A4\U+30E4\U+30FC 1
 62
     7
370
    18
100
AcDbVertex
100
AcDb2dVertex
 10
52.8295405890151
 20
42.53748329199246
 30
0.0
  0
VERTEX
  5
356
330
354
100
AcDbEntity
  8
\U+30EC\U+30A4\U+30E4\U+30FC 1
 62
     7
370
    18
100
AcDbVertex
100
AcDb2dVertex
 10
52.88741823134886
 20
42.53748329199246
 30
0.0
  0
SEQEND
  5
357
330
354
100
AcDbEntity
  8
\U+30EC\U+30A4\U+30E4\U+30FC 1
370
    18
  0
POLYLINE
  5
358
330
1F
100
AcDbEntity
  8
\U+30EC\U+30A4\U+30E4\U+30FC 1
 62
     7
370
    18
100
AcDb2dPolyline
 66
     1
 10
0.0
 20
0.0
 30
0.0
  0
VERTEX
  5
359
330
358
100
AcDbEntity
  8
\U+30EC\U+30A4\U+30E4\U+30FC 1
 62
     7
370
    18
100
AcDbVertex
100
AcDb2dVertex
 10
50.3387349100088
 20
42.59294936589564
 30
0.0
  0
VERTEX
  5
35A
330
358
100
AcDbEntity
  8
\U+30EC\U+30A4\U+30E4\U+30FC 1
 62
     7
370
    18
100
AcDbVertex
100
AcDb2dVertex
 10
50.36698471162409
 20
42.59294936589564
 30
0.0
  0
SEQEND
  5
35B
330
358
100
AcDbEntity
  8
\U+30EC\U+30A4\U+30E4\U+30FC 1
370
    18
  0
POLYLINE
  5
35C
330
1F
100
AcDbEntity
  8
\U+30EC\U+30A4\U+30E4\U+30FC 1
 62
     7
370
    18
100
AcDb2dPolyline
 66
     1
 10
0.0
 20
0.0
 30
0.0
  0
VERTEX
  5
35D
330
35C
100
AcDbEntity
  8
\U+30EC\U+30A4\U+30E4\U+30FC 1
 62
     7
370
    18
100
AcDbVertex
100
AcDb2dVertex
 10
51.92072380046481
 20
42.60776328625488
 30
0.0
  0
VERTEX
  5
35E
330
35C
100
AcDbEntity
  8
\U+30EC\U+30A4\U+30E4\U+30FC 1
 62
     7
370
    18
100
AcDbVertex
100
AcDb2dVertex
 10
50.68324468580497
 20
42.60776328625488
 30
0.0
  0
SEQEND
  5
35F
330
35C
100
AcDbEntity
  8
\U+30EC\U+30A4\U+30E4\U+30FC 1
370
    18
  0
POLYLINE
  5
360
330
1F
100
AcDbEntity
  8
\U+30EC\U+30A4\U+30E4\U+30FC 1
 62
     7
370
    18
100
AcDb2dPolyline
 66
     1
 10
0.0
 20
0.0
 30
0.0
  0
VERTEX
  5
361
330
360
100
AcDbEntity
  8
\U+30EC\U+30A4\U+30E4\U+30FC 1
 62
     7
370
    18
100
AcDbVertex
100
AcDb2dVertex
 10
51.92072380046481
 20
42.62033789307144
 30
0.0
  0
VERTEX
  5
362
330
360
100
AcDbEntity
  8
\U+30EC\U+30A4\U+30E4\U+30FC 1
 62
     7
370
    18
100
AcDbVertex
100
AcDb2dVertex
 10
50.68324468580497
 20
42.62033789307144
 30
0.0
  0
SEQEND
  5
363
330
360
100
AcDbEntity
  8
\U+30EC\U+30A4\U+30E4\U+30FC 1
370
    18
  0
POLYLINE
  5
364
330
1F
100
AcDbEntity
  8
\U+30EC\U+30A4\U+30E4\U+30FC 1
 62
     7
370
    18
100
AcDb2dPolyline
 66
     1
 10
0.0
 20
0.0
 30
0.0
  0
VERTEX
  5
365
330
364
100
AcDbEntity
  8
\U+30EC\U+30A4\U+30E4\U+30FC 1
 62
     7
370
    18
100
AcDbVertex
100
AcDb2dVertex
 10
52.90326568103549
 20
42.65892298796061
 30
0.0
  0
VERTEX
  5
366
330
364
100
AcDbEntity
  8
\U+30EC\U+30A4\U+30E4\U+30FC 1
 62
     7
370
    18
100
AcDbVertex
100
AcDb2dVertex
 10
52.93289352175395
 20
42.65892298796061
 30
0.0
  0
SEQEND
  5
367
330
364
100
AcDbEntity
  8
\U+30EC\U+30A4\U+30E4\U+30FC 1
370
    18
  0
POLYLINE
  5
368
330
1F
100
AcDbEntity
  8
\U+30EC\U+30A4\U+30E4\U+30FC 1
 62
     7
370
    18
100
AcDb2dPolyline
 66
     1
 10
0.0
 20
0.0
 30
0.0
  0
VERTEX
  5
369
330
368
100
AcDbEntity
  8
\U+30EC\U+30A4\U+30E4\U+30FC 1
 62
     7
370
    18
100
AcDbVertex
100
AcDb2dVertex
 10
52.97630175350427
 20
42.65892298796061
 30
0.0
  0
VERTEX
  5
36A
330
368
100
AcDbEntity
  8
\U+30EC\U+30A4\U+30E4\U+30FC 1
 62
     7
370
    18
100
AcDbVertex
100
AcDb2dVertex
 10
53.07896566669153
 20
42.65892298796061
 30
0.0
  0
SEQEND
  5
36B
330
368
100
AcDbEntity
  8
\U+30EC\U+30A4\U+30E4\U+30FC 1
370
    18
  0
POLYLINE
  5
36C
330
1F
100
AcDbEntity
  8
\U+30EC\U+30A4\U+30E4\U+30FC 1
 62
     7
370
    18
100
AcDb2dPolyline
 66
     1
 10
0.0
 20
0.0
 30
0.0
  0
VERTEX
  5
36D
330
36C
100
AcDbEntity
  8
\U+30EC\U+30A4\U+30E4\U+30FC 1
 62
     7
370
    18
100
AcDbVertex
100
AcDb2dVertex
 10
53.12237389844185
 20
42.65892298796061
 30
0.0
  0
VERTEX
  5
36E
330
36C
100
AcDbEntity
  8
\U+30EC\U+30A4\U+30E4\U+30FC 1
 62
     7
370
    18
100
AcDbVertex
100
AcDb2dVertex
 10
53.2257268311807
 20
42.65892298796061
 30
0.0
  0
SEQEND
  5
36F
330
36C
100
AcDbEntity
  8
\U+30EC\U+30A4\U+30E4\U+30FC 1
370
    18
  0
POLYLINE
  5
370
330
1F
100
AcDbEntity
  8
\U+30EC\U+30A4\U+30E4\U+30FC 1
 62
     7
370
    18
100
AcDb2dPolyline
 66
     1
 10
0.0
 20
0.0
 30
0.0
  0
VERTEX
  5
371
330
370
100
AcDbEntity
  8
\U+30EC\U+30A4\U+30E4\U+30FC 1
 62
     7
370
    18
100
AcDbVertex
100
AcDb2dVertex
 10
53.26982408248261
 20
42.65892298796061
 30
0.0
  0
VERTEX
  5
372
330
370
100
AcDbEntity
  8
\U+30EC\U+30A4\U+30E4\U+30FC 1
 62
     7
370
    18
100
AcDbVertex
100
AcDb2dVertex
 10
53.3428601549514
 20
42.65892298796061
 30
0.0
  0
SEQEND
  5
373
330
370
100
AcDbEntity
  8
\U+30EC\U+30A4\U+30E4\U+30FC 1
370
    18
  0
POLYLINE
  5
374
330
1F
100
AcDbEntity
  8
\U+30EC\U+30A4\U+30E4\U+30FC 1
 62
     7
370
    18
100
AcDb2dPolyline
 66
     1
 10
0.0
 20
0.0
 30
0.0
  0
VERTEX
  5
375
330
374
100
AcDbEntity
  8
\U+30EC\U+30A4\U+30E4\U+30FC 1
 62
     7
370
    18
100
AcDbVertex
100
AcDb2dVertex
 10
52.8295405890151
 20
42.7135277874243
 30
0.0
  0
VERTEX
  5
376
330
374
100
AcDbEntity
  8
\U+30EC\U+30A4\U+30E4\U+30FC 1
 62
     7
370
    18
100
AcDbVertex
100
AcDb2dVertex
 10
52.89775352462274
 20
42.7135277874243
 30
0.0
  0
SEQEND
  5
377
330
374
100
AcDbEntity
  8
\U+30EC\U+30A4\U+30E4\U+30FC 1
370
    18
  0
POLYLINE
  5
378
330
1F
100
AcDbEntity
  8
\U+30EC\U+30A4\U+30E4\U+30FC 1
 62
     7
370
    18
100
AcDb2dPolyline
 66
     1
 10
0.0
 20
0.0
 30
0.0
  0
VERTEX
  5
379
330
378
100
AcDbEntity
  8
\U+30EC\U+30A4\U+30E4\U+30FC 1
 62
     7
370
    18
100
AcDbVertex
100
AcDb2dVertex
 10
52.4436896401234
 20
42.73953827549691
 30
0.0
  0
VERTEX
  5
37A
330
378
100
AcDbEntity
  8
\U+30EC\U+30A4\U+30E4\U+30FC 1
 62
     7
370
    18
100
AcDbVertex
100
AcDb2dVertex
 10
52.88741823134886
 20
42.73953827549691
 30
0.0
  0
SEQEND
  5
37B
330
378
100
AcDbEntity
  8
\U+30EC\U+30A4\U+30E4\U+30FC 1
370
    18
  0
POLYLINE
  5
37C
330
1F
100
AcDbEntity
  8
\U+30EC\U+30A4\U+30E4\U+30FC 1
 62
     7
370
    18
100
AcDb2dPolyline
 66
     1
 10
0.0
 20
0.0
 30
0.0
  0
VERTEX
  5
37D
330
37C
100
AcDbEntity
  8
\U+30EC\U+30A4\U+30E4\U+30FC 1
 62
     7
370
    18
100
AcDbVertex
100
AcDb2dVertex
 10
52.8295405890151
 20
42.76554876356952
 30
0.0
  0
VERTEX
  5
37E
330
37C
100
AcDbEntity
  8
\U+30EC\U+30A4\U+30E4\U+30FC 1
 62
     7
370
    18
100
AcDbVertex
100
AcDb2dVertex
 10
52.89775352462274
 20
42.76554876356952
 30
0.0
  0
SEQEND
  5
37F
330
37C
100
AcDbEntity
  8
\U+30EC\U+30A4\U+30E4\U+30FC 1
370
    18
  0
POLYLINE
  5
380
330
1F
100
AcDbEntity
  8
\U+30EC\U+30A4\U+30E4\U+30FC 1
 62
     7
370
    18
100
AcDb2dPolyline
 66
     1
 10
0.0
 20
0.0
 30
0.0
  0
VERTEX
  5
381
330
380
100
AcDbEntity
  8
\U+30EC\U+30A4\U+30E4\U+30FC 1
 62
     7
370
    18
100
AcDbVertex
100
AcDb2dVertex
 10
52.8295405890151
 20
42.7135277874243
 30
0.0
  0
VERTEX
  5
382
330
380
100
AcDbEntity
  8
\U+30EC\U+30A4\U+30E4\U+30FC 1
 62
     7
370
    18
100
AcDbVertex
100
AcDb2dVertex
 10
52.09366770791448
 20
42.72145151226761
 30
0.0
  0
SEQEND
  5
383
330
380
100
AcDbEntity
  8
\U+30EC\U+30A4\U+30E4\U+30FC 1
370
    18
  0
POLYLINE
  5
384
330
1F
100
AcDbEntity
  8
\U+30EC\U+30A4\U+30E4\U+30FC 1
 62
     7
370
    18
100
AcDb2dPolyline
 66
     1
 10
0.0
 20
0.0
 30
0.0
  0
VERTEX
  5
385
330
384
100
AcDbEntity
  8
\U+30EC\U+30A4\U+30E4\U+30FC 1
 62
     7
370
    18
100
AcDbVertex
100
AcDb2dVertex
 10
52.07024104316035
 20
42.51974103853895
 30
0.0
  0
VERTEX
  5
386
330
384
100
AcDbEntity
  8
\U+30EC\U+30A4\U+30E4\U+30FC 1
 62
     7
370
    18
100
AcDbVertex
100
AcDb2dVertex
 10
51.98755869696927
 20
42.52198035208163
 30
0.0
  0
SEQEND
  5
387
330
384
100
AcDbEntity
  8
\U+30EC\U+30A4\U+30E4\U+30FC 1
370
    18
  0
POLYLINE
  5
388
330
1F
100
AcDbEntity
  8
\U+30EC\U+30A4\U+30E4\U+30FC 1
 62
     7
370
    18
100
AcDb2dPolyline
 66
     1
 10
0.0
 20
0.0
 30
0.0
  0
VERTEX
  5
389
330
388
100
AcDbEntity
  8
\U+30EC\U+30A4\U+30E4\U+30FC 1
 62
     7
370
    18
100
AcDbVertex
100
AcDb2dVertex
 10
50.77832938392471
 20
42.55367525145488
 30
0.0
  0
VERTEX
  5
38A
330
388
100
AcDbEntity
  8
\U+30EC\U+30A4\U+30E4\U+30FC 1
 62
     7
370
    18
100
AcDbVertex
100
AcDb2dVertex
 10
50.36698471162409
 20
42.56435505450456
 30
0.0
  0
SEQEND
  5
38B
330
388
100
AcDbEntity
  8
\U+30EC\U+30A4\U+30E4\U+30FC 1
370
    18
  0
POLYLINE
  5
38C
330
1F
100
AcDbEntity
  8
\U+30EC\U+30A4\U+30E4\U+30FC 1
 62
     7
370
    18
100
AcDb2dPolyline
 66
     1
 10
0.0
 20
0.0
 30
0.0
  0
VERTEX
  5
38D
330
38C
100
AcDbEntity
  8
\U+30EC\U+30A4\U+30E4\U+30FC 1
 62
     7
370
    18
100
AcDbVertex
100
AcDb2dVertex
 10
50.3387349100088
 20
42.56504407405615
 30
0.0
  0
VERTEX
  5
38E
330
38C
100
AcDbEntity
  8
\U+30EC\U+30A4\U+30E4\U+30FC 1
 62
     7
370
    18
100
AcDbVertex
100
AcDb2dVertex
 10
50.07897453905849
 20
42.57193426957208
 30
0.0
  0
SEQEND
  5
38F
330
38C
100
AcDbEntity
  8
\U+30EC\U+30A4\U+30E4\U+30FC 1
370
    18
  0
POLYLINE
  5
390
330
1F
100
AcDbEntity
  8
\U+30EC\U+30A4\U+30E4\U+30FC 1
 62
     7
370
    18
100
AcDb2dPolyline
 66
     1
 10
0.0
 20
0.0
 30
0.0
  0
VERTEX
  5
391
330
390
100
AcDbEntity
  8
\U+30EC\U+30A4\U+30E4\U+30FC 1
 62
     7
370
    18
100
AcDbVertex
100
AcDb2dVertex
 10
52.8295405890151
 20
42.53748329199246
 30
0.0
  0
VERTEX
  5
392
330
390
100
AcDbEntity
  8
\U+30EC\U+30A4\U+30E4\U+30FC 1
 62
     7
370
    18
100
AcDbVertex
100
AcDb2dVertex
 10
52.42990924909155
 20
42.55315848679118
 30
0.0
  0
SEQEND
  5
393
330
390
100
AcDbEntity
  8
\U+30EC\U+30A4\U+30E4\U+30FC 1
370
    18
  0
POLYLINE
  5
394
330
1F
100
AcDbEntity
  8
\U+30EC\U+30A4\U+30E4\U+30FC 1
 62
     7
370
    18
100
AcDb2dPolyline
 66
     1
 10
0.0
 20
0.0
 30
0.0
  0
VERTEX
  5
395
330
394
100
AcDbEntity
  8
\U+30EC\U+30A4\U+30E4\U+30FC 1
 62
     7
370
    18
100
AcDbVertex
100
AcDb2dVertex
 10
52.8295405890151
 20
42.48287849252876
 30
0.0
  0
VERTEX
  5
396
330
394
100
AcDbEntity
  8
\U+30EC\U+30A4\U+30E4\U+30FC 1
 62
     7
370
    18
100
AcDbVertex
100
AcDb2dVertex
 10
52.09366770791448
 20
42.51784623477208
 30
0.0
  0
SEQEND
  5
397
330
394
100
AcDbEntity
  8
\U+30EC\U+30A4\U+30E4\U+30FC 1
370
    18
  0
POLYLINE
  5
398
330
1F
100
AcDbEntity
  8
\U+30EC\U+30A4\U+30E4\U+30FC 1
 62
     7
370
    18
100
AcDb2dPolyline
 66
     1
 10
0.0
 20
0.0
 30
0.0
  0
VERTEX
  5
399
330
398
100
AcDbEntity
  8
\U+30EC\U+30A4\U+30E4\U+30FC 1
 62
     7
370
    18
100
AcDbVertex
100
AcDb2dVertex
 10
52.8295405890151
 20
42.45376741647399
 30
0.0
  0
VERTEX
  5
39A
330
398
100
AcDbEntity
  8
\U+30EC\U+30A4\U+30E4\U+30FC 1
 62
     7
370
    18
100
AcDbVertex
100
AcDb2dVertex
 10
52.4436896401234
 20
42.47374898347017
 30
0.0
  0
SEQEND
  5
39B
330
398
100
AcDbEntity
  8
\U+30EC\U+30A4\U+30E4\U+30FC 1
370
    18
  0
POLYLINE
  5
39C
330
1F
100
AcDbEntity
  8
\U+30EC\U+30A4\U+30E4\U+30FC 1
 62
     7
370
    18
100
AcDb2dPolyline
 66
     1
 10
0.0
 20
0.0
 30
0.0
  0
VERTEX
  5
39D
330
39C
100
AcDbEntity
  8
\U+30EC\U+30A4\U+30E4\U+30FC 1
 62
     7
370
    18
100
AcDbVertex
100
AcDb2dVertex
 10
52.06403986719602
 20
42.95916325756697
 30
0.0
  0
VERTEX
  5
39E
330
39C
100
AcDbEntity
  8
\U+30EC\U+30A4\U+30E4\U+30FC 1
 62
     7
370
    18
100
AcDbVertex
100
AcDb2dVertex
 10
51.92072380046481
 20
42.99051364716442
 30
0.0
  0
SEQEND
  5
39F
330
39C
100
AcDbEntity
  8
\U+30EC\U+30A4\U+30E4\U+30FC 1
370
    18
  0
POLYLINE
  5
3A0
330
1F
100
AcDbEntity
  8
\U+30EC\U+30A4\U+30E4\U+30FC 1
 62
     7
370
    18
100
AcDb2dPolyline
 66
     1
 10
0.0
 20
0.0
 30
0.0
  0
VERTEX
  5
3A1
330
3A0
100
AcDbEntity
  8
\U+30EC\U+30A4\U+30E4\U+30FC 1
 62
     7
370
    18
100
AcDbVertex
100
AcDb2dVertex
 10
57.7394939136621
 20
40.92207695328423
 30
0.0
  0
VERTEX
  5
3A2
330
3A0
100
AcDbEntity
  8
\U+30EC\U+30A4\U+30E4\U+30FC 1
 62
     7
370
    18
100
AcDbVertex
100
AcDb2dVertex
 10
57.7394939136621
 20
43.4871244889746
 30
0.0
  0
SEQEND
  5
3A3
330
3A0
100
AcDbEntity
  8
\U+30EC\U+30A4\U+30E4\U+30FC 1
370
    18
  0
POLYLINE
  5
3A4
330
1F
100
AcDbEntity
  8
\U+30EC\U+30A4\U+30E4\U+30FC 1
 62
     7
370
    18
100
AcDb2dPolyline
 66
     1
 10
0.0
 20
0.0
 30
0.0
  0
VERTEX
  5
3A5
330
3A4
100
AcDbEntity
  8
\U+30EC\U+30A4\U+30E4\U+30FC 1
 62
     7
370
    18
100
AcDbVertex
100
AcDb2dVertex
 10
52.4436896401234
 20
43.00532756752366
 30
0.0
  0
VERTEX
  5
3A6
330
3A4
100
AcDbEntity
  8
\U+30EC\U+30A4\U+30E4\U+30FC 1
 62
     7
370
    18
100
AcDbVertex
100
AcDb2dVertex
 10
52.07024104316035
 20
42.95933551245486
 30
0.0
  0
SEQEND
  5
3A7
330
3A4
100
AcDbEntity
  8
\U+30EC\U+30A4\U+30E4\U+30FC 1
370
    18
  0
POLYLINE
  5
3A8
330
1F
100
AcDbEntity
  8
\U+30EC\U+30A4\U+30E4\U+30FC 1
 62
     7
370
    18
100
AcDb2dPolyline
 66
     1
 10
0.0
 20
0.0
 30
0.0
  0
VERTEX
  5
3A9
330
3A8
100
AcDbEntity
  8
\U+30EC\U+30A4\U+30E4\U+30FC 1
 62
     7
370
    18
100
AcDbVertex
100
AcDb2dVertex
 10
52.06403986719602
 20
42.6232662261657
 30
0.0
  0
VERTEX
  5
3AA
330
3A8
100
AcDbEntity
  8
\U+30EC\U+30A4\U+30E4\U+30FC 1
 62
     7
370
    18
100
AcDbVertex
100
AcDb2dVertex
 10
51.92072380046481
 20
42.60776328625488
 30
0.0
  0
SEQEND
  5
3AB
330
3A8
100
AcDbEntity
  8
\U+30EC\U+30A4\U+30E4\U+30FC 1
370
    18
  0
POLYLINE
  5
3AC
330
1F
100
AcDbEntity
  8
\U+30EC\U+30A4\U+30E4\U+30FC 1
 62
     7
370
    18
100
AcDb2dPolyline
 66
     1
 10
0.0
 20
0.0
 30
0.0
  0
VERTEX
  5
3AD
330
3AC
100
AcDbEntity
  8
\U+30EC\U+30A4\U+30E4\U+30FC 1
 62
     7
370
    18
100
AcDbVertex
100
AcDb2dVertex
 10
52.06403986719602
 20
42.63618534275806
 30
0.0
  0
VERTEX
  5
3AE
330
3AC
100
AcDbEntity
  8
\U+30EC\U+30A4\U+30E4\U+30FC 1
 62
     7
370
    18
100
AcDbVertex
100
AcDb2dVertex
 10
51.92072380046481
 20
42.62033789307144
 30
0.0
  0
SEQEND
  5
3AF
330
3AC
100
AcDbEntity
  8
\U+30EC\U+30A4\U+30E4\U+30FC 1
370
    18
  0
POLYLINE
  5
3B0
330
1F
100
AcDbEntity
  8
\U+30EC\U+30A4\U+30E4\U+30FC 1
 62
     7
370
    18
100
AcDb2dPolyline
 66
     1
 10
0.0
 20
0.0
 30
0.0
  0
VERTEX
  5
3B1
330
3B0
100
AcDbEntity
  8
\U+30EC\U+30A4\U+30E4\U+30FC 1
 62
     7
370
    18
100
AcDbVertex
100
AcDb2dVertex
 10
52.8295405890151
 20
43.02530913451983
 30
0.0
  0
VERTEX
  5
3B2
330
3B0
100
AcDbEntity
  8
\U+30EC\U+30A4\U+30E4\U+30FC 1
 62
     7
370
    18
100
AcDbVertex
100
AcDb2dVertex
 10
52.4436896401234
 20
43.00532756752366
 30
0.0
  0
SEQEND
  5
3B3
330
3B0
100
AcDbEntity
  8
\U+30EC\U+30A4\U+30E4\U+30FC 1
370
    18
  0
POLYLINE
  5
3B4
330
1F
100
AcDbEntity
  8
\U+30EC\U+30A4\U+30E4\U+30FC 1
 62
     7
370
    18
100
AcDb2dPolyline
 66
     1
 10
0.0
 20
0.0
 30
0.0
  0
VERTEX
  5
3B5
330
3B4
100
AcDbEntity
  8
\U+30EC\U+30A4\U+30E4\U+30FC 1
 62
     7
370
    18
100
AcDbVertex
100
AcDb2dVertex
 10
52.8295405890151
 20
42.99637031335295
 30
0.0
  0
VERTEX
  5
3B6
330
3B4
100
AcDbEntity
  8
\U+30EC\U+30A4\U+30E4\U+30FC 1
 62
     7
370
    18
100
AcDbVertex
100
AcDb2dVertex
 10
52.09366770791448
 20
42.96157482599754
 30
0.0
  0
SEQEND
  5
3B7
330
3B4
100
AcDbEntity
  8
\U+30EC\U+30A4\U+30E4\U+30FC 1
370
    18
  0
POLYLINE
  5
3B8
330
1F
100
AcDbEntity
  8
\U+30EC\U+30A4\U+30E4\U+30FC 1
 62
     7
370
    18
100
AcDb2dPolyline
 66
     1
 10
0.0
 20
0.0
 30
0.0
  0
VERTEX
  5
3B9
330
3B8
100
AcDbEntity
  8
\U+30EC\U+30A4\U+30E4\U+30FC 1
 62
     7
370
    18
100
AcDbVertex
100
AcDb2dVertex
 10
52.8295405890151
 20
42.94159325900137
 30
0.0
  0
VERTEX
  5
3BA
330
3B8
100
AcDbEntity
  8
\U+30EC\U+30A4\U+30E4\U+30FC 1
 62
     7
370
    18
100
AcDbVertex
100
AcDb2dVertex
 10
52.42990924909155
 20
42.92626257397843
 30
0.0
  0
SEQEND
  5
3BB
330
3B8
100
AcDbEntity
  8
\U+30EC\U+30A4\U+30E4\U+30FC 1
370
    18
  0
POLYLINE
  5
3BC
330
1F
100
AcDbEntity
  8
\U+30EC\U+30A4\U+30E4\U+30FC 1
 62
     7
370
    18
100
AcDb2dPolyline
 66
     1
 10
0.0
 20
0.0
 30
0.0
  0
VERTEX
  5
3BD
330
3BC
100
AcDbEntity
  8
\U+30EC\U+30A4\U+30E4\U+30FC 1
 62
     7
370
    18
100
AcDbVertex
100
AcDb2dVertex
 10
52.07024104316035
 20
42.95933551245486
 30
0.0
  0
VERTEX
  5
3BE
330
3BC
100
AcDbEntity
  8
\U+30EC\U+30A4\U+30E4\U+30FC 1
 62
     7
370
    18
100
AcDbVertex
100
AcDb2dVertex
 10
52.06403986719602
 20
42.95933551245486
 30
0.0
  0
SEQEND
  5
3BF
330
3BC
100
AcDbEntity
  8
\U+30EC\U+30A4\U+30E4\U+30FC 1
370
    18
  0
POLYLINE
  5
3C0
330
1F
100
AcDbEntity
  8
\U+30EC\U+30A4\U+30E4\U+30FC 1
 62
     7
370
    18
100
AcDb2dPolyline
 66
     1
 10
0.0
 20
0.0
 30
0.0
  0
VERTEX
  5
3C1
330
3C0
100
AcDbEntity
  8
\U+30EC\U+30A4\U+30E4\U+30FC 1
 62
     7
370
    18
100
AcDbVertex
100
AcDb2dVertex
 10
50.58815998768523
 20
42.9205781626778
 30
0.0
  0
VERTEX
  5
3C2
330
3C0
100
AcDbEntity
  8
\U+30EC\U+30A4\U+30E4\U+30FC 1
 62
     7
370
    18
100
AcDbVertex
100
AcDb2dVertex
 10
50.36698471162409
 20
42.91489375137716
 30
0.0
  0
SEQEND
  5
3C3
330
3C0
100
AcDbEntity
  8
\U+30EC\U+30A4\U+30E4\U+30FC 1
370
    18
  0
POLYLINE
  5
3C4
330
1F
100
AcDbEntity
  8
\U+30EC\U+30A4\U+30E4\U+30FC 1
 62
     7
370
    18
100
AcDb2dPolyline
 66
     1
 10
0.0
 20
0.0
 30
0.0
  0
VERTEX
  5
3C5
330
3C4
100
AcDbEntity
  8
\U+30EC\U+30A4\U+30E4\U+30FC 1
 62
     7
370
    18
100
AcDbVertex
100
AcDb2dVertex
 10
50.3387349100088
 20
42.91403247693767
 30
0.0
  0
VERTEX
  5
3C6
330
3C4
100
AcDbEntity
  8
\U+30EC\U+30A4\U+30E4\U+30FC 1
 62
     7
370
    18
100
AcDbVertex
100
AcDb2dVertex
 10
50.07897453905849
 20
42.90714228142175
 30
0.0
  0
SEQEND
  5
3C7
330
3C4
100
AcDbEntity
  8
\U+30EC\U+30A4\U+30E4\U+30FC 1
370
    18
  0
POLYLINE
  5
3C8
330
1F
100
AcDbEntity
  8
\U+30EC\U+30A4\U+30E4\U+30FC 1
 62
     7
370
    18
100
AcDb2dPolyline
 66
     1
 10
0.0
 20
0.0
 30
0.0
  0
VERTEX
  5
3C9
330
3C8
100
AcDbEntity
  8
\U+30EC\U+30A4\U+30E4\U+30FC 1
 62
     7
370
    18
100
AcDbVertex
100
AcDb2dVertex
 10
52.8295405890151
 20
42.76554876356952
 30
0.0
  0
VERTEX
  5
3CA
330
3C8
100
AcDbEntity
  8
\U+30EC\U+30A4\U+30E4\U+30FC 1
 62
     7
370
    18
100
AcDbVertex
100
AcDb2dVertex
 10
52.09366770791448
 20
42.75762503872621
 30
0.0
  0
SEQEND
  5
3CB
330
3C8
100
AcDbEntity
  8
\U+30EC\U+30A4\U+30E4\U+30FC 1
370
    18
  0
POLYLINE
  5
3CC
330
1F
100
AcDbEntity
  8
\U+30EC\U+30A4\U+30E4\U+30FC 1
 62
     7
370
    18
100
AcDb2dPolyline
 66
     1
 10
0.0
 20
0.0
 30
0.0
  0
VERTEX
  5
3CD
330
3CC
100
AcDbEntity
  8
\U+30EC\U+30A4\U+30E4\U+30FC 1
 62
     7
370
    18
100
AcDbVertex
100
AcDb2dVertex
 10
51.80703557445207
 20
42.82015356303322
 30
0.0
  0
VERTEX
  5
3CE
330
3CC
100
AcDbEntity
  8
\U+30EC\U+30A4\U+30E4\U+30FC 1
 62
     7
370
    18
100
AcDbVertex
100
AcDb2dVertex
 10
51.8407975324801
 20
42.82015356303322
 30
0.0
  0
SEQEND
  5
3CF
330
3CC
100
AcDbEntity
  8
\U+30EC\U+30A4\U+30E4\U+30FC 1
370
    18
  0
POLYLINE
  5
3D0
330
1F
100
AcDbEntity
  8
\U+30EC\U+30A4\U+30E4\U+30FC 1
 62
     7
370
    18
100
AcDb2dPolyline
 66
     1
 10
0.0
 20
0.0
 30
0.0
  0
VERTEX
  5
3D1
330
3D0
100
AcDbEntity
  8
\U+30EC\U+30A4\U+30E4\U+30FC 1
 62
     7
370
    18
100
AcDbVertex
100
AcDb2dVertex
 10
52.91015587655141
 20
42.82015356303322
 30
0.0
  0
VERTEX
  5
3D2
330
3D0
100
AcDbEntity
  8
\U+30EC\U+30A4\U+30E4\U+30FC 1
 62
     7
370
    18
100
AcDbVertex
100
AcDb2dVertex
 10
53.01281978973866
 20
42.82015356303322
 30
0.0
  0
SEQEND
  5
3D3
330
3D0
100
AcDbEntity
  8
\U+30EC\U+30A4\U+30E4\U+30FC 1
370
    18
  0
POLYLINE
  5
3D4
330
1F
100
AcDbEntity
  8
\U+30EC\U+30A4\U+30E4\U+30FC 1
 62
     7
370
    18
100
AcDb2dPolyline
 66
     1
 10
0.0
 20
0.0
 30
0.0
  0
VERTEX
  5
3D5
330
3D4
100
AcDbEntity
  8
\U+30EC\U+30A4\U+30E4\U+30FC 1
 62
     7
370
    18
100
AcDbVertex
100
AcDb2dVertex
 10
53.05622802148898
 20
42.82015356303322
 30
0.0
  0
VERTEX
  5
3D6
330
3D4
100
AcDbEntity
  8
\U+30EC\U+30A4\U+30E4\U+30FC 1
 62
     7
370
    18
100
AcDbVertex
100
AcDb2dVertex
 10
53.15958095422783
 20
42.82015356303322
 30
0.0
  0
SEQEND
  5
3D7
330
3D4
100
AcDbEntity
  8
\U+30EC\U+30A4\U+30E4\U+30FC 1
370
    18
  0
POLYLINE
  5
3D8
330
1F
100
AcDbEntity
  8
\U+30EC\U+30A4\U+30E4\U+30FC 1
 62
     7
370
    18
100
AcDb2dPolyline
 66
     1
 10
0.0
 20
0.0
 30
0.0
  0
VERTEX
  5
3D9
330
3D8
100
AcDbEntity
  8
\U+30EC\U+30A4\U+30E4\U+30FC 1
 62
     7
370
    18
100
AcDbVertex
100
AcDb2dVertex
 10
53.20367820552974
 20
42.82015356303322
 30
0.0
  0
VERTEX
  5
3DA
330
3D8
100
AcDbEntity
  8
\U+30EC\U+30A4\U+30E4\U+30FC 1
 62
     7
370
    18
100
AcDbVertex
100
AcDb2dVertex
 10
53.30634211871701
 20
42.82015356303322
 30
0.0
  0
SEQEND
  5
3DB
330
3D8
100
AcDbEntity
  8
\U+30EC\U+30A4\U+30E4\U+30FC 1
370
    18
  0
POLYLINE
  5
3DC
330
1F
100
AcDbEntity
  8
\U+30EC\U+30A4\U+30E4\U+30FC 1
 62
     7
370
    18
100
AcDb2dPolyline
 66
     1
 10
0.0
 20
0.0
 30
0.0
  0
VERTEX
  5
3DD
330
3DC
100
AcDbEntity
  8
\U+30EC\U+30A4\U+30E4\U+30FC 1
 62
     7
370
    18
100
AcDbVertex
100
AcDb2dVertex
 10
50.3387349100088
 20
42.88612718509818
 30
0.0
  0
VERTEX
  5
3DE
330
3DC
100
AcDbEntity
  8
\U+30EC\U+30A4\U+30E4\U+30FC 1
 62
     7
370
    18
100
AcDbVertex
100
AcDb2dVertex
 10
50.36698471162409
 20
42.88612718509818
 30
0.0
  0
SEQEND
  5
3DF
330
3DC
100
AcDbEntity
  8
\U+30EC\U+30A4\U+30E4\U+30FC 1
370
    18
  0
POLYLINE
  5
3E0
330
1F
100
AcDbEntity
  8
\U+30EC\U+30A4\U+30E4\U+30FC 1
 62
     7
370
    18
100
AcDb2dPolyline
 66
     1
 10
0.0
 20
0.0
 30
0.0
  0
VERTEX
  5
3E1
330
3E0
100
AcDbEntity
  8
\U+30EC\U+30A4\U+30E4\U+30FC 1
 62
     7
370
    18
100
AcDbVertex
100
AcDb2dVertex
 10
52.8295405890151
 20
42.94159325900137
 30
0.0
  0
VERTEX
  5
3E2
330
3E0
100
AcDbEntity
  8
\U+30EC\U+30A4\U+30E4\U+30FC 1
 62
     7
370
    18
100
AcDbVertex
100
AcDb2dVertex
 10
52.88741823134886
 20
42.94159325900137
 30
0.0
  0
SEQEND
  5
3E3
330
3E0
100
AcDbEntity
  8
\U+30EC\U+30A4\U+30E4\U+30FC 1
370
    18
  0
POLYLINE
  5
3E4
330
1F
100
AcDbEntity
  8
\U+30EC\U+30A4\U+30E4\U+30FC 1
 62
     7
370
    18
100
AcDb2dPolyline
 66
     1
 10
0.0
 20
0.0
 30
0.0
  0
VERTEX
  5
3E5
330
3E4
100
AcDbEntity
  8
\U+30EC\U+30A4\U+30E4\U+30FC 1
 62
     7
370
    18
100
AcDbVertex
100
AcDb2dVertex
 10
51.92072380046481
 20
42.99051364716442
 30
0.0
  0
VERTEX
  5
3E6
330
3E4
100
AcDbEntity
  8
\U+30EC\U+30A4\U+30E4\U+30FC 1
 62
     7
370
    18
100
AcDbVertex
100
AcDb2dVertex
 10
50.68324468580497
 20
42.99051364716442
 30
0.0
  0
SEQEND
  5
3E7
330
3E4
100
AcDbEntity
  8
\U+30EC\U+30A4\U+30E4\U+30FC 1
370
    18
  0
POLYLINE
  5
3E8
330
1F
100
AcDbEntity
  8
\U+30EC\U+30A4\U+30E4\U+30FC 1
 62
     7
370
    18
100
AcDb2dPolyline
 66
     1
 10
0.0
 20
0.0
 30
0.0
  0
VERTEX
  5
3E9
330
3E8
100
AcDbEntity
  8
\U+30EC\U+30A4\U+30E4\U+30FC 1
 62
     7
370
    18
100
AcDbVertex
100
AcDb2dVertex
 10
52.8295405890151
 20
42.99637031335295
 30
0.0
  0
VERTEX
  5
3EA
330
3E8
100
AcDbEntity
  8
\U+30EC\U+30A4\U+30E4\U+30FC 1
 62
     7
370
    18
100
AcDbVertex
100
AcDb2dVertex
 10
52.89775352462274
 20
42.99637031335295
 30
0.0
  0
SEQEND
  5
3EB
330
3E8
100
AcDbEntity
  8
\U+30EC\U+30A4\U+30E4\U+30FC 1
370
    18
  0
POLYLINE
  5
3EC
330
1F
100
AcDbEntity
  8
\U+30EC\U+30A4\U+30E4\U+30FC 1
 62
     7
370
    18
100
AcDb2dPolyline
 66
     1
 10
0.0
 20
0.0
 30
0.0
  0
VERTEX
  5
3ED
330
3EC
100
AcDbEntity
  8
\U+30EC\U+30A4\U+30E4\U+30FC 1
 62
     7
370
    18
100
AcDbVertex
100
AcDb2dVertex
 10
52.8295405890151
 20
43.02530913451983
 30
0.0
  0
VERTEX
  5
3EE
330
3EC
100
AcDbEntity
  8
\U+30EC\U+30A4\U+30E4\U+30FC 1
 62
     7
370
    18
100
AcDbVertex
100
AcDb2dVertex
 10
52.88741823134886
 20
43.02530913451983
 30
0.0
  0
SEQEND
  5
3EF
330
3EC
100
AcDbEntity
  8
\U+30EC\U+30A4\U+30E4\U+30FC 1
370
    18
  0
POLYLINE
  5
3F0
330
1F
100
AcDbEntity
  8
\U+30EC\U+30A4\U+30E4\U+30FC 1
 62
     7
370
    18
100
AcDb2dPolyline
 66
     1
 10
0.0
 20
0.0
 30
0.0
  0
VERTEX
  5
3F1
330
3F0
100
AcDbEntity
  8
\U+30EC\U+30A4\U+30E4\U+30FC 1
 62
     7
370
    18
100
AcDbVertex
100
AcDb2dVertex
 10
58.10674133466082
 20
40.92207695328423
 30
0.0
  0
VERTEX
  5
3F2
330
3F0
100
AcDbEntity
  8
\U+30EC\U+30A4\U+30E4\U+30FC 1
 62
     7
370
    18
100
AcDbVertex
100
AcDb2dVertex
 10
58.10674133466082
 20
43.4871244889746
 30
0.0
  0
SEQEND
  5
3F3
330
3F0
100
AcDbEntity
  8
\U+30EC\U+30A4\U+30E4\U+30FC 1
370
    18
  0
POLYLINE
  5
3F4
330
1F
100
AcDbEntity
  8
\U+30EC\U+30A4\U+30E4\U+30FC 1
 62
     7
370
    18
100
AcDb2dPolyline
 66
     1
 10
0.0
 20
0.0
 30
0.0
  0
VERTEX
  5
3F5
330
3F4
100
AcDbEntity
  8
\U+30EC\U+30A4\U+30E4\U+30FC 1
 62
     7
370
    18
100
AcDbVertex
100
AcDb2dVertex
 10
58.10674133466082
 20
43.4871244889746
 30
0.0
  0
VERTEX
  5
3F6
330
3F4
100
AcDbEntity
  8
\U+30EC\U+30A4\U+30E4\U+30FC 1
 62
     7
370
    18
100
AcDbVertex
100
AcDb2dVertex
 10
53.3428601549514
 20
43.4871244889746
 30
0.0
  0
SEQEND
  5
3F7
330
3F4
100
AcDbEntity
  8
\U+30EC\U+30A4\U+30E4\U+30FC 1
370
    18
  0
SPLINE
  5
3F8
330
1F
100
AcDbEntity
  8
\U+30EC\U+30A4\U+30E4\U+30FC 1
 62
     7
370
    18
100
AcDbSpline
210
0.0
220
0.0
230
1.0
 70
     8
 71
     3
 72
     8
 73
     4
 74
     0
 42
0.0000000001
 43
0.0000000001
 40
0.0
 40
0.0
 40
0.0
 40
0.0
 40
1.0
 40
1.0
 40
1.0
 40
1.0
 10
2.31286637980758
 20
31.1490236334985
 30
0.0
 10
2.252921678819046
 20
31.1490236334985
 30
0.0
 10
2.204345800431786
 20
31.10182579421443
 30
0.0
 10
2.202623251552806
 20
31.04222560300169
 30
0.0
  0
HATCH
  5
3F9
330
1F
100
AcDbEntity
  8
\U+30EC\U+30A4\U+30E4\U+30FC 1
 62
     7
100
AcDbHatch
 10
0.0
 20
0.0
 30
0.0
210
0.0
220
0.0
230
1.0
  2
SOLID
 70
     1
 71
     0
 91
        1
 92
        1
 93
        2
 72
     4
 94
        3
 73
     0
 74
     0
 95
        8
 96
        4
 40
0.0
 40
0.0
 40
0.0
 40
0.0
 40
0.3527780104152769
 40
0.3527780104152769
 40
0.3527780104152769
 40
0.3527780104152769
 10
2.31286637980758
 20
31.1490236334985
 10
2.252921678819046
 20
31.1490236334985
 10
2.204345800431786
 20
31.10182579421443
 10
2.202623251552806
 20
31.04222560300169
 72
     1
 10
2.202623251552806
 20
31.04222560300169
 11
2.31286637980758
 21
31.1490236334985
 97
        0
 75
     2
 76
     1
 98
        0
  0
SPLINE
  5
3FA
330
1F
100
AcDbEntity
  8
\U+30EC\U+30A4\U+30E4\U+30FC 1
 62
     7
370
    18
100
AcDbSpline
210
0.0
220
0.0
230
1.0
 70
     8
 71
     3
 72
     8
 73
     4
 74
     0
 42
0.0000000001
 43
0.0000000001
 40
0.0
 40
0.0
 40
0.0
 40
0.0
 40
1.0
 40
1.0
 40
1.0
 40
1.0
 10
2.538175773178274
 20
31.04222560300169
 30
0.0
 10
2.536797734075089
 20
31.10182579421443
 30
0.0
 10
2.487877345912033
 20
31.1490236334985
 30
0.0
 10
2.428277154699296
 20
31.1490236334985
 30
0.0
  0
HATCH
  5
3FB
330
1F
100
AcDbEntity
  8
\U+30EC\U+30A4\U+30E4\U+30FC 1
 62
     7
100
AcDbHatch
 10
0.0
 20
0.0
 30
0.0
210
0.0
220
0.0
230
1.0
  2
SOLID
 70
     1
 71
     0
 91
        1
 92
        1
 93
        2
 72
     4
 94
        3
 73
     0
 74
     0
 95
        8
 96
        4
 40
0.0
 40
0.0
 40
0.0
 40
0.0
 40
0.3527780104152769
 40
0.3527780104152769
 40
0.3527780104152769
 40
0.3527780104152769
 10
2.538175773178274
 20
31.04222560300169
 10
2.536797734075089
 20
31.10182579421443
 10
2.487877345912033
 20
31.1490236334985
 10
2.428277154699296
 20
31.1490236334985
 72
     1
 10
2.428277154699296
 20
31.1490236334985
 11
2.538175773178274
 21
31.04222560300169
 97
        0
 75
     2
 76
     1
 98
        0
  0
SPLINE
  5
3FC
330
1F
100
AcDbEntity
  8
\U+30EC\U+30A4\U+30E4\U+30FC 1
 62
     7
370
    18
100
AcDbSpline
210
0.0
220
0.0
230
1.0
 70
     8
 71
     3
 72
     8
 73
     4
 74
     0
 42
0.0000000001
 43
0.0000000001
 40
0.0
 40
0.0
 40
0.0
 40
0.0
 40
1.0
 40
1.0
 40
1.0
 40
1.0
 10
2.084800908230516
 20
28.23326514604763
 30
0.0
 10
2.106849533881471
 20
28.22361887232534
 30
0.0
 10
2.13027619863561
 20
28.2181067159126
 30
0.0
 10
2.154391882941342
 20
28.2181067159126
 30
0.0
  0
HATCH
  5
3FD
330
1F
100
AcDbEntity
  8
\U+30EC\U+30A4\U+30E4\U+30FC 1
 62
     7
100
AcDbHatch
 10
0.0
 20
0.0
 30
0.0
210
0.0
220
0.0
230
1.0
  2
SOLID
 70
     1
 71
     0
 91
        1
 92
        1
 93
        2
 72
     4
 94
        3
 73
     0
 74
     0
 95
        8
 96
        4
 40
0.0
 40
0.0
 40
0.0
 40
0.0
 40
0.3527780104152769
 40
0.3527780104152769
 40
0.3527780104152769
 40
0.3527780104152769
 10
2.084800908230516
 20
28.23326514604763
 10
2.106849533881471
 20
28.22361887232534
 10
2.13027619863561
 20
28.2181067159126
 10
2.154391882941342
 20
28.2181067159126
 72
     1
 10
2.154391882941342
 20
28.2181067159126
 11
2.084800908230516
 21
28.23326514604763
 97
        0
 75
     2
 76
     1
 98
        0
  0
SPLINE
  5
3FE
330
1F
100
AcDbEntity
  8
\U+30EC\U+30A4\U+30E4\U+30FC 1
 62
     7
370
    18
100
AcDbSpline
210
0.0
220
0.0
230
1.0
 70
     8
 71
     3
 72
     8
 73
     4
 74
     0
 42
0.0000000001
 43
0.0000000001
 40
0.0
 40
0.0
 40
0.0
 40
0.0
 40
1.0
 40
1.0
 40
1.0
 40
1.0
 10
2.586751651565534
 20
28.2181067159126
 30
0.0
 10
2.600187532821584
 20
28.2181067159126
 30
0.0
 10
2.613967923853431
 20
28.22017377456737
 30
0.0
 10
2.627403805109482
 20
28.22292985277375
 30
0.0
  0
HATCH
  5
3FF
330
1F
100
AcDbEntity
  8
\U+30EC\U+30A4\U+30E4\U+30FC 1
 62
     7
100
AcDbHatch
 10
0.0
 20
0.0
 30
0.0
210
0.0
220
0.0
230
1.0
  2
SOLID
 70
     1
 71
     0
 91
        1
 92
        1
 93
        2
 72
     4
 94
        3
 73
     0
 74
     0
 95
        8
 96
        4
 40
0.0
 40
0.0
 40
0.0
 40
0.0
 40
0.3527780104152769
 40
0.3527780104152769
 40
0.3527780104152769
 40
0.3527780104152769
 10
2.586751651565534
 20
28.2181067159126
 10
2.600187532821584
 20
28.2181067159126
 10
2.613967923853431
 20
28.22017377456737
 10
2.627403805109482
 20
28.22292985277375
 72
     1
 10
2.627403805109482
 20
28.22292985277375
 11
2.586751651565534
 21
28.2181067159126
 97
        0
 75
     2
 76
     1
 98
        0
  0
SPLINE
  5
400
330
1F
100
AcDbEntity
  8
\U+30EC\U+30A4\U+30E4\U+30FC 1
 62
     7
370
    18
100
AcDbSpline
210
0.0
220
0.0
230
1.0
 70
     8
 71
     3
 72
     8
 73
     4
 74
     0
 42
0.0000000001
 43
0.0000000001
 40
0.0
 40
0.0
 40
0.0
 40
0.0
 40
1.0
 40
1.0
 40
1.0
 40
1.0
 10
46.28109877068152
 20
31.1490236334985
 30
0.0
 10
46.22115406969299
 20
31.1490236334985
 30
0.0
 10
46.17292270108153
 20
31.10182579421443
 30
0.0
 10
46.17154466197834
 20
31.04222560300169
 30
0.0
  0
HATCH
  5
401
330
1F
100
AcDbEntity
  8
\U+30EC\U+30A4\U+30E4\U+30FC 1
 62
     7
100
AcDbHatch
 10
0.0
 20
0.0
 30
0.0
210
0.0
220
0.0
230
1.0
  2
SOLID
 70
     1
 71
     0
 91
        1
 92
        1
 93
        2
 72
     4
 94
        3
 73
     0
 74
     0
 95
        8
 96
        4
 40
0.0
 40
0.0
 40
0.0
 40
0.0
 40
0.3527780104152769
 40
0.3527780104152769
 40
0.3527780104152769
 40
0.3527780104152769
 10
46.28109877068152
 20
31.1490236334985
 10
46.22115406969299
 20
31.1490236334985
 10
46.17292270108153
 20
31.10182579421443
 10
46.17154466197834
 20
31.04222560300169
 72
     1
 10
46.17154466197834
 20
31.04222560300169
 11
46.28109877068152
 21
31.1490236334985
 97
        0
 75
     2
 76
     1
 98
        0
  0
SPLINE
  5
402
330
1F
100
AcDbEntity
  8
\U+30EC\U+30A4\U+30E4\U+30FC 1
 62
     7
370
    18
100
AcDbSpline
210
0.0
220
0.0
230
1.0
 70
     8
 71
     3
 72
     8
 73
     4
 74
     0
 42
0.0000000001
 43
0.0000000001
 40
0.0
 40
0.0
 40
0.0
 40
0.0
 40
1.0
 40
1.0
 40
1.0
 40
1.0
 10
46.50640816405222
 20
31.04222560300169
 30
0.0
 10
46.50503012494904
 20
31.10182579421443
 30
0.0
 10
46.45679875633757
 20
31.1490236334985
 30
0.0
 10
46.39685405534904
 20
31.1490236334985
 30
0.0
  0
HATCH
  5
403
330
1F
100
AcDbEntity
  8
\U+30EC\U+30A4\U+30E4\U+30FC 1
 62
     7
100
AcDbHatch
 10
0.0
 20
0.0
 30
0.0
210
0.0
220
0.0
230
1.0
  2
SOLID
 70
     1
 71
     0
 91
        1
 92
        1
 93
        2
 72
     4
 94
        3
 73
     0
 74
     0
 95
        8
 96
        4
 40
0.0
 40
0.0
 40
0.0
 40
0.0
 40
0.3527780104152769
 40
0.3527780104152769
 40
0.3527780104152769
 40
0.3527780104152769
 10
46.50640816405222
 20
31.04222560300169
 10
46.50503012494904
 20
31.10182579421443
 10
46.45679875633757
 20
31.1490236334985
 10
46.39685405534904
 20
31.1490236334985
 72
     1
 10
46.39685405534904
 20
31.1490236334985
 11
46.50640816405222
 21
31.04222560300169
 97
        0
 75
     2
 76
     1
 98
        0
  0
SPLINE
  5
404
330
1F
100
AcDbEntity
  8
\U+30EC\U+30A4\U+30E4\U+30FC 1
 62
     7
370
    18
100
AcDbSpline
210
0.0
220
0.0
230
1.0
 70
     8
 71
     3
 72
     8
 73
     4
 74
     0
 42
0.0000000001
 43
0.0000000001
 40
0.0
 40
0.0
 40
0.0
 40
0.0
 40
1.0
 40
1.0
 40
1.0
 40
1.0
 10
46.05303329910446
 20
28.23326514604763
 30
0.0
 10
46.07508192475542
 20
28.22361887232534
 30
0.0
 10
46.09919760906115
 20
28.2181067159126
 30
0.0
 10
46.12262427381529
 20
28.2181067159126
 30
0.0
  0
HATCH
  5
405
330
1F
100
AcDbEntity
  8
\U+30EC\U+30A4\U+30E4\U+30FC 1
 62
     7
100
AcDbHatch
 10
0.0
 20
0.0
 30
0.0
210
0.0
220
0.0
230
1.0
  2
SOLID
 70
     1
 71
     0
 91
        1
 92
        1
 93
        2
 72
     4
 94
        3
 73
     0
 74
     0
 95
        8
 96
        4
 40
0.0
 40
0.0
 40
0.0
 40
0.0
 40
0.3527780104152769
 40
0.3527780104152769
 40
0.3527780104152769
 40
0.3527780104152769
 10
46.05303329910446
 20
28.23326514604763
 10
46.07508192475542
 20
28.22361887232534
 10
46.09919760906115
 20
28.2181067159126
 10
46.12262427381529
 20
28.2181067159126
 72
     1
 10
46.12262427381529
 20
28.2181067159126
 11
46.05303329910446
 21
28.23326514604763
 97
        0
 75
     2
 76
     1
 98
        0
  0
SPLINE
  5
406
330
1F
100
AcDbEntity
  8
\U+30EC\U+30A4\U+30E4\U+30FC 1
 62
     7
370
    18
100
AcDbSpline
210
0.0
220
0.0
230
1.0
 70
     8
 71
     3
 72
     8
 73
     4
 74
     0
 42
0.0000000001
 43
0.0000000001
 40
0.0
 40
0.0
 40
0.0
 40
0.0
 40
1.0
 40
1.0
 40
1.0
 40
1.0
 10
46.55532855221528
 20
28.2181067159126
 30
0.0
 10
46.56841992369553
 20
28.2181067159126
 30
0.0
 10
46.58288933427897
 20
28.22017377456737
 30
0.0
 10
46.59598070575922
 20
28.22292985277375
 30
0.0
  0
HATCH
  5
407
330
1F
100
AcDbEntity
  8
\U+30EC\U+30A4\U+30E4\U+30FC 1
 62
     7
100
AcDbHatch
 10
0.0
 20
0.0
 30
0.0
210
0.0
220
0.0
230
1.0
  2
SOLID
 70
     1
 71
     0
 91
        1
 92
        1
 93
        2
 72
     4
 94
        3
 73
     0
 74
     0
 95
        8
 96
        4
 40
0.0
 40
0.0
 40
0.0
 40
0.0
 40
0.3527780104152769
 40
0.3527780104152769
 40
0.3527780104152769
 40
0.3527780104152769
 10
46.55532855221528
 20
28.2181067159126
 10
46.56841992369553
 20
28.2181067159126
 10
46.58288933427897
 20
28.22017377456737
 10
46.59598070575922
 20
28.22292985277375
 72
     1
 10
46.59598070575922
 20
28.22292985277375
 11
46.55532855221528
 21
28.2181067159126
 97
        0
 75
     2
 76
     1
 98
        0
  0
SPLINE
  5
408
330
1F
100
AcDbEntity
  8
\U+30EC\U+30A4\U+30E4\U+30FC 1
 62
     7
370
    18
100
AcDbSpline
210
0.0
220
0.0
230
1.0
 70
     8
 71
     3
 72
     8
 73
     4
 74
     0
 42
0.0000000001
 43
0.0000000001
 40
0.0
 40
0.0
 40
0.0
 40
0.0
 40
1.0
 40
1.0
 40
1.0
 40
1.0
 10
50.07897453905849
 20
42.90714228142175
 30
0.0
 10
50.01971885762155
 20
42.90576424231856
 30
0.0
 10
49.97217650856168
 20
42.85684385415551
 30
0.0
 10
49.97217650856168
 20
42.79758817271856
 30
0.0
  0
HATCH
  5
409
330
1F
100
AcDbEntity
  8
\U+30EC\U+30A4\U+30E4\U+30FC 1
 62
     7
100
AcDbHatch
 10
0.0
 20
0.0
 30
0.0
210
0.0
220
0.0
230
1.0
  2
SOLID
 70
     1
 71
     0
 91
        1
 92
        1
 93
        2
 72
     4
 94
        3
 73
     0
 74
     0
 95
        8
 96
        4
 40
0.0
 40
0.0
 40
0.0
 40
0.0
 40
0.3527780104152769
 40
0.3527780104152769
 40
0.3527780104152769
 40
0.3527780104152769
 10
50.07897453905849
 20
42.90714228142175
 10
50.01971885762155
 20
42.90576424231856
 10
49.97217650856168
 20
42.85684385415551
 10
49.97217650856168
 20
42.79758817271856
 72
     1
 10
49.97217650856168
 20
42.79758817271856
 11
50.07897453905849
 21
42.90714228142175
 97
        0
 75
     2
 76
     1
 98
        0
  0
SPLINE
  5
40A
330
1F
100
AcDbEntity
  8
\U+30EC\U+30A4\U+30E4\U+30FC 1
 62
     7
370
    18
100
AcDbSpline
210
0.0
220
0.0
230
1.0
 70
     8
 71
     3
 72
     8
 73
     4
 74
     0
 42
0.0000000001
 43
0.0000000001
 40
0.0
 40
0.0
 40
0.0
 40
0.0
 40
1.0
 40
1.0
 40
1.0
 40
1.0
 10
49.97217650856168
 20
42.68183288805105
 30
0.0
 10
49.97217650856168
 20
42.62223269683832
 30
0.0
 10
50.01971885762155
 20
42.57365681845106
 30
0.0
 10
50.07897453905849
 20
42.57193426957208
 30
0.0
  0
HATCH
  5
40B
330
1F
100
AcDbEntity
  8
\U+30EC\U+30A4\U+30E4\U+30FC 1
 62
     7
100
AcDbHatch
 10
0.0
 20
0.0
 30
0.0
210
0.0
220
0.0
230
1.0
  2
SOLID
 70
     1
 71
     0
 91
        1
 92
        1
 93
        2
 72
     4
 94
        3
 73
     0
 74
     0
 95
        8
 96
        4
 40
0.0
 40
0.0
 40
0.0
 40
0.0
 40
0.3527780104152769
 40
0.3527780104152769
 40
0.3527780104152769
 40
0.3527780104152769
 10
49.97217650856168
 20
42.68183288805105
 10
49.97217650856168
 20
42.62223269683832
 10
50.01971885762155
 20
42.57365681845106
 10
50.07897453905849
 20
42.57193426957208
 72
     1
 10
50.07897453905849
 20
42.57193426957208
 11
49.97217650856168
 21
42.68183288805105
 97
        0
 75
     2
 76
     1
 98
        0
  0
SPLINE
  5
40C
330
1F
100
AcDbEntity
  8
\U+30EC\U+30A4\U+30E4\U+30FC 1
 62
     7
370
    18
100
AcDbSpline
210
0.0
220
0.0
230
1.0
 70
     8
 71
     3
 72
     8
 73
     4
 74
     0
 42
0.0000000001
 43
0.0000000001
 40
0.0
 40
0.0
 40
0.0
 40
0.0
 40
1.0
 40
1.0
 40
1.0
 40
1.0
 10
52.88741823134886
 20
42.45376741647399
 30
0.0
 10
52.89775352462274
 20
42.47564378723705
 30
0.0
 10
52.90257666148389
 20
42.49941496176698
 30
0.0
 10
52.90326568103549
 20
42.52353064607271
 30
0.0
  0
HATCH
  5
40D
330
1F
100
AcDbEntity
  8
\U+30EC\U+30A4\U+30E4\U+30FC 1
 62
     7
100
AcDbHatch
 10
0.0
 20
0.0
 30
0.0
210
0.0
220
0.0
230
1.0
  2
SOLID
 70
     1
 71
     0
 91
        1
 92
        1
 93
        2
 72
     4
 94
        3
 73
     0
 74
     0
 95
        8
 96
        4
 40
0.0
 40
0.0
 40
0.0
 40
0.0
 40
0.3527780104152769
 40
0.3527780104152769
 40
0.3527780104152769
 40
0.3527780104152769
 10
52.88741823134886
 20
42.45376741647399
 10
52.89775352462274
 20
42.47564378723705
 10
52.90257666148389
 20
42.49941496176698
 10
52.90326568103549
 20
42.52353064607271
 72
     1
 10
52.90326568103549
 20
42.52353064607271
 11
52.88741823134886
 21
42.45376741647399
 97
        0
 75
     2
 76
     1
 98
        0
  0
SPLINE
  5
40E
330
1F
100
AcDbEntity
  8
\U+30EC\U+30A4\U+30E4\U+30FC 1
 62
     7
370
    18
100
AcDbSpline
210
0.0
220
0.0
230
1.0
 70
     8
 71
     3
 72
     8
 73
     4
 74
     0
 42
0.0000000001
 43
0.0000000001
 40
0.0
 40
0.0
 40
0.0
 40
0.0
 40
1.0
 40
1.0
 40
1.0
 40
1.0
 10
52.90326568103549
 20
42.9558904146969
 30
0.0
 10
52.90326568103549
 20
42.96949855084085
 30
0.0
 10
52.9011986223807
 20
42.9831066869848
 30
0.0
 10
52.89775352462274
 20
42.99637031335295
 30
0.0
  0
HATCH
  5
40F
330
1F
100
AcDbEntity
  8
\U+30EC\U+30A4\U+30E4\U+30FC 1
 62
     7
100
AcDbHatch
 10
0.0
 20
0.0
 30
0.0
210
0.0
220
0.0
230
1.0
  2
SOLID
 70
     1
 71
     0
 91
        1
 92
        1
 93
        2
 72
     4
 94
        3
 73
     0
 74
     0
 95
        8
 96
        4
 40
0.0
 40
0.0
 40
0.0
 40
0.0
 40
0.3527780104152769
 40
0.3527780104152769
 40
0.3527780104152769
 40
0.3527780104152769
 10
52.90326568103549
 20
42.9558904146969
 10
52.90326568103549
 20
42.96949855084085
 10
52.9011986223807
 20
42.9831066869848
 10
52.89775352462274
 20
42.99637031335295
 72
     1
 10
52.89775352462274
 20
42.99637031335295
 11
52.90326568103549
 21
42.9558904146969
 97
        0
 75
     2
 76
     1
 98
        0
  0
SPLINE
  5
410
330
1F
100
AcDbEntity
  8
\U+30EC\U+30A4\U+30E4\U+30FC 1
 62
     7
370
    18
100
AcDbSpline
210
0.0
220
0.0
230
1.0
 70
     8
 71
     3
 72
     8
 73
     4
 74
     0
 42
0.0000000001
 43
0.0000000001
 40
0.0
 40
0.0
 40
0.0
 40
0.0
 40
1.0
 40
1.0
 40
1.0
 40
1.0
 10
49.97217650856168
 20
41.58267444837337
 30
0.0
 10
49.97217650856168
 20
41.52307425716064
 30
0.0
 10
50.01971885762155
 20
41.47415386899758
 30
0.0
 10
50.07897453905849
 20
41.4727758298944
 30
0.0
  0
HATCH
  5
411
330
1F
100
AcDbEntity
  8
\U+30EC\U+30A4\U+30E4\U+30FC 1
 62
     7
100
AcDbHatch
 10
0.0
 20
0.0
 30
0.0
210
0.0
220
0.0
230
1.0
  2
SOLID
 70
     1
 71
     0
 91
        1
 92
        1
 93
        2
 72
     4
 94
        3
 73
     0
 74
     0
 95
        8
 96
        4
 40
0.0
 40
0.0
 40
0.0
 40
0.0
 40
0.3527780104152769
 40
0.3527780104152769
 40
0.3527780104152769
 40
0.3527780104152769
 10
49.97217650856168
 20
41.58267444837337
 10
49.97217650856168
 20
41.52307425716064
 10
50.01971885762155
 20
41.47415386899758
 10
50.07897453905849
 20
41.4727758298944
 72
     1
 10
50.07897453905849
 20
41.4727758298944
 11
49.97217650856168
 21
41.58267444837337
 97
        0
 75
     2
 76
     1
 98
        0
  0
SPLINE
  5
412
330
1F
100
AcDbEntity
  8
\U+30EC\U+30A4\U+30E4\U+30FC 1
 62
     7
370
    18
100
AcDbSpline
210
0.0
220
0.0
230
1.0
 70
     8
 71
     3
 72
     8
 73
     4
 74
     0
 42
0.0000000001
 43
0.0000000001
 40
0.0
 40
0.0
 40
0.0
 40
0.0
 40
1.0
 40
1.0
 40
1.0
 40
1.0
 10
50.07897453905849
 20
41.80798384174407
 30
0.0
 10
50.01971885762155
 20
41.80660580264089
 30
0.0
 10
49.97217650856168
 20
41.75768541447783
 30
0.0
 10
49.97217650856168
 20
41.6980852232651
 30
0.0
  0
HATCH
  5
413
330
1F
100
AcDbEntity
  8
\U+30EC\U+30A4\U+30E4\U+30FC 1
 62
     7
100
AcDbHatch
 10
0.0
 20
0.0
 30
0.0
210
0.0
220
0.0
230
1.0
  2
SOLID
 70
     1
 71
     0
 91
        1
 92
        1
 93
        2
 72
     4
 94
        3
 73
     0
 74
     0
 95
        8
 96
        4
 40
0.0
 40
0.0
 40
0.0
 40
0.0
 40
0.3527780104152769
 40
0.3527780104152769
 40
0.3527780104152769
 40
0.3527780104152769
 10
50.07897453905849
 20
41.80798384174407
 10
50.01971885762155
 20
41.80660580264089
 10
49.97217650856168
 20
41.75768541447783
 10
49.97217650856168
 20
41.6980852232651
 72
     1
 10
49.97217650856168
 20
41.6980852232651
 11
50.07897453905849
 21
41.80798384174407
 97
        0
 75
     2
 76
     1
 98
        0
  0
SPLINE
  5
414
330
1F
100
AcDbEntity
  8
\U+30EC\U+30A4\U+30E4\U+30FC 1
 62
     7
370
    18
100
AcDbSpline
210
0.0
220
0.0
230
1.0
 70
     8
 71
     3
 72
     8
 73
     4
 74
     0
 42
0.0000000001
 43
0.0000000001
 40
0.0
 40
0.0
 40
0.0
 40
0.0
 40
1.0
 40
1.0
 40
1.0
 40
1.0
 10
52.88741823134886
 20
41.35460897679631
 30
0.0
 10
52.89775352462274
 20
41.37648534755937
 30
0.0
 10
52.90257666148389
 20
41.40025652208931
 30
0.0
 10
52.90326568103549
 20
41.42402769661924
 30
0.0
  0
HATCH
  5
415
330
1F
100
AcDbEntity
  8
\U+30EC\U+30A4\U+30E4\U+30FC 1
 62
     7
100
AcDbHatch
 10
0.0
 20
0.0
 30
0.0
210
0.0
220
0.0
230
1.0
  2
SOLID
 70
     1
 71
     0
 91
        1
 92
        1
 93
        2
 72
     4
 94
        3
 73
     0
 74
     0
 95
        8
 96
        4
 40
0.0
 40
0.0
 40
0.0
 40
0.0
 40
0.3527780104152769
 40
0.3527780104152769
 40
0.3527780104152769
 40
0.3527780104152769
 10
52.88741823134886
 20
41.35460897679631
 10
52.89775352462274
 20
41.37648534755937
 10
52.90257666148389
 20
41.40025652208931
 10
52.90326568103549
 20
41.42402769661924
 72
     1
 10
52.90326568103549
 20
41.42402769661924
 11
52.88741823134886
 21
41.35460897679631
 97
        0
 75
     2
 76
     1
 98
        0
  0
SPLINE
  5
416
330
1F
100
AcDbEntity
  8
\U+30EC\U+30A4\U+30E4\U+30FC 1
 62
     7
370
    18
100
AcDbSpline
210
0.0
220
0.0
230
1.0
 70
     8
 71
     3
 72
     8
 73
     4
 74
     0
 42
0.0000000001
 43
0.0000000001
 40
0.0
 40
0.0
 40
0.0
 40
0.0
 40
1.0
 40
1.0
 40
1.0
 40
1.0
 10
52.90326568103549
 20
41.85673197501923
 30
0.0
 10
52.90326568103549
 20
41.87034011116317
 30
0.0
 10
52.9011986223807
 20
41.88394824730712
 30
0.0
 10
52.89775352462274
 20
41.89721187367527
 30
0.0
  0
HATCH
  5
417
330
1F
100
AcDbEntity
  8
\U+30EC\U+30A4\U+30E4\U+30FC 1
 62
     7
100
AcDbHatch
 10
0.0
 20
0.0
 30
0.0
210
0.0
220
0.0
230
1.0
  2
SOLID
 70
     1
 71
     0
 91
        1
 92
        1
 93
        2
 72
     4
 94
        3
 73
     0
 74
     0
 95
        8
 96
        4
 40
0.0
 40
0.0
 40
0.0
 40
0.0
 40
0.3527780104152769
 40
0.3527780104152769
 40
0.3527780104152769
 40
0.3527780104152769
 10
52.90326568103549
 20
41.85673197501923
 10
52.90326568103549
 20
41.87034011116317
 10
52.9011986223807
 20
41.88394824730712
 10
52.89775352462274
 20
41.89721187367527
 72
     1
 10
52.89775352462274
 20
41.89721187367527
 11
52.90326568103549
 21
41.85673197501923
 97
        0
 75
     2
 76
     1
 98
        0
  0
INSERT
  5
419
330
1F
100
AcDbEntity
  8
\U+30EC\U+30A4\U+30E4\U+30FC 1
100
AcDbBlockReference
  2
block 2
 10
0.0
 20
0.0
 30
0.0
  0
INSERT
  5
450
330
1F
100
AcDbEntity
  8
\U+30EC\U+30A4\U+30E4\U+30FC 1
100
AcDbBlockReference
  2
block 4
 10
0.0
 20
0.0
 30
0.0
  0
INSERT
  5
47E
330
1F
100
AcDbEntity
  8
\U+30EC\U+30A4\U+30E4\U+30FC 1
100
AcDbBlockReference
  2
block 6
 10
0.0
 20
0.0
 30
0.0
  0
INSERT
  5
4A8
330
1F
100
AcDbEntity
  8
\U+30EC\U+30A4\U+30E4\U+30FC 1
100
AcDbBlockReference
  2
block 8
 10
0.0
 20
0.0
 30
0.0
  0
MTEXT
  5
4D2
330
1F
100
AcDbEntity
  8
\U+30EC\U+30A4\U+30E4\U+30FC 1
 62
     7
100
AcDbMText
 10
1.266934700490411
 20
57.96084144461114
 30
0.0
 40
1.919112376659107
 41
0.0
 71
     7
 72
     1
  1
\fKozuka Gothic Pro B|b0|i0|c0|p34;\W1;GS-20903.031
 73
     1
 44
1.0
  0
ENDSEC
  0
SECTION
  2
OBJECTS
  0
DICTIONARY
  5
C
330
0
100
AcDbDictionary
281
     1
  3
ACAD_GROUP
350
D
  3
ACAD_LAYOUT
350
1A
  3
ACAD_MLINESTYLE
350
17
  3
ACAD_PLOTSETTINGS
350
19
  3
ACAD_PLOTSTYLENAME
350
E
  3
ACAD_TABLESTYLE
350
4D3
  3
ACAD_VISUALSTYLE
350
2A
  0
DICTIONARY
  5
D
102
{ACAD_REACTORS
330
C
102
}
330
C
100
AcDbDictionary
281
     1
  0
DICTIONARY
  5
1A
102
{ACAD_REACTORS
330
C
102
}
330
C
100
AcDbDictionary
281
     1
  3
Layout1
350
1E
  3
Layout2
350
26
  3
Model
350
22
  0
DICTIONARY
  5
17
102
{ACAD_REACTORS
330
C
102
}
330
C
100
AcDbDictionary
281
     1
  3
Standard
350
18
  0
DICTIONARY
  5
19
102
{ACAD_REACTORS
330
C
102
}
330
C
100
AcDbDictionary
281
     1
  0
ACDBDICTIONARYWDFLT
  5
E
102
{ACAD_REACTORS
330
C
102
}
330
C
100
AcDbDictionary
281
     1
  3
Normal
350
F
100
AcDbDictionaryWithDefault
340
F
  0
DICTIONARY
  5
4D3
102
{ACAD_REACTORS
330
C
102
}
330
C
100
AcDbDictionary
281
     1
  0
DICTIONARY
  5
2A
102
{ACAD_REACTORS
330
C
102
}
330
C
100
AcDbDictionary
281
     1
  3
2dWireframe
350
2F
  3
3D Hidden
350
31
  3
3dWireframe
350
30
  3
Basic
350
32
  3
Brighten
350
36
  3
ColorChange
350
3A
  3
Conceptual
350
34
  3
Dim
350
35
  3
Facepattern
350
39
  3
Flat
350
2B
  3
FlatWithEdges
350
2C
  3
Gouraud
350
2D
  3
GouraudWithEdges
350
2E
  3
Linepattern
350
38
  3
Realistic
350
33
  3
Thicken
350
37
  0
LAYOUT
  5
1E
102
{ACAD_REACTORS
330
1A
102
}
330
1A
100
AcDbPlotSettings
  1

  2
none_device
  4

  6

 40
0.0
 41
0.0
 42
0.0
 43
0.0
 44
0.0
 45
0.0
 46
0.0
 47
0.0
 48
0.0
 49
0.0
140
0.0
141
0.0
142
1.0
143
1.0
 70
   688
 72
     0
 73
     0
 74
     5
  7

 75
    16
 76
     0
 77
     2
 78
   300
147
1.0
148
0.0
149
0.0
100
AcDbLayout
  1
Layout1
 70
     1
 71
     1
 10
0.0
 20
0.0
 11
12.0
 21
9.0
 12
0.0
 22
0.0
 32
0.0
 14
1.000000000000000E+20
 24
1.000000000000000E+20
 34
1.000000000000000E+20
 15
-1.000000000000000E+20
 25
-1.000000000000000E+20
 35
-1.000000000000000E+20
146
0.0
 13
0.0
 23
0.0
 33
0.0
 16
1.0
 26
0.0
 36
0.0
 17
0.0
 27
1.0
 37
0.0
 76
     0
330
1B
  0
LAYOUT
  5
26
102
{ACAD_REACTORS
330
1A
102
}
330
1A
100
AcDbPlotSettings
  1

  2
none_device
  4

  6

 40
0.0
 41
0.0
 42
0.0
 43
0.0
 44
0.0
 45
0.0
 46
0.0
 47
0.0
 48
0.0
 49
0.0
140
0.0
141
0.0
142
1.0
143
1.0
 70
   688
 72
     0
 73
     0
 74
     5
  7

 75
    16
 76
     0
 77
     2
 78
   300
147
1.0
148
0.0
149
0.0
100
AcDbLayout
  1
Layout2
 70
     1
 71
     2
 10
0.0
 20
0.0
 11
0.0
 21
0.0
 12
0.0
 22
0.0
 32
0.0
 14
0.0
 24
0.0
 34
0.0
 15
0.0
 25
0.0
 35
0.0
146
0.0
 13
0.0
 23
0.0
 33
0.0
 16
1.0
 26
0.0
 36
0.0
 17
0.0
 27
1.0
 37
0.0
 76
     0
330
23
  0
LAYOUT
  5
22
102
{ACAD_REACTORS
330
1A
102
}
330
1A
100
AcDbPlotSettings
  1

  2
none_device
  4

  6

 40
0.0
 41
0.0
 42
0.0
 43
0.0
 44
0.0
 45
0.0
 46
0.0
 47
0.0
 48
0.0
 49
0.0
140
0.0
141
0.0
142
1.0
143
1.0
 70
  1712
 72
     0
 73
     0
 74
     0
  7

 75
     0
 76
     0
 77
     2
 78
   300
147
1.0
148
0.0
149
0.0
100
AcDbLayout
  1
Model
 70
     1
 71
     0
 10
0.0
 20
0.0
 11
12.0
 21
9.0
 12
0.0
 22
0.0
 32
0.0
 14
1.000000000000000E+20
 24
1.000000000000000E+20
 34
1.000000000000000E+20
 15
-1.000000000000000E+20
 25
-1.000000000000000E+20
 35
-1.000000000000000E+20
146
0.0
 13
0.0
 23
0.0
 33
0.0
 16
1.0
 26
0.0
 36
0.0
 17
0.0
 27
1.0
 37
0.0
 76
     0
330
1F
331
29
  0
MLINESTYLE
  5
18
102
{ACAD_REACTORS
330
17
102
}
330
17
100
AcDbMlineStyle
  2
Standard
 70
     0
  3

 62
   256
 51
90.0
 52
90.0
 71
     2
 49
0.5
 62
   256
  6
BYLAYER
 49
-0.5
 62
   256
  6
BYLAYER
  0
ACDBPLACEHOLDER
  5
F
102
{ACAD_REACTORS
330
E
102
}
330
E
  0
VISUALSTYLE
  5
2F
102
{ACAD_REACTORS
330
2A
102
}
330
2A
100
AcDbVisualStyle
  2
2dWireframe
 70
     4
 71
     0
 72
     2
 73
     0
 90
        0
 40
-0.6
 41
-30.0
 62
     5
 63
     7
421
 16777215
 74
     1
 91
        4
 64
     7
 65
   257
 75
     1
175
     1
 42
1.0
 92
        0
 66
   257
 43
1.0
 76
     1
 77
     6
 78
     2
 67
     7
 79
     5
170
     0
171
     0
290
     0
174
     0
 93
        1
 44
0.0
173
     0
291
     0
 45
0.0
1001
ACAD
1000
AcDbSavedByObjectVersion
1070
     0
  0
VISUALSTYLE
  5
31
102
{ACAD_REACTORS
330
2A
102
}
330
2A
100
AcDbVisualStyle
  2
3D Hidden
 70
     6
 71
     1
 72
     2
 73
     2
 90
        0
 40
-0.6
 41
-30.0
 62
     5
 63
     7
421
 16777215
 74
     2
 91
        2
 64
     7
 65
   257
 75
     2
175
     1
 42
40.0
 92
        0
 66
   257
 43
1.0
 76
     1
 77
     6
 78
     2
 67
     7
 79
     3
170
     0
171
     0
290
     0
174
     0
 93
        1
 44
0.0
173
     0
291
     0
 45
0.0
1001
ACAD
1000
AcDbSavedByObjectVersion
1070
     0
  0
VISUALSTYLE
  5
30
102
{ACAD_REACTORS
330
2A
102
}
330
2A
100
AcDbVisualStyle
  2
3dWireframe
 70
     5
 71
     0
 72
     2
 73
     0
 90
        0
 40
-0.6
 41
-30.0
 62
     5
 63
     7
421
 16777215
 74
     1
 91
        4
 64
     7
 65
   257
 75
     1
175
     1
 42
1.0
 92
        0
 66
   257
 43
1.0
 76
     1
 77
     6
 78
     2
 67
     7
 79
     5
170
     0
171
     0
290
     0
174
     0
 93
        1
 44
0.0
173
     0
291
     0
 45
0.0
1001
ACAD
1000
AcDbSavedByObjectVersion
1070
     0
  0
VISUALSTYLE
  5
32
102
{ACAD_REACTORS
330
2A
102
}
330
2A
100
AcDbVisualStyle
  2
Basic
 70
     7
 71
     1
 72
     0
 73
     1
 90
        0
 40
-0.6
 41
-30.0
 62
     5
 63
     7
421
 16777215
 74
     0
 91
        4
 64
     7
 65
   257
 75
     1
175
     1
 42
1.0
 92
        8
 66
     7
 43
1.0
 76
     1
 77
     6
 78
     2
 67
     7
 79
     5
170
     0
171
     0
290
     0
174
     0
 93
        1
 44
0.0
173
     0
291
     1
 45
0.0
1001
ACAD
1000
AcDbSavedByObjectVersion
1070
     0
  0
VISUALSTYLE
  5
36
102
{ACAD_REACTORS
330
2A
102
}
330
2A
100
AcDbVisualStyle
  2
Brighten
 70
    12
 71
     2
 72
     2
 73
     0
 90
        0
 40
-0.6
 41
-30.0
 62
     5
 63
     7
421
 16777215
 74
     1
 91
        4
 64
     7
 65
   257
 75
     1
175
     1
 42
1.0
 92
        8
 66
     7
 43
1.0
 76
     1
 77
     6
 78
     2
 67
     7
 79
     5
170
     0
171
     0
290
     0
174
     0
 93
        1
 44
50.0
173
     0
291
     1
 45
0.0
1001
ACAD
1000
AcDbSavedByObjectVersion
1070
     0
  0
VISUALSTYLE
  5
3A
102
{ACAD_REACTORS
330
2A
102
}
330
2A
100
AcDbVisualStyle
  2
ColorChange
 70
    16
 71
     2
 72
     2
 73
     3
 90
        0
 40
-0.6
 41
-30.0
 62
     5
 63
     8
421
  8421504
 74
     1
 91
        4
 64
     7
 65
   257
 75
     1
175
     1
 42
1.0
 92
        8
 66
     8
424
  8421504
 43
1.0
 76
     1
 77
     6
 78
     2
 67
     7
 79
     5
170
     0
171
     0
290
     0
174
     0
 93
        1
 44
0.0
173
     0
291
     1
 45
0.0
1001
ACAD
1000
AcDbSavedByObjectVersion
1070
     0
  0
VISUALSTYLE
  5
34
102
{ACAD_REACTORS
330
2A
102
}
330
2A
100
AcDbVisualStyle
  2
Conceptual
 70
     9
 71
     3
 72
     2
 73
     0
 90
        0
 40
-0.6
 41
-30.0
 62
     5
 63
     7
421
 16777215
 74
     2
 91
        2
 64
     7
 65
   257
 75
     1
175
     1
 42
40.0
 92
        8
 66
     7
 43
1.0
 76
     1
 77
     6
 78
     2
 67
     7
 79
     3
170
     0
171
     0
290
     0
174
     0
 93
        1
 44
0.0
173
     0
291
     0
 45
0.0
1001
ACAD
1000
AcDbSavedByObjectVersion
1070
     0
  0
VISUALSTYLE
  5
35
102
{ACAD_REACTORS
330
2A
102
}
330
2A
100
AcDbVisualStyle
  2
Dim
 70
    11
 71
     2
 72
     2
 73
     0
 90
        0
 40
-0.6
 41
-30.0
 62
     5
 63
     7
421
 16777215
 74
     1
 91
        4
 64
     7
 65
   257
 75
     1
175
     1
 42
1.0
 92
        8
 66
     7
 43
1.0
 76
     1
 77
     6
 78
     2
 67
     7
 79
     5
170
     0
171
     0
290
     0
174
     0
 93
        1
 44
-50.0
173
     0
291
     1
 45
0.0
1001
ACAD
1000
AcDbSavedByObjectVersion
1070
     0
  0
VISUALSTYLE
  5
39
102
{ACAD_REACTORS
330
2A
102
}
330
2A
100
AcDbVisualStyle
  2
Facepattern
 70
    15
 71
     2
 72
     2
 73
     0
 90
        0
 40
-0.6
 41
-30.0
 62
     5
 63
     7
421
 16777215
 74
     1
 91
        4
 64
     7
 65
   257
 75
     1
175
     1
 42
1.0
 92
        8
 66
     7
 43
1.0
 76
     1
 77
     6
 78
     2
 67
     7
 79
     5
170
     0
171
     0
290
     0
174
     0
 93
        1
 44
0.0
173
     0
291
     1
 45
0.0
1001
ACAD
1000
AcDbSavedByObjectVersion
1070
     0
  0
VISUALSTYLE
  5
2B
102
{ACAD_REACTORS
330
2A
102
}
330
2A
100
AcDbVisualStyle
  2
Flat
 70
     0
 71
     2
 72
     1
 73
     1
 90
        2
 40
-0.6
 41
30.0
 62
     5
 63
     7
421
 16777215
 74
     0
 91
        4
 64
     7
 65
   257
 75
     1
175
     1
 42
1.0
 92
        8
 66
     7
 43
1.0
 76
     1
 77
     6
 78
     2
 67
     7
 79
     5
170
     0
171
     0
290
     0
174
     0
 93
       13
 44
0.0
173
     0
291
     1
 45
0.0
1001
ACAD
1000
AcDbSavedByObjectVersion
1070
     0
  0
VISUALSTYLE
  5
2C
102
{ACAD_REACTORS
330
2A
102
}
330
2A
100
AcDbVisualStyle
  2
FlatWithEdges
 70
     1
 71
     2
 72
     1
 73
     1
 90
        2
 40
-0.6
 41
30.0
 62
     5
 63
     7
421
 16777215
 74
     1
 91
        4
 64
     7
 65
   257
 75
     1
175
     1
 42
1.0
 92
        0
 66
   257
 43
1.0
 76
     1
 77
     6
 78
     2
 67
     7
 79
     5
170
     0
171
     0
290
     0
174
     0
 93
       13
 44
0.0
173
     0
291
     1
 45
0.0
1001
ACAD
1000
AcDbSavedByObjectVersion
1070
     0
  0
VISUALSTYLE
  5
2D
102
{ACAD_REACTORS
330
2A
102
}
330
2A
100
AcDbVisualStyle
  2
Gouraud
 70
     2
 71
     2
 72
     2
 73
     1
 90
        2
 40
-0.6
 41
30.0
 62
     5
 63
     7
421
 16777215
 74
     0
 91
        4
 64
     7
 65
   257
 75
     1
175
     1
 42
1.0
 92
        0
 66
     7
 43
1.0
 76
     1
 77
     6
 78
     2
 67
     7
 79
     5
170
     0
171
     0
290
     0
174
     0
 93
       13
 44
0.0
173
     0
291
     1
 45
0.0
1001
ACAD
1000
AcDbSavedByObjectVersion
1070
     0
  0
VISUALSTYLE
  5
2E
102
{ACAD_REACTORS
330
2A
102
}
330
2A
100
AcDbVisualStyle
  2
GouraudWithEdges
 70
     3
 71
     2
 72
     2
 73
     1
 90
        2
 40
-0.6
 41
30.0
 62
     5
 63
     7
421
 16777215
 74
     1
 91
        4
 64
     7
 65
   257
 75
     1
175
     1
 42
1.0
 92
        0
 66
   257
 43
1.0
 76
     1
 77
     6
 78
     2
 67
     7
 79
     5
170
     0
171
     0
290
     0
174
     0
 93
       13
 44
0.0
173
     0
291
     1
 45
0.0
1001
ACAD
1000
AcDbSavedByObjectVersion
1070
     0
  0
VISUALSTYLE
  5
38
102
{ACAD_REACTORS
330
2A
102
}
330
2A
100
AcDbVisualStyle
  2
Linepattern
 70
    14
 71
     2
 72
     2
 73
     0
 90
        0
 40
-0.6
 41
-30.0
 62
     5
 63
     7
421
 16777215
 74
     1
 91
        4
 64
     7
 65
   257
 75
     7
175
     7
 42
1.0
 92
        8
 66
     7
 43
1.0
 76
     1
 77
     6
 78
     2
 67
     7
 79
     5
170
     0
171
     0
290
     0
174
     0
 93
        1
 44
0.0
173
     0
291
     1
 45
0.0
1001
ACAD
1000
AcDbSavedByObjectVersion
1070
     0
  0
VISUALSTYLE
  5
33
102
{ACAD_REACTORS
330
2A
102
}
330
2A
100
AcDbVisualStyle
  2
Realistic
 70
     8
 71
     2
 72
     2
 73
     0
 90
        0
 40
-0.6
 41
-30.0
 62
     5
 63
     7
421
 16777215
 74
     1
 91
        0
 64
     7
 65
   257
 75
     1
175
     1
 42
1.0
 92
        8
 66
     8
424
  7895160
 43
1.0
 76
     1
 77
     6
 78
     2
 67
     7
 79
     5
170
     0
171
     0
290
     0
174
     0
 93
       13
 44
0.0
173
     0
291
     0
 45
0.0
1001
ACAD
1000
AcDbSavedByObjectVersion
1070
     0
  0
VISUALSTYLE
  5
37
102
{ACAD_REACTORS
330
2A
102
}
330
2A
100
AcDbVisualStyle
  2
Thicken
 70
    13
 71
     2
 72
     2
 73
     0
 90
        0
 40
-0.6
 41
-30.0
 62
     5
 63
     7
421
 16777215
 74
     1
 91
        4
 64
     7
 65
   257
 75
     1
175
     1
 42
1.0
 92
       12
 66
     7
 43
1.0
 76
     1
 77
     6
 78
     2
 67
     7
 79
     5
170
     0
171
     0
290
     0
174
     0
 93
        1
 44
0.0
173
     0
291
     1
 45
0.0
1001
ACAD
1000
AcDbSavedByObjectVersion
1070
     0
  0
ENDSEC
  0
EOF
