  0
SECTION
  2
HEADER
  9
$ACADVER
  1
AC1018
  9
$ACADMAINTVER
 70
     0
  9
$DWGCODEPAGE
  3
ASCII
  9
$INSBASE
 10
0.0
 20
0.0
 30
0.0
  9
$EXTMIN
 10
1.000000000000000E+20
 20
1.000000000000000E+20
 30
1.000000000000000E+20
  9
$EXTMAX
 10
-1.000000000000000E+20
 20
-1.000000000000000E+20
 30
-1.000000000000000E+20
  9
$LIMMIN
 10
0.0
 20
0.0
  9
$LIMMAX
 10
12.0
 20
9.0
  9
$ORTHOMODE
 70
     0
  9
$REGENMODE
 70
     1
  9
$FILLMODE
 70
     1
  9
$QTEXTMODE
 70
     0
  9
$MIRRTEXT
 70
     1
  9
$LTSCALE
 40
1.0
  9
$ATTMODE
 70
     1
  9
$TEXTSIZE
 40
0.2
  9
$TRACEWID
 40
0.05
  9
$TEXTSTYLE
  7
Standard
  9
$CLAYER
  8
0
  9
$CELTYPE
  6
ByLayer
  9
$CECOLOR
 62
   256
  9
$CELTSCALE
 40
1.0
  9
$DISPSILH
 70
     0
  9
$DIMSCALE
 40
1.0
  9
$DIMASZ
 40
0.18
  9
$DIMEXO
 40
0.0625
  9
$DIMDLI
 40
0.38
  9
$DIMRND
 40
0.0
  9
$DIMDLE
 40
0.0
  9
$DIMEXE
 40
0.18
  9
$DIMTP
 40
0.0
  9
$DIMTM
 40
0.0
  9
$DIMTXT
 40
0.18
  9
$DIMCEN
 40
0.09
  9
$DIMTSZ
 40
0.0
  9
$DIMTOL
 70
     0
  9
$DIMLIM
 70
     0
  9
$DIMTIH
 70
     1
  9
$DIMTOH
 70
     1
  9
$DIMSE1
 70
     0
  9
$DIMSE2
 70
     0
  9
$DIMTAD
 70
     0
  9
$DIMZIN
 70
     0
  9
$DIMBLK
  1

  9
$DIMASO
 70
     1
  9
$DIMSHO
 70
     1
  9
$DIMPOST
  1

  9
$DIMAPOST
  1

  9
$DIMALT
 70
     0
  9
$DIMALTD
 70
     2
  9
$DIMALTF
 40
25.4
  9
$DIMLFAC
 40
1.0
  9
$DIMTOFL
 70
     0
  9
$DIMTVP
 40
0.0
  9
$DIMTIX
 70
     0
  9
$DIMSOXD
 70
     0
  9
$DIMSAH
 70
     0
  9
$DIMBLK1
  1

  9
$DIMBLK2
  1

  9
$DIMSTYLE
  2
Standard
  9
$DIMCLRD
 70
     0
  9
$DIMCLRE
 70
     0
  9
$DIMCLRT
 70
     0
  9
$DIMTFAC
 40
1.0
  9
$DIMGAP
 40
0.09
  9
$DIMJUST
 70
     0
  9
$DIMSD1
 70
     0
  9
$DIMSD2
 70
     0
  9
$DIMTOLJ
 70
     1
  9
$DIMTZIN
 70
     0
  9
$DIMALTZ
 70
     0
  9
$DIMALTTZ
 70
     0
  9
$DIMUPT
 70
     0
  9
$DIMDEC
 70
     4
  9
$DIMTDEC
 70
     4
  9
$DIMALTU
 70
     2
  9
$DIMALTTD
 70
     2
  9
$DIMTXSTY
  7
Standard
  9
$DIMAUNIT
 70
     0
  9
$DIMADEC
 70
     0
  9
$DIMALTRND
 40
0.0
  9
$DIMAZIN
 70
     0
  9
$DIMDSEP
 70
    46
  9
$DIMATFIT
 70
     3
  9
$DIMFRAC
 70
     0
  9
$DIMLDRBLK
  1

  9
$DIMLUNIT
 70
     2
  9
$DIMLWD
 70
    -2
  9
$DIMLWE
 70
    -2
  9
$DIMTMOVE
 70
     0
  9
$LUNITS
 70
     2
  9
$LUPREC
 70
     4
  9
$SKETCHINC
 40
0.1
  9
$FILLETRAD
 40
0.5
  9
$AUNITS
 70
     0
  9
$AUPREC
 70
     0
  9
$MENU
  1
.
  9
$ELEVATION
 40
0.0
  9
$PELEVATION
 40
0.0
  9
$THICKNESS
 40
0.0
  9
$LIMCHECK
 70
     0
  9
$CHAMFERA
 40
0.5
  9
$CHAMFERB
 40
0.5
  9
$CHAMFERC
 40
1.0
  9
$CHAMFERD
 40
0.0
  9
$SKPOLY
 70
     0
  9
$TDCREATE
 40
2456497.53298456
  9
$TDUCREATE
 40
2456497.15798456
  9
$TDUPDATE
 40
2456497.532984572
  9
$TDUUPDATE
 40
2456497.157984572
  9
$TDINDWG
 40
0.0000000116
  9
$TDUSRTIMER
 40
0.0000000116
  9
$USRTIMER
 70
     1
  9
$ANGBASE
 50
0.0
  9
$ANGDIR
 70
     0
  9
$PDMODE
 70
     0
  9
$PDSIZE
 40
0.0
  9
$PLINEWID
 40
0.0
  9
$SPLFRAME
 70
     0
  9
$SPLINETYPE
 70
     6
  9
$SPLINESEGS
 70
     8
  9
$HANDSEED
  5
428
  9
$SURFTAB1
 70
     6
  9
$SURFTAB2
 70
     6
  9
$SURFTYPE
 70
     6
  9
$SURFU
 70
     6
  9
$SURFV
 70
     6
  9
$UCSBASE
  2

  9
$UCSNAME
  2

  9
$UCSORG
 10
0.0
 20
0.0
 30
0.0
  9
$UCSXDIR
 10
1.0
 20
0.0
 30
0.0
  9
$UCSYDIR
 10
0.0
 20
1.0
 30
0.0
  9
$UCSORTHOREF
  2

  9
$UCSORTHOVIEW
 70
     0
  9
$UCSORGTOP
 10
0.0
 20
0.0
 30
0.0
  9
$UCSORGBOTTOM
 10
0.0
 20
0.0
 30
0.0
  9
$UCSORGLEFT
 10
0.0
 20
0.0
 30
0.0
  9
$UCSORGRIGHT
 10
0.0
 20
0.0
 30
0.0
  9
$UCSORGFRONT
 10
0.0
 20
0.0
 30
0.0
  9
$UCSORGBACK
 10
0.0
 20
0.0
 30
0.0
  9
$PUCSBASE
  2

  9
$PUCSNAME
  2

  9
$PUCSORG
 10
0.0
 20
0.0
 30
0.0
  9
$PUCSXDIR
 10
1.0
 20
0.0
 30
0.0
  9
$PUCSYDIR
 10
0.0
 20
1.0
 30
0.0
  9
$PUCSORTHOREF
  2

  9
$PUCSORTHOVIEW
 70
     0
  9
$PUCSORGTOP
 10
0.0
 20
0.0
 30
0.0
  9
$PUCSORGBOTTOM
 10
0.0
 20
0.0
 30
0.0
  9
$PUCSORGLEFT
 10
0.0
 20
0.0
 30
0.0
  9
$PUCSORGRIGHT
 10
0.0
 20
0.0
 30
0.0
  9
$PUCSORGFRONT
 10
0.0
 20
0.0
 30
0.0
  9
$PUCSORGBACK
 10
0.0
 20
0.0
 30
0.0
  9
$USERI1
 70
     0
  9
$USERI2
 70
     0
  9
$USERI3
 70
     0
  9
$USERI4
 70
     0
  9
$USERI5
 70
     0
  9
$USERR1
 40
0.0
  9
$USERR2
 40
0.0
  9
$USERR3
 40
0.0
  9
$USERR4
 40
0.0
  9
$USERR5
 40
0.0
  9
$WORLDVIEW
 70
     1
  9
$SHADEDGE
 70
     3
  9
$SHADEDIF
 70
    70
  9
$TILEMODE
 70
     1
  9
$MAXACTVP
 70
    64
  9
$PINSBASE
 10
0.0
 20
0.0
 30
0.0
  9
$PLIMCHECK
 70
     0
  9
$PEXTMIN
 10
1.000000000000000E+20
 20
1.000000000000000E+20
 30
1.000000000000000E+20
  9
$PEXTMAX
 10
-1.000000000000000E+20
 20
-1.000000000000000E+20
 30
-1.000000000000000E+20
  9
$PLIMMIN
 10
0.0
 20
0.0
  9
$PLIMMAX
 10
12.0
 20
9.0
  9
$UNITMODE
 70
     0
  9
$VISRETAIN
 70
     1
  9
$PLINEGEN
 70
     0
  9
$PSLTSCALE
 70
     1
  9
$TREEDEPTH
 70
  3020
  9
$CMLSTYLE
  2
Standard
  9
$CMLJUST
 70
     0
  9
$CMLSCALE
 40
1.0
  9
$PROXYGRAPHICS
 70
     1
  9
$MEASUREMENT
 70
     0
  9
$CELWEIGHT
370
    -1
  9
$ENDCAPS
280
     0
  9
$JOINSTYLE
280
     0
  9
$LWDISPLAY
290
     1
  9
$INSUNITS
 70
     1
  9
$HYPERLINKBASE
  1

  9
$STYLESHEET
  1

  9
$XEDIT
290
     1
  9
$CEPSNTYPE
380
     0
  9
$PSTYLEMODE
290
     1
  9
$FINGERPRINTGUID
  2
{093702DA-9E9A-4065-A255-99CE282A75F1}
  9
$VERSIONGUID
  2
{FAEB1C32-E019-11D5-929B-00C0DF256EC4}
  9
$EXTNAMES
290
     1
  9
$PSVPSCALE
 40
0.0
  9
$OLESTARTUP
290
     0
  9
$SORTENTS
280
   127
  9
$INDEXCTL
280
     0
  9
$HIDETEXT
280
     1
  9
$XCLIPFRAME
290
     0
  9
$HALOGAP
280
     0
  9
$OBSCOLOR
 70
   257
  9
$OBSLTYPE
280
     0
  9
$INTERSECTIONDISPLAY
280
     0
  9
$INTERSECTIONCOLOR
 70
   257
  9
$DIMASSOC
280
     2
  9
$PROJECTNAME
  1

  0
ENDSEC
  0
SECTION
  2
CLASSES
  0
CLASS
  1
ACDBDICTIONARYWDFLT
  2
AcDbDictionaryWithDefault
  3
ObjectDBX Classes
 90
        0
 91
        3
280
     0
281
     0
  0
CLASS
  1
VISUALSTYLE
  2
AcDbVisualStyle
  3
ObjectDBX Classes
 90
     4095
 91
        3
280
     0
281
     0
  0
ENDSEC
  0
SECTION
  2
TABLES
  0
TABLE
  2
VPORT
  5
8
330
0
100
AcDbSymbolTable
 70
     1
  0
VPORT
  5
29
330
8
100
AcDbSymbolTableRecord
100
AcDbViewportTableRecord
  2
*Active
 70
     0
 10
0.0
 20
0.0
 11
1.0
 21
1.0
 12
0.0
 22
0.0
 13
0.0
 23
0.0
 14
0.5
 24
0.5
 15
0.5
 25
0.5
 16
0.0
 26
0.0
 36
1.0
 17
25.53678713089102
 27
33.12556234468507
 37
0.0
 40
56.23928130868683
 41
0.8663644571632086
 42
50.0
 43
0.0
 44
0.0
 50
0.0
 51
0.0
 71
     0
 72
   100
 73
     1
 74
     3
 75
     0
 76
     0
 77
     0
 78
     0
281
     0
 65
     1
110
0.0
120
0.0
130
0.0
111
1.0
121
0.0
131
0.0
112
0.0
122
1.0
132
0.0
 79
     0
146
0.0
  0
ENDTAB
  0
TABLE
  2
LTYPE
  5
5
330
0
100
AcDbSymbolTable
 70
    42
  0
LTYPE
  5
14
330
5
100
AcDbSymbolTableRecord
100
AcDbLinetypeTableRecord
  2
ByBlock
 70
     0
  3

 72
    65
 73
     0
 40
0.0
  0
LTYPE
  5
15
330
5
100
AcDbSymbolTableRecord
100
AcDbLinetypeTableRecord
  2
ByLayer
 70
     0
  3

 72
    65
 73
     0
 40
0.0
  0
LTYPE
  5
16
330
5
100
AcDbSymbolTableRecord
100
AcDbLinetypeTableRecord
  2
Continuous
 70
     0
  3
Solid line
 72
    65
 73
     0
 40
0.0
  0
LTYPE
  5
120
330
5
100
AcDbSymbolTableRecord
100
AcDbLinetypeTableRecord
  2
AI-Linetype-1
 70
     0
  3
Adobe Illustrator Linetype No. 1
 72
    65
 73
     2
 40
1.818711684108925
 49
1.091212930646882
 74
     0
 49
-0.727498753462044
 74
     0
  0
LTYPE
  5
125
330
5
100
AcDbSymbolTableRecord
100
AcDbLinetypeTableRecord
  2
AI-Linetype-2
 70
     0
  3
Adobe Illustrator Linetype No. 2
 72
    65
 73
     2
 40
1.818711684108925
 49
1.091212930646882
 74
     0
 49
-0.727498753462044
 74
     0
  0
LTYPE
  5
12A
330
5
100
AcDbSymbolTableRecord
100
AcDbLinetypeTableRecord
  2
AI-Linetype-3
 70
     0
  3
Adobe Illustrator Linetype No. 3
 72
    65
 73
     2
 40
1.818711684108925
 49
1.091212930646882
 74
     0
 49
-0.727498753462044
 74
     0
  0
LTYPE
  5
12F
330
5
100
AcDbSymbolTableRecord
100
AcDbLinetypeTableRecord
  2
AI-Linetype-4
 70
     0
  3
Adobe Illustrator Linetype No. 4
 72
    65
 73
     2
 40
1.818711684108925
 49
1.091212930646882
 74
     0
 49
-0.727498753462044
 74
     0
  0
LTYPE
  5
135
330
5
100
AcDbSymbolTableRecord
100
AcDbLinetypeTableRecord
  2
AI-Linetype-5
 70
     0
  3
Adobe Illustrator Linetype No. 5
 72
    65
 73
     2
 40
1.818711684108925
 49
1.091212930646882
 74
     0
 49
-0.727498753462044
 74
     0
  0
LTYPE
  5
13A
330
5
100
AcDbSymbolTableRecord
100
AcDbLinetypeTableRecord
  2
AI-Linetype-6
 70
     0
  3
Adobe Illustrator Linetype No. 6
 72
    65
 73
     2
 40
1.818711684108925
 49
1.091212930646882
 74
     0
 49
-0.727498753462044
 74
     0
  0
LTYPE
  5
13F
330
5
100
AcDbSymbolTableRecord
100
AcDbLinetypeTableRecord
  2
AI-Linetype-7
 70
     0
  3
Adobe Illustrator Linetype No. 7
 72
    65
 73
     2
 40
1.818711684108925
 49
1.091212930646882
 74
     0
 49
-0.727498753462044
 74
     0
  0
LTYPE
  5
144
330
5
100
AcDbSymbolTableRecord
100
AcDbLinetypeTableRecord
  2
AI-Linetype-8
 70
     0
  3
Adobe Illustrator Linetype No. 8
 72
    65
 73
     2
 40
1.818711684108925
 49
1.091212930646882
 74
     0
 49
-0.727498753462044
 74
     0
  0
LTYPE
  5
149
330
5
100
AcDbSymbolTableRecord
100
AcDbLinetypeTableRecord
  2
AI-Linetype-9
 70
     0
  3
Adobe Illustrator Linetype No. 9
 72
    65
 73
     2
 40
1.818711684108925
 49
1.091212930646882
 74
     0
 49
-0.727498753462044
 74
     0
  0
LTYPE
  5
14E
330
5
100
AcDbSymbolTableRecord
100
AcDbLinetypeTableRecord
  2
AI-Linetype-10
 70
     0
  3
Adobe Illustrator Linetype No. 10
 72
    65
 73
     2
 40
1.818711684108925
 49
1.091212930646882
 74
     0
 49
-0.727498753462044
 74
     0
  0
LTYPE
  5
153
330
5
100
AcDbSymbolTableRecord
100
AcDbLinetypeTableRecord
  2
AI-Linetype-11
 70
     0
  3
Adobe Illustrator Linetype No. 11
 72
    65
 73
     2
 40
1.818711684108925
 49
1.091212930646882
 74
     0
 49
-0.727498753462044
 74
     0
  0
LTYPE
  5
158
330
5
100
AcDbSymbolTableRecord
100
AcDbLinetypeTableRecord
  2
AI-Linetype-12
 70
     0
  3
Adobe Illustrator Linetype No. 12
 72
    65
 73
     2
 40
1.818711684108925
 49
1.091212930646882
 74
     0
 49
-0.727498753462044
 74
     0
  0
LTYPE
  5
15D
330
5
100
AcDbSymbolTableRecord
100
AcDbLinetypeTableRecord
  2
AI-Linetype-13
 70
     0
  3
Adobe Illustrator Linetype No. 13
 72
    65
 73
     2
 40
1.818711684108925
 49
1.091212930646882
 74
     0
 49
-0.727498753462044
 74
     0
  0
LTYPE
  5
162
330
5
100
AcDbSymbolTableRecord
100
AcDbLinetypeTableRecord
  2
AI-Linetype-14
 70
     0
  3
Adobe Illustrator Linetype No. 14
 72
    65
 73
     2
 40
1.818711684108925
 49
1.091212930646882
 74
     0
 49
-0.727498753462044
 74
     0
  0
LTYPE
  5
167
330
5
100
AcDbSymbolTableRecord
100
AcDbLinetypeTableRecord
  2
AI-Linetype-15
 70
     0
  3
Adobe Illustrator Linetype No. 15
 72
    65
 73
     2
 40
1.818711684108925
 49
1.091212930646882
 74
     0
 49
-0.727498753462044
 74
     0
  0
LTYPE
  5
16C
330
5
100
AcDbSymbolTableRecord
100
AcDbLinetypeTableRecord
  2
AI-Linetype-16
 70
     0
  3
Adobe Illustrator Linetype No. 16
 72
    65
 73
     2
 40
1.818711684108925
 49
1.091212930646882
 74
     0
 49
-0.727498753462044
 74
     0
  0
LTYPE
  5
171
330
5
100
AcDbSymbolTableRecord
100
AcDbLinetypeTableRecord
  2
AI-Linetype-17
 70
     0
  3
Adobe Illustrator Linetype No. 17
 72
    65
 73
     2
 40
1.818711684108925
 49
1.091212930646882
 74
     0
 49
-0.727498753462044
 74
     0
  0
LTYPE
  5
176
330
5
100
AcDbSymbolTableRecord
100
AcDbLinetypeTableRecord
  2
AI-Linetype-18
 70
     0
  3
Adobe Illustrator Linetype No. 18
 72
    65
 73
     2
 40
1.818711684108925
 49
1.091212930646882
 74
     0
 49
-0.727498753462044
 74
     0
  0
LTYPE
  5
178
330
5
100
AcDbSymbolTableRecord
100
AcDbLinetypeTableRecord
  2
AI-Linetype-19
 70
     0
  3
Adobe Illustrator Linetype No. 19
 72
    65
 73
     2
 40
1.818711684108925
 49
1.091212930646882
 74
     0
 49
-0.727498753462044
 74
     0
  0
LTYPE
  5
17A
330
5
100
AcDbSymbolTableRecord
100
AcDbLinetypeTableRecord
  2
AI-Linetype-20
 70
     0
  3
Adobe Illustrator Linetype No. 20
 72
    65
 73
     2
 40
1.818711684108925
 49
1.091212930646882
 74
     0
 49
-0.727498753462044
 74
     0
  0
LTYPE
  5
17C
330
5
100
AcDbSymbolTableRecord
100
AcDbLinetypeTableRecord
  2
AI-Linetype-21
 70
     0
  3
Adobe Illustrator Linetype No. 21
 72
    65
 73
     2
 40
1.818711684108925
 49
1.091212930646882
 74
     0
 49
-0.727498753462044
 74
     0
  0
LTYPE
  5
17E
330
5
100
AcDbSymbolTableRecord
100
AcDbLinetypeTableRecord
  2
AI-Linetype-22
 70
     0
  3
Adobe Illustrator Linetype No. 22
 72
    65
 73
     2
 40
1.818711684108925
 49
1.091212930646882
 74
     0
 49
-0.727498753462044
 74
     0
  0
LTYPE
  5
180
330
5
100
AcDbSymbolTableRecord
100
AcDbLinetypeTableRecord
  2
AI-Linetype-23
 70
     0
  3
Adobe Illustrator Linetype No. 23
 72
    65
 73
     2
 40
1.818711684108925
 49
1.091212930646882
 74
     0
 49
-0.727498753462044
 74
     0
  0
LTYPE
  5
182
330
5
100
AcDbSymbolTableRecord
100
AcDbLinetypeTableRecord
  2
AI-Linetype-24
 70
     0
  3
Adobe Illustrator Linetype No. 24
 72
    65
 73
     2
 40
1.818711684108925
 49
1.091212930646882
 74
     0
 49
-0.727498753462044
 74
     0
  0
LTYPE
  5
184
330
5
100
AcDbSymbolTableRecord
100
AcDbLinetypeTableRecord
  2
AI-Linetype-25
 70
     0
  3
Adobe Illustrator Linetype No. 25
 72
    65
 73
     2
 40
1.818711684108925
 49
1.091212930646882
 74
     0
 49
-0.727498753462044
 74
     0
  0
LTYPE
  5
186
330
5
100
AcDbSymbolTableRecord
100
AcDbLinetypeTableRecord
  2
AI-Linetype-26
 70
     0
  3
Adobe Illustrator Linetype No. 26
 72
    65
 73
     2
 40
1.818711684108925
 49
1.091212930646882
 74
     0
 49
-0.727498753462044
 74
     0
  0
LTYPE
  5
188
330
5
100
AcDbSymbolTableRecord
100
AcDbLinetypeTableRecord
  2
AI-Linetype-27
 70
     0
  3
Adobe Illustrator Linetype No. 27
 72
    65
 73
     2
 40
1.818711684108925
 49
1.091212930646882
 74
     0
 49
-0.727498753462044
 74
     0
  0
LTYPE
  5
18A
330
5
100
AcDbSymbolTableRecord
100
AcDbLinetypeTableRecord
  2
AI-Linetype-28
 70
     0
  3
Adobe Illustrator Linetype No. 28
 72
    65
 73
     2
 40
1.818711684108925
 49
1.091212930646882
 74
     0
 49
-0.727498753462044
 74
     0
  0
LTYPE
  5
18C
330
5
100
AcDbSymbolTableRecord
100
AcDbLinetypeTableRecord
  2
AI-Linetype-29
 70
     0
  3
Adobe Illustrator Linetype No. 29
 72
    65
 73
     2
 40
1.818711684108925
 49
1.091212930646882
 74
     0
 49
-0.727498753462044
 74
     0
  0
LTYPE
  5
18E
330
5
100
AcDbSymbolTableRecord
100
AcDbLinetypeTableRecord
  2
AI-Linetype-30
 70
     0
  3
Adobe Illustrator Linetype No. 30
 72
    65
 73
     2
 40
1.818711684108925
 49
1.091212930646882
 74
     0
 49
-0.727498753462044
 74
     0
  0
LTYPE
  5
190
330
5
100
AcDbSymbolTableRecord
100
AcDbLinetypeTableRecord
  2
AI-Linetype-31
 70
     0
  3
Adobe Illustrator Linetype No. 31
 72
    65
 73
     2
 40
1.818711684108925
 49
1.091212930646882
 74
     0
 49
-0.727498753462044
 74
     0
  0
LTYPE
  5
192
330
5
100
AcDbSymbolTableRecord
100
AcDbLinetypeTableRecord
  2
AI-Linetype-32
 70
     0
  3
Adobe Illustrator Linetype No. 32
 72
    65
 73
     2
 40
1.818711684108925
 49
1.091212930646882
 74
     0
 49
-0.727498753462044
 74
     0
  0
LTYPE
  5
194
330
5
100
AcDbSymbolTableRecord
100
AcDbLinetypeTableRecord
  2
AI-Linetype-33
 70
     0
  3
Adobe Illustrator Linetype No. 33
 72
    65
 73
     2
 40
1.818711684108925
 49
1.091212930646882
 74
     0
 49
-0.727498753462044
 74
     0
  0
LTYPE
  5
196
330
5
100
AcDbSymbolTableRecord
100
AcDbLinetypeTableRecord
  2
AI-Linetype-34
 70
     0
  3
Adobe Illustrator Linetype No. 34
 72
    65
 73
     2
 40
1.818711684108925
 49
1.091212930646882
 74
     0
 49
-0.727498753462044
 74
     0
  0
LTYPE
  5
198
330
5
100
AcDbSymbolTableRecord
100
AcDbLinetypeTableRecord
  2
AI-Linetype-35
 70
     0
  3
Adobe Illustrator Linetype No. 35
 72
    65
 73
     2
 40
1.818711684108925
 49
1.091212930646882
 74
     0
 49
-0.727498753462044
 74
     0
  0
LTYPE
  5
19A
330
5
100
AcDbSymbolTableRecord
100
AcDbLinetypeTableRecord
  2
AI-Linetype-36
 70
     0
  3
Adobe Illustrator Linetype No. 36
 72
    65
 73
     2
 40
1.818711684108925
 49
1.091212930646882
 74
     0
 49
-0.727498753462044
 74
     0
  0
LTYPE
  5
344
330
5
100
AcDbSymbolTableRecord
100
AcDbLinetypeTableRecord
  2
AI-Linetype-37
 70
     0
  3
Adobe Illustrator Linetype No. 37
 72
    65
 73
     2
 40
1.818711684108925
 49
1.091212930646882
 74
     0
 49
-0.727498753462044
 74
     0
  0
LTYPE
  5
35C
330
5
100
AcDbSymbolTableRecord
100
AcDbLinetypeTableRecord
  2
AI-Linetype-38
 70
     0
  3
Adobe Illustrator Linetype No. 38
 72
    65
 73
     2
 40
1.818711684108925
 49
1.091212930646882
 74
     0
 49
-0.727498753462044
 74
     0
  0
LTYPE
  5
376
330
5
100
AcDbSymbolTableRecord
100
AcDbLinetypeTableRecord
  2
AI-Linetype-39
 70
     0
  3
Adobe Illustrator Linetype No. 39
 72
    65
 73
     2
 40
1.818711684108925
 49
1.091212930646882
 74
     0
 49
-0.727498753462044
 74
     0
  0
LTYPE
  5
39B
330
5
100
AcDbSymbolTableRecord
100
AcDbLinetypeTableRecord
  2
AI-Linetype-40
 70
     0
  3
Adobe Illustrator Linetype No. 40
 72
    65
 73
     2
 40
1.818711684108925
 49
1.091212930646882
 74
     0
 49
-0.727498753462044
 74
     0
  0
LTYPE
  5
3AA
330
5
100
AcDbSymbolTableRecord
100
AcDbLinetypeTableRecord
  2
AI-Linetype-41
 70
     0
  3
Adobe Illustrator Linetype No. 41
 72
    65
 73
     2
 40
1.818711684108925
 49
1.091212930646882
 74
     0
 49
-0.727498753462044
 74
     0
  0
ENDTAB
  0
TABLE
  2
LAYER
  5
2
330
0
100
AcDbSymbolTable
 70
     2
  0
LAYER
  5
10
330
2
100
AcDbSymbolTableRecord
100
AcDbLayerTableRecord
  2
0
 70
     0
 62
     7
  6
Continuous
370
    -3
390
F
  0
LAYER
  5
3B
330
2
100
AcDbSymbolTableRecord
100
AcDbLayerTableRecord
  2
\U+30EC\U+30A4\U+30E4\U+30FC 1
 70
     0
 62
     7
  6
Continuous
370
    -3
390
F
  0
ENDTAB
  0
TABLE
  2
STYLE
  5
3
330
0
100
AcDbSymbolTable
 70
     1
  0
STYLE
  5
11
330
3
100
AcDbSymbolTableRecord
100
AcDbTextStyleTableRecord
  2
Standard
 70
     0
 40
0.0
 41
1.0
 50
0.0
 71
     0
 42
0.2
  3
txt
  4

  0
ENDTAB
  0
TABLE
  2
VIEW
  5
6
330
0
100
AcDbSymbolTable
 70
     0
  0
ENDTAB
  0
TABLE
  2
UCS
  5
7
330
0
100
AcDbSymbolTable
 70
     0
  0
ENDTAB
  0
TABLE
  2
APPID
  5
9
330
0
100
AcDbSymbolTable
 70
     1
  0
APPID
  5
12
330
9
100
AcDbSymbolTableRecord
100
AcDbRegAppTableRecord
  2
ACAD
 70
     0
  0
ENDTAB
  0
TABLE
  2
DIMSTYLE
  5
A
330
0
100
AcDbSymbolTable
 70
     1
100
AcDbDimStyleTable
  0
DIMSTYLE
105
27
330
A
100
AcDbSymbolTableRecord
100
AcDbDimStyleTableRecord
  2
Standard
 70
     0
340
11
  0
ENDTAB
  0
TABLE
  2
BLOCK_RECORD
  5
1
330
0
100
AcDbSymbolTable
 70
     6
  0
BLOCK_RECORD
  5
1F
330
1
100
AcDbSymbolTableRecord
100
AcDbBlockTableRecord
  2
*Model_Space
340
22
  0
BLOCK_RECORD
  5
1B
330
1
100
AcDbSymbolTableRecord
100
AcDbBlockTableRecord
  2
*Paper_Space
340
1E
  0
BLOCK_RECORD
  5
23
330
1
100
AcDbSymbolTableRecord
100
AcDbBlockTableRecord
  2
*Paper_Space0
340
26
  0
BLOCK_RECORD
  5
3C
330
1
100
AcDbSymbolTableRecord
100
AcDbBlockTableRecord
  2
block 2
340
0
102
{BLKREFS
331
3D
102
}
  0
BLOCK_RECORD
  5
3AD
330
1
100
AcDbSymbolTableRecord
100
AcDbBlockTableRecord
  2
block 3
340
0
102
{BLKREFS
331
3AE
102
}
  0
BLOCK_RECORD
  5
3C3
330
1
100
AcDbSymbolTableRecord
100
AcDbBlockTableRecord
  2
block 4
340
0
102
{BLKREFS
331
3C4
102
}
  0
BLOCK_RECORD
  5
3D9
330
1
100
AcDbSymbolTableRecord
100
AcDbBlockTableRecord
  2
block 5
340
0
102
{BLKREFS
331
3DA
102
}
  0
BLOCK_RECORD
  5
3F7
330
1
100
AcDbSymbolTableRecord
100
AcDbBlockTableRecord
  2
block 6
340
0
102
{BLKREFS
331
3F8
102
}
  0
ENDTAB
  0
ENDSEC
  0
SECTION
  2
BLOCKS
  0
BLOCK
  5
20
330
1F
100
AcDbEntity
  8
0
100
AcDbBlockBegin
  2
*Model_Space
 70
     0
 71
     0
 10
0.0
 20
0.0
 30
0.0
  3
*Model_Space
  1

  0
ENDBLK
  5
21
330
1F
100
AcDbEntity
  8
0
100
AcDbBlockEnd
  0
BLOCK
  5
1C
330
1B
100
AcDbEntity
 67
     1
  8
0
100
AcDbBlockBegin
  2
*Paper_Space
 70
     0
 71
     0
 10
0.0
 20
0.0
 30
0.0
  3
*Paper_Space
  1

  0
ENDBLK
  5
1D
330
1B
100
AcDbEntity
 67
     1
  8
0
100
AcDbBlockEnd
  0
BLOCK
  5
24
330
23
100
AcDbEntity
  8
0
100
AcDbBlockBegin
  2
*Paper_Space0
 70
     0
 71
     0
 10
0.0
 20
0.0
 30
0.0
  3
*Paper_Space0
  1

  0
ENDBLK
  5
25
330
23
100
AcDbEntity
  8
0
100
AcDbBlockEnd
  0
BLOCK
  5
3E
330
3C
100
AcDbEntity
  8
0
100
AcDbBlockBegin
  2
block 2
 70
     0
 71
     0
 10
0.0
 20
0.0
 30
0.0
  3
block 2
  1

  0
SPLINE
  5
40
330
3C
100
AcDbEntity
  8
\U+30EC\U+30A4\U+30E4\U+30FC 1
370
     0
100
AcDbSpline
210
0.0
220
0.0
230
1.0
 70
    11
 71
     3
 72
    41
 73
    37
 74
     0
 42
0.0000000001
 43
0.0000000001
 40
0.0
 40
0.0
 40
0.0
 40
0.0
 40
1.0
 40
1.0
 40
1.0
 40
2.0
 40
2.0
 40
2.0
 40
3.0
 40
3.0
 40
3.0
 40
4.0
 40
4.0
 40
4.0
 40
5.0
 40
5.0
 40
5.0
 40
6.0
 40
6.0
 40
6.0
 40
7.0
 40
7.0
 40
7.0
 40
8.0
 40
8.0
 40
8.0
 40
9.0
 40
9.0
 40
9.0
 40
10.0
 40
10.0
 40
10.0
 40
11.0
 40
11.0
 40
11.0
 40
12.0
 40
12.0
 40
12.0
 40
12.0
 10
25.15334775042988
 20
37.16123598580535
 30
0.0
 10
25.26944754487319
 20
37.00810139046395
 30
0.0
 10
25.33869400980822
 20
36.81775973933657
 30
0.0
 10
25.33869400980822
 20
36.61036485430727
 30
0.0
 10
25.33869400980822
 20
36.10634705231747
 30
0.0
 10
24.92855512172288
 20
35.69603590934424
 30
0.0
 10
24.42453731973308
 20
35.69603590934424
 30
0.0
 10
24.21697017981589
 20
35.69603590934424
 30
0.0
 10
24.02680078357641
 20
35.76528237427927
 30
0.0
 10
23.87349393334711
 20
35.88138216872258
 30
0.0
 10
23.87349393334711
 20
35.88138216872258
 30
0.0
 10
23.75239874715476
 20
35.76287080584869
 30
0.0
 10
23.75239874715476
 20
35.76287080584869
 30
0.0
 10
23.75239874715476
 20
35.76287080584869
 30
0.0
 10
23.57704327127451
 20
35.93822628172894
 30
0.0
 10
23.57704327127451
 20
35.93822628172894
 30
0.0
 10
23.57704327127451
 20
35.93822628172894
 30
0.0
 10
23.69555463414839
 20
36.0593214679213
 30
0.0
 10
23.69555463414839
 20
36.0593214679213
 30
0.0
 10
23.57945483970508
 20
36.2124560632627
 30
0.0
 10
23.51038062965795
 20
36.40279771439008
 30
0.0
 10
23.51038062965795
 20
36.61036485430727
 30
0.0
 10
23.51038062965795
 20
37.11438265629707
 30
0.0
 10
23.92051951774329
 20
37.5245215443824
 30
0.0
 10
24.42453731973308
 20
37.5245215443824
 30
0.0
 10
24.63210445965028
 20
37.5245215443824
 30
0.0
 10
24.82227385588976
 20
37.45527507944738
 30
0.0
 10
24.97558070611906
 20
37.33917528500407
 30
0.0
 10
24.97558070611906
 20
37.33917528500407
 30
0.0
 10
25.09650363742351
 20
37.45785890276585
 30
0.0
 10
25.09650363742351
 20
37.45785890276585
 30
0.0
 10
25.09650363742351
 20
37.45785890276585
 30
0.0
 10
25.27203136819166
 20
37.2823311719977
 30
0.0
 10
25.27203136819166
 20
37.2823311719977
 30
0.0
 10
25.27203136819166
 20
37.2823311719977
 30
0.0
 10
25.15334775042988
 20
37.16123598580535
 30
0.0
 10
25.15334775042988
 20
37.16123598580535
 30
0.0
  0
SPLINE
  5
41
330
3C
100
AcDbEntity
  8
\U+30EC\U+30A4\U+30E4\U+30FC 1
370
     0
100
AcDbSpline
210
0.0
220
0.0
230
1.0
 70
    11
 71
     3
 72
    17
 73
    13
 74
     0
 42
0.0000000001
 43
0.0000000001
 40
0.0
 40
0.0
 40
0.0
 40
0.0
 40
1.0
 40
1.0
 40
1.0
 40
2.0
 40
2.0
 40
2.0
 40
3.0
 40
3.0
 40
3.0
 40
4.0
 40
4.0
 40
4.0
 40
4.0
 10
24.79505758360186
 20
37.1564128489442
 30
0.0
 10
24.68894857265665
 20
37.23048245074038
 30
0.0
 10
24.56285799471525
 20
37.27251264338751
 30
0.0
 10
24.42453731973308
 20
37.27251264338751
 30
0.0
 10
24.05884019272545
 20
37.27251264338751
 30
0.0
 10
23.76238953065285
 20
36.97588972642701
 30
0.0
 10
23.76238953065285
 20
36.61036485430727
 30
0.0
 10
23.76238953065285
 20
36.47445574775568
 30
0.0
 10
23.80183589998151
 20
36.35094899313275
 30
0.0
 10
23.87848932509616
 20
36.23967233555059
 30
0.0
 10
23.87848932509616
 20
36.23967233555059
 30
0.0
 10
24.79505758360186
 20
37.1564128489442
 30
0.0
 10
24.79505758360186
 20
37.1564128489442
 30
0.0
  0
SPLINE
  5
42
330
3C
100
AcDbEntity
  8
\U+30EC\U+30A4\U+30E4\U+30FC 1
370
     0
100
AcDbSpline
210
0.0
220
0.0
230
1.0
 70
    11
 71
     3
 72
    17
 73
    13
 74
     0
 42
0.0000000001
 43
0.0000000001
 40
0.0
 40
0.0
 40
0.0
 40
0.0
 40
1.0
 40
1.0
 40
1.0
 40
2.0
 40
2.0
 40
2.0
 40
3.0
 40
3.0
 40
3.0
 40
4.0
 40
4.0
 40
4.0
 40
4.0
 10
24.05384480097641
 20
36.06431685967034
 30
0.0
 10
24.16012606680953
 20
35.99007500298627
 30
0.0
 10
24.28621664475092
 20
35.94821706522703
 30
0.0
 10
24.42453731973308
 20
35.94821706522703
 30
0.0
 10
24.79505758360186
 20
35.94821706522703
 30
0.0
 10
25.08668510881332
 20
36.24949086416078
 30
0.0
 10
25.08668510881332
 20
36.61036485430727
 30
0.0
 10
25.08668510881332
 20
36.74868552928943
 30
0.0
 10
25.04465491616619
 20
36.87460385234293
 30
0.0
 10
24.97058531437001
 20
36.98088511817605
 30
0.0
 10
24.97058531437001
 20
36.98088511817605
 30
0.0
 10
24.05384480097641
 20
36.06431685967034
 30
0.0
 10
24.05384480097641
 20
36.06431685967034
 30
0.0
  0
HATCH
  5
43
330
3C
100
AcDbEntity
  8
\U+30EC\U+30A4\U+30E4\U+30FC 1
 62
     7
100
AcDbHatch
 10
0.0
 20
0.0
 30
0.0
210
0.0
220
0.0
230
1.0
  2
SOLID
 70
     1
 71
     0
 91
        3
 92
        1
 93
        1
 72
     4
 94
        3
 73
     0
 74
     1
 95
       41
 96
       37
 40
0.0
 40
0.0
 40
0.0
 40
0.0
 40
1.0
 40
1.0
 40
1.0
 40
2.0
 40
2.0
 40
2.0
 40
3.0
 40
3.0
 40
3.0
 40
4.0
 40
4.0
 40
4.0
 40
5.0
 40
5.0
 40
5.0
 40
6.0
 40
6.0
 40
6.0
 40
7.0
 40
7.0
 40
7.0
 40
8.0
 40
8.0
 40
8.0
 40
9.0
 40
9.0
 40
9.0
 40
10.0
 40
10.0
 40
10.0
 40
11.0
 40
11.0
 40
11.0
 40
12.0
 40
12.0
 40
12.0
 40
12.0
 10
25.15334775042988
 20
37.16123598580535
 10
25.26944754487319
 20
37.00810139046395
 10
25.33869400980822
 20
36.81775973933657
 10
25.33869400980822
 20
36.61036485430727
 10
25.33869400980822
 20
36.10634705231747
 10
24.92855512172288
 20
35.69603590934424
 10
24.42453731973308
 20
35.69603590934424
 10
24.21697017981589
 20
35.69603590934424
 10
24.02680078357641
 20
35.76528237427927
 10
23.87349393334711
 20
35.88138216872258
 10
23.87349393334711
 20
35.88138216872258
 10
23.75239874715476
 20
35.76287080584869
 10
23.75239874715476
 20
35.76287080584869
 10
23.75239874715476
 20
35.76287080584869
 10
23.57704327127451
 20
35.93822628172894
 10
23.57704327127451
 20
35.93822628172894
 10
23.57704327127451
 20
35.93822628172894
 10
23.69555463414839
 20
36.0593214679213
 10
23.69555463414839
 20
36.0593214679213
 10
23.57945483970508
 20
36.2124560632627
 10
23.51038062965795
 20
36.40279771439008
 10
23.51038062965795
 20
36.61036485430727
 10
23.51038062965795
 20
37.11438265629707
 10
23.92051951774329
 20
37.5245215443824
 10
24.42453731973308
 20
37.5245215443824
 10
24.63210445965028
 20
37.5245215443824
 10
24.82227385588976
 20
37.45527507944738
 10
24.97558070611906
 20
37.33917528500407
 10
24.97558070611906
 20
37.33917528500407
 10
25.09650363742351
 20
37.45785890276585
 10
25.09650363742351
 20
37.45785890276585
 10
25.09650363742351
 20
37.45785890276585
 10
25.27203136819166
 20
37.2823311719977
 10
25.27203136819166
 20
37.2823311719977
 10
25.27203136819166
 20
37.2823311719977
 10
25.15334775042988
 20
37.16123598580535
 10
25.15334775042988
 20
37.16123598580535
 97
        0
 92
        1
 93
        1
 72
     4
 94
        3
 73
     0
 74
     1
 95
       17
 96
       13
 40
0.0
 40
0.0
 40
0.0
 40
0.0
 40
1.0
 40
1.0
 40
1.0
 40
2.0
 40
2.0
 40
2.0
 40
3.0
 40
3.0
 40
3.0
 40
4.0
 40
4.0
 40
4.0
 40
4.0
 10
24.79505758360186
 20
37.1564128489442
 10
24.68894857265665
 20
37.23048245074038
 10
24.56285799471525
 20
37.27251264338751
 10
24.42453731973308
 20
37.27251264338751
 10
24.05884019272545
 20
37.27251264338751
 10
23.76238953065285
 20
36.97588972642701
 10
23.76238953065285
 20
36.61036485430727
 10
23.76238953065285
 20
36.47445574775568
 10
23.80183589998151
 20
36.35094899313275
 10
23.87848932509616
 20
36.23967233555059
 10
23.87848932509616
 20
36.23967233555059
 10
24.79505758360186
 20
37.1564128489442
 10
24.79505758360186
 20
37.1564128489442
 97
        0
 92
        1
 93
        1
 72
     4
 94
        3
 73
     0
 74
     1
 95
       17
 96
       13
 40
0.0
 40
0.0
 40
0.0
 40
0.0
 40
1.0
 40
1.0
 40
1.0
 40
2.0
 40
2.0
 40
2.0
 40
3.0
 40
3.0
 40
3.0
 40
4.0
 40
4.0
 40
4.0
 40
4.0
 10
24.05384480097641
 20
36.06431685967034
 10
24.16012606680953
 20
35.99007500298627
 10
24.28621664475092
 20
35.94821706522703
 10
24.42453731973308
 20
35.94821706522703
 10
24.79505758360186
 20
35.94821706522703
 10
25.08668510881332
 20
36.24949086416078
 10
25.08668510881332
 20
36.61036485430727
 10
25.08668510881332
 20
36.74868552928943
 10
25.04465491616619
 20
36.87460385234293
 10
24.97058531437001
 20
36.98088511817605
 10
24.97058531437001
 20
36.98088511817605
 10
24.05384480097641
 20
36.06431685967034
 10
24.05384480097641
 20
36.06431685967034
 97
        0
 75
     2
 76
     1
 98
        0
  0
SPLINE
  5
44
330
3C
100
AcDbEntity
  8
\U+30EC\U+30A4\U+30E4\U+30FC 1
370
     0
100
AcDbSpline
210
0.0
220
0.0
230
1.0
 70
    11
 71
     3
 72
    47
 73
    43
 74
     0
 42
0.0000000001
 43
0.0000000001
 40
0.0
 40
0.0
 40
0.0
 40
0.0
 40
1.0
 40
1.0
 40
1.0
 40
2.0
 40
2.0
 40
2.0
 40
3.0
 40
3.0
 40
3.0
 40
4.0
 40
4.0
 40
4.0
 40
5.0
 40
5.0
 40
5.0
 40
6.0
 40
6.0
 40
6.0
 40
7.0
 40
7.0
 40
7.0
 40
8.0
 40
8.0
 40
8.0
 40
9.0
 40
9.0
 40
9.0
 40
10.0
 40
10.0
 40
10.0
 40
11.0
 40
11.0
 40
11.0
 40
12.0
 40
12.0
 40
12.0
 40
13.0
 40
13.0
 40
13.0
 40
14.0
 40
14.0
 40
14.0
 40
14.0
 10
26.93342976196869
 20
35.67140346037481
 30
0.0
 10
26.93342976196869
 20
35.67140346037481
 30
0.0
 10
25.76485260246808
 20
35.67140346037481
 30
0.0
 10
25.76485260246808
 20
35.67140346037481
 30
0.0
 10
25.76485260246808
 20
35.67140346037481
 30
0.0
 10
25.76485260246808
 20
35.89619608908181
 30
0.0
 10
25.76485260246808
 20
35.89619608908181
 30
0.0
 10
25.76485260246808
 20
35.89619608908181
 30
0.0
 10
25.97241974238527
 20
36.11857714935824
 30
0.0
 10
25.97241974238527
 20
36.11857714935824
 30
0.0
 10
26.32571451746424
 20
36.48427427636587
 30
0.0
 10
26.53328165738143
 20
36.72388082543211
 30
0.0
 10
26.53328165738143
 20
36.97588972642701
 30
0.0
 10
26.53328165738143
 20
37.13901510526649
 30
0.0
 10
26.44680970365659
 20
37.27492421181808
 30
0.0
 10
26.24165413216998
 20
37.27492421181808
 30
0.0
 10
26.10574502561839
 20
37.27492421181808
 30
0.0
 10
25.97982670256489
 20
37.20326617845248
 30
0.0
 10
25.89335474884005
 20
37.13901510526649
 30
0.0
 10
25.89335474884005
 20
37.13901510526649
 30
0.0
 10
25.79206887475598
 20
37.40101478975948
 30
0.0
 10
25.79206887475598
 20
37.40101478975948
 30
0.0
 10
25.90816866919928
 20
37.48989831191489
 30
0.0
 10
26.10092188875724
 20
37.56896330546011
 30
0.0
 10
26.31572373396615
 20
37.56896330546011
 30
0.0
 10
26.7160440934413
 20
37.56896330546011
 30
0.0
 10
26.89897878438907
 20
37.31454283603464
 30
0.0
 10
26.89897878438907
 20
37.01051295889452
 30
0.0
 10
26.89897878438907
 20
36.6794390643544
 30
0.0
 10
26.67401390079417
 20
36.40762085125122
 30
0.0
 10
26.40219568769099
 20
36.13339106971748
 30
0.0
 10
26.40219568769099
 20
36.13339106971748
 30
0.0
 10
26.24664952391902
 20
35.98025647437608
 30
0.0
 10
26.24664952391902
 20
35.98025647437608
 30
0.0
 10
26.24664952391902
 20
35.98025647437608
 30
0.0
 10
26.24664952391902
 20
35.97526108262704
 30
0.0
 10
26.24664952391902
 20
35.97526108262704
 30
0.0
 10
26.24664952391902
 20
35.97526108262704
 30
0.0
 10
26.93342976196869
 20
35.97526108262704
 30
0.0
 10
26.93342976196869
 20
35.97526108262704
 30
0.0
 10
26.93342976196869
 20
35.97526108262704
 30
0.0
 10
26.93342976196869
 20
35.67140346037481
 30
0.0
 10
26.93342976196869
 20
35.67140346037481
 30
0.0
  0
HATCH
  5
45
330
3C
100
AcDbEntity
  8
\U+30EC\U+30A4\U+30E4\U+30FC 1
 62
     7
100
AcDbHatch
 10
0.0
 20
0.0
 30
0.0
210
0.0
220
0.0
230
1.0
  2
SOLID
 70
     1
 71
     0
 91
        1
 92
        1
 93
        1
 72
     4
 94
        3
 73
     0
 74
     1
 95
       47
 96
       43
 40
0.0
 40
0.0
 40
0.0
 40
0.0
 40
1.0
 40
1.0
 40
1.0
 40
2.0
 40
2.0
 40
2.0
 40
3.0
 40
3.0
 40
3.0
 40
4.0
 40
4.0
 40
4.0
 40
5.0
 40
5.0
 40
5.0
 40
6.0
 40
6.0
 40
6.0
 40
7.0
 40
7.0
 40
7.0
 40
8.0
 40
8.0
 40
8.0
 40
9.0
 40
9.0
 40
9.0
 40
10.0
 40
10.0
 40
10.0
 40
11.0
 40
11.0
 40
11.0
 40
12.0
 40
12.0
 40
12.0
 40
13.0
 40
13.0
 40
13.0
 40
14.0
 40
14.0
 40
14.0
 40
14.0
 10
26.93342976196869
 20
35.67140346037481
 10
26.93342976196869
 20
35.67140346037481
 10
25.76485260246808
 20
35.67140346037481
 10
25.76485260246808
 20
35.67140346037481
 10
25.76485260246808
 20
35.67140346037481
 10
25.76485260246808
 20
35.89619608908181
 10
25.76485260246808
 20
35.89619608908181
 10
25.76485260246808
 20
35.89619608908181
 10
25.97241974238527
 20
36.11857714935824
 10
25.97241974238527
 20
36.11857714935824
 10
26.32571451746424
 20
36.48427427636587
 10
26.53328165738143
 20
36.72388082543211
 10
26.53328165738143
 20
36.97588972642701
 10
26.53328165738143
 20
37.13901510526649
 10
26.44680970365659
 20
37.27492421181808
 10
26.24165413216998
 20
37.27492421181808
 10
26.10574502561839
 20
37.27492421181808
 10
25.97982670256489
 20
37.20326617845248
 10
25.89335474884005
 20
37.13901510526649
 10
25.89335474884005
 20
37.13901510526649
 10
25.79206887475598
 20
37.40101478975948
 10
25.79206887475598
 20
37.40101478975948
 10
25.90816866919928
 20
37.48989831191489
 10
26.10092188875724
 20
37.56896330546011
 10
26.31572373396615
 20
37.56896330546011
 10
26.7160440934413
 20
37.56896330546011
 10
26.89897878438907
 20
37.31454283603464
 10
26.89897878438907
 20
37.01051295889452
 10
26.89897878438907
 20
36.6794390643544
 10
26.67401390079417
 20
36.40762085125122
 10
26.40219568769099
 20
36.13339106971748
 10
26.40219568769099
 20
36.13339106971748
 10
26.24664952391902
 20
35.98025647437608
 10
26.24664952391902
 20
35.98025647437608
 10
26.24664952391902
 20
35.98025647437608
 10
26.24664952391902
 20
35.97526108262704
 10
26.24664952391902
 20
35.97526108262704
 10
26.24664952391902
 20
35.97526108262704
 10
26.93342976196869
 20
35.97526108262704
 10
26.93342976196869
 20
35.97526108262704
 10
26.93342976196869
 20
35.97526108262704
 10
26.93342976196869
 20
35.67140346037481
 10
26.93342976196869
 20
35.67140346037481
 97
        0
 75
     2
 76
     1
 98
        0
  0
SPLINE
  5
46
330
3C
100
AcDbEntity
  8
\U+30EC\U+30A4\U+30E4\U+30FC 1
370
     0
100
AcDbSpline
210
0.0
220
0.0
230
1.0
 70
    11
 71
     3
 72
    35
 73
    31
 74
     0
 42
0.0000000001
 43
0.0000000001
 40
0.0
 40
0.0
 40
0.0
 40
0.0
 40
1.0
 40
1.0
 40
1.0
 40
2.0
 40
2.0
 40
2.0
 40
3.0
 40
3.0
 40
3.0
 40
4.0
 40
4.0
 40
4.0
 40
5.0
 40
5.0
 40
5.0
 40
6.0
 40
6.0
 40
6.0
 40
7.0
 40
7.0
 40
7.0
 40
8.0
 40
8.0
 40
8.0
 40
9.0
 40
9.0
 40
9.0
 40
10.0
 40
10.0
 40
10.0
 40
10.0
 10
27.48120030548459
 20
36.6522227920665
 30
0.0
 10
27.30825639803492
 20
36.74868552928943
 30
0.0
 10
27.21678905256103
 20
36.9044039479493
 30
0.0
 10
27.21678905256103
 20
37.06253393503975
 30
0.0
 10
27.21678905256103
 20
37.37138694904101
 30
0.0
 10
27.4713817768744
 20
37.56896330546011
 30
0.0
 10
27.7950487112349
 20
37.56896330546011
 30
0.0
 10
28.16556897510368
 20
37.56896330546011
 30
0.0
 10
28.34109670587183
 20
37.33417989325502
 30
0.0
 10
28.34109670587183
 20
37.09956873593783
 30
0.0
 10
28.34109670587183
 20
36.948845709027
 30
0.0
 10
28.25703632057757
 20
36.78330876175695
 30
0.0
 10
28.06686692433808
 20
36.6794390643544
 30
0.0
 10
28.06686692433808
 20
36.6794390643544
 30
0.0
 10
28.06686692433808
 20
36.67461592749326
 30
0.0
 10
28.06686692433808
 20
36.67461592749326
 30
0.0
 10
28.24945710551005
 20
36.59055554219899
 30
0.0
 10
28.40035238730877
 20
36.43001398667798
 30
0.0
 10
28.40035238730877
 20
36.19764214290346
 30
0.0
 10
28.40035238730877
 20
35.86415667993277
 30
0.0
 10
28.13852495770368
 20
35.64418718808692
 30
0.0
 10
27.767832438947
 20
35.64418718808692
 30
0.0
 10
27.37009590279033
 20
35.64418718808692
 30
0.0
 10
27.15753337112409
 20
35.8887891289022
 30
0.0
 10
27.15753337112409
 20
36.15561195025633
 30
0.0
 10
27.15753337112409
 20
36.38539997071237
 30
0.0
 10
27.29344247767568
 20
36.55093691798243
 30
0.0
 10
27.48120030548459
 20
36.64481583188689
 30
0.0
 10
27.48120030548459
 20
36.64481583188689
 30
0.0
 10
27.48120030548459
 20
36.6522227920665
 30
0.0
 10
27.48120030548459
 20
36.6522227920665
 30
0.0
  0
SPLINE
  5
47
330
3C
100
AcDbEntity
  8
\U+30EC\U+30A4\U+30E4\U+30FC 1
370
     0
100
AcDbSpline
210
0.0
220
0.0
230
1.0
 70
    11
 71
     3
 72
    17
 73
    13
 74
     0
 42
0.0000000001
 43
0.0000000001
 40
0.0
 40
0.0
 40
0.0
 40
0.0
 40
1.0
 40
1.0
 40
1.0
 40
2.0
 40
2.0
 40
2.0
 40
3.0
 40
3.0
 40
3.0
 40
4.0
 40
4.0
 40
4.0
 40
4.0
 10
28.03465526030114
 20
36.16801430218499
 30
0.0
 10
28.03465526030114
 20
36.35094899313275
 30
0.0
 10
27.91114850567821
 20
36.46704878757606
 30
0.0
 10
27.74802312683872
 20
36.52130907726396
 30
0.0
 10
27.60729088342599
 20
36.46946035600664
 30
0.0
 10
27.52323049813172
 20
36.3385466412041
 30
0.0
 10
27.52323049813172
 20
36.19023518272385
 30
0.0
 10
27.52323049813172
 20
36.0321051956334
 30
0.0
 10
27.61952098046676
 20
35.89378452065124
 30
0.0
 10
27.7776509675572
 20
35.89378452065124
 30
0.0
 10
27.94318791482726
 20
35.89378452065124
 30
0.0
 10
28.03465526030114
 20
36.02228666702321
 30
0.0
 10
28.03465526030114
 20
36.16801430218499
 30
0.0
  0
SPLINE
  5
48
330
3C
100
AcDbEntity
  8
\U+30EC\U+30A4\U+30E4\U+30FC 1
370
     0
100
AcDbSpline
210
0.0
220
0.0
230
1.0
 70
    11
 71
     3
 72
    17
 73
    13
 74
     0
 42
0.0000000001
 43
0.0000000001
 40
0.0
 40
0.0
 40
0.0
 40
0.0
 40
1.0
 40
1.0
 40
1.0
 40
2.0
 40
2.0
 40
2.0
 40
3.0
 40
3.0
 40
3.0
 40
4.0
 40
4.0
 40
4.0
 40
4.0
 10
27.56026529902981
 20
37.07975942382955
 30
0.0
 10
27.56026529902981
 20
36.93644335709835
 30
0.0
 10
27.66413499643236
 20
36.83756905144485
 30
0.0
 10
27.80986263159414
 20
36.78330876175695
 30
0.0
 10
27.91356007410878
 20
36.82533895440408
 30
0.0
 10
28.00003202783362
 20
36.94143874884739
 30
0.0
 10
28.00003202783362
 20
37.06735707190089
 30
0.0
 10
28.00003202783362
 20
37.19585921827286
 30
0.0
 10
27.93836477796611
 20
37.32436136464483
 30
0.0
 10
27.78264635930624
 20
37.32436136464483
 30
0.0
 10
27.62210480378523
 20
37.32436136464483
 30
0.0
 10
27.56026529902981
 20
37.19827078670343
 30
0.0
 10
27.56026529902981
 20
37.07975942382955
 30
0.0
  0
HATCH
  5
49
330
3C
100
AcDbEntity
  8
\U+30EC\U+30A4\U+30E4\U+30FC 1
 62
     7
100
AcDbHatch
 10
0.0
 20
0.0
 30
0.0
210
0.0
220
0.0
230
1.0
  2
SOLID
 70
     1
 71
     0
 91
        3
 92
        1
 93
        1
 72
     4
 94
        3
 73
     0
 74
     1
 95
       35
 96
       31
 40
0.0
 40
0.0
 40
0.0
 40
0.0
 40
1.0
 40
1.0
 40
1.0
 40
2.0
 40
2.0
 40
2.0
 40
3.0
 40
3.0
 40
3.0
 40
4.0
 40
4.0
 40
4.0
 40
5.0
 40
5.0
 40
5.0
 40
6.0
 40
6.0
 40
6.0
 40
7.0
 40
7.0
 40
7.0
 40
8.0
 40
8.0
 40
8.0
 40
9.0
 40
9.0
 40
9.0
 40
10.0
 40
10.0
 40
10.0
 40
10.0
 10
27.48120030548459
 20
36.6522227920665
 10
27.30825639803492
 20
36.74868552928943
 10
27.21678905256103
 20
36.9044039479493
 10
27.21678905256103
 20
37.06253393503975
 10
27.21678905256103
 20
37.37138694904101
 10
27.4713817768744
 20
37.56896330546011
 10
27.7950487112349
 20
37.56896330546011
 10
28.16556897510368
 20
37.56896330546011
 10
28.34109670587183
 20
37.33417989325502
 10
28.34109670587183
 20
37.09956873593783
 10
28.34109670587183
 20
36.948845709027
 10
28.25703632057757
 20
36.78330876175695
 10
28.06686692433808
 20
36.6794390643544
 10
28.06686692433808
 20
36.6794390643544
 10
28.06686692433808
 20
36.67461592749326
 10
28.06686692433808
 20
36.67461592749326
 10
28.24945710551005
 20
36.59055554219899
 10
28.40035238730877
 20
36.43001398667798
 10
28.40035238730877
 20
36.19764214290346
 10
28.40035238730877
 20
35.86415667993277
 10
28.13852495770368
 20
35.64418718808692
 10
27.767832438947
 20
35.64418718808692
 10
27.37009590279033
 20
35.64418718808692
 10
27.15753337112409
 20
35.8887891289022
 10
27.15753337112409
 20
36.15561195025633
 10
27.15753337112409
 20
36.38539997071237
 10
27.29344247767568
 20
36.55093691798243
 10
27.48120030548459
 20
36.64481583188689
 10
27.48120030548459
 20
36.64481583188689
 10
27.48120030548459
 20
36.6522227920665
 10
27.48120030548459
 20
36.6522227920665
 97
        0
 92
        1
 93
        1
 72
     4
 94
        3
 73
     0
 74
     1
 95
       17
 96
       13
 40
0.0
 40
0.0
 40
0.0
 40
0.0
 40
1.0
 40
1.0
 40
1.0
 40
2.0
 40
2.0
 40
2.0
 40
3.0
 40
3.0
 40
3.0
 40
4.0
 40
4.0
 40
4.0
 40
4.0
 10
28.03465526030114
 20
36.16801430218499
 10
28.03465526030114
 20
36.35094899313275
 10
27.91114850567821
 20
36.46704878757606
 10
27.74802312683872
 20
36.52130907726396
 10
27.60729088342599
 20
36.46946035600664
 10
27.52323049813172
 20
36.3385466412041
 10
27.52323049813172
 20
36.19023518272385
 10
27.52323049813172
 20
36.0321051956334
 10
27.61952098046676
 20
35.89378452065124
 10
27.7776509675572
 20
35.89378452065124
 10
27.94318791482726
 20
35.89378452065124
 10
28.03465526030114
 20
36.02228666702321
 10
28.03465526030114
 20
36.16801430218499
 97
        0
 92
        1
 93
        1
 72
     4
 94
        3
 73
     0
 74
     1
 95
       17
 96
       13
 40
0.0
 40
0.0
 40
0.0
 40
0.0
 40
1.0
 40
1.0
 40
1.0
 40
2.0
 40
2.0
 40
2.0
 40
3.0
 40
3.0
 40
3.0
 40
4.0
 40
4.0
 40
4.0
 40
4.0
 10
27.56026529902981
 20
37.07975942382955
 10
27.56026529902981
 20
36.93644335709835
 10
27.66413499643236
 20
36.83756905144485
 10
27.80986263159414
 20
36.78330876175695
 10
27.91356007410878
 20
36.82533895440408
 10
28.00003202783362
 20
36.94143874884739
 10
28.00003202783362
 20
37.06735707190089
 10
28.00003202783362
 20
37.19585921827286
 10
27.93836477796611
 20
37.32436136464483
 10
27.78264635930624
 20
37.32436136464483
 10
27.62210480378523
 20
37.32436136464483
 10
27.56026529902981
 20
37.19827078670343
 10
27.56026529902981
 20
37.07975942382955
 97
        0
 75
     2
 76
     1
 98
        0
  0
SPLINE
  5
4A
330
3C
100
AcDbEntity
  8
\U+30EC\U+30A4\U+30E4\U+30FC 1
370
     0
100
AcDbSpline
210
0.0
220
0.0
230
1.0
 70
    11
 71
     3
 72
    17
 73
    13
 74
     0
 42
0.0000000001
 43
0.0000000001
 40
0.0
 40
0.0
 40
0.0
 40
0.0
 40
1.0
 40
1.0
 40
1.0
 40
2.0
 40
2.0
 40
2.0
 40
3.0
 40
3.0
 40
3.0
 40
4.0
 40
4.0
 40
4.0
 40
4.0
 10
28.57019570677628
 20
36.60037407080918
 30
0.0
 10
28.57019570677628
 20
37.16864294598496
 30
0.0
 10
28.78034667001194
 20
37.56896330546011
 30
0.0
 10
29.20030408670748
 20
37.56896330546011
 30
0.0
 10
29.63989856062339
 20
37.56896330546011
 30
0.0
 10
29.81043089964249
 20
37.13401971351745
 30
0.0
 10
29.81043089964249
 20
36.61518799116842
 30
0.0
 10
29.81043089964249
 20
35.99748196316589
 30
0.0
 10
29.58064287918645
 20
35.64418718808692
 30
0.0
 10
29.18790173477881
 20
35.64418718808692
 30
0.0
 10
28.75313039772405
 20
35.64418718808692
 30
0.0
 10
28.57019570677628
 20
36.07913078002958
 30
0.0
 10
28.57019570677628
 20
36.60037407080918
 30
0.0
  0
SPLINE
  5
4B
330
3C
100
AcDbEntity
  8
\U+30EC\U+30A4\U+30E4\U+30FC 1
370
     0
100
AcDbSpline
210
0.0
220
0.0
230
1.0
 70
    11
 71
     3
 72
    20
 73
    16
 74
     0
 42
0.0000000001
 43
0.0000000001
 40
0.0
 40
0.0
 40
0.0
 40
0.0
 40
1.0
 40
1.0
 40
1.0
 40
2.0
 40
2.0
 40
2.0
 40
3.0
 40
3.0
 40
3.0
 40
4.0
 40
4.0
 40
4.0
 40
5.0
 40
5.0
 40
5.0
 40
5.0
 10
29.19272487163996
 20
35.9332308899799
 30
0.0
 10
29.36084564222849
 20
35.9332308899799
 30
0.0
 10
29.44490602752276
 20
36.17042587061556
 30
0.0
 10
29.44490602752276
 20
36.6077810309888
 30
0.0
 10
29.44490602752276
 20
37.0303222710028
 30
0.0
 10
29.36842485729601
 20
37.27991960356712
 30
0.0
 10
29.19548094984633
 20
37.27991960356712
 30
0.0
 10
29.03700645298009
 20
37.27991960356712
 30
0.0
 10
28.93572057889602
 20
37.05254315154166
 30
0.0
 10
28.93572057889602
 20
36.6077810309888
 30
0.0
 10
28.93572057889602
 20
36.16560273375442
 30
0.0
 10
29.0273601792578
 20
35.9332308899799
 30
0.0
 10
29.19031330320939
 20
35.9332308899799
 30
0.0
 10
29.19031330320939
 20
35.9332308899799
 30
0.0
 10
29.19272487163996
 20
35.9332308899799
 30
0.0
 10
29.19272487163996
 20
35.9332308899799
 30
0.0
  0
HATCH
  5
4C
330
3C
100
AcDbEntity
  8
\U+30EC\U+30A4\U+30E4\U+30FC 1
 62
     7
100
AcDbHatch
 10
0.0
 20
0.0
 30
0.0
210
0.0
220
0.0
230
1.0
  2
SOLID
 70
     1
 71
     0
 91
        2
 92
        1
 93
        1
 72
     4
 94
        3
 73
     0
 74
     1
 95
       17
 96
       13
 40
0.0
 40
0.0
 40
0.0
 40
0.0
 40
1.0
 40
1.0
 40
1.0
 40
2.0
 40
2.0
 40
2.0
 40
3.0
 40
3.0
 40
3.0
 40
4.0
 40
4.0
 40
4.0
 40
4.0
 10
28.57019570677628
 20
36.60037407080918
 10
28.57019570677628
 20
37.16864294598496
 10
28.78034667001194
 20
37.56896330546011
 10
29.20030408670748
 20
37.56896330546011
 10
29.63989856062339
 20
37.56896330546011
 10
29.81043089964249
 20
37.13401971351745
 10
29.81043089964249
 20
36.61518799116842
 10
29.81043089964249
 20
35.99748196316589
 10
29.58064287918645
 20
35.64418718808692
 10
29.18790173477881
 20
35.64418718808692
 10
28.75313039772405
 20
35.64418718808692
 10
28.57019570677628
 20
36.07913078002958
 10
28.57019570677628
 20
36.60037407080918
 97
        0
 92
        1
 93
        1
 72
     4
 94
        3
 73
     0
 74
     1
 95
       20
 96
       16
 40
0.0
 40
0.0
 40
0.0
 40
0.0
 40
1.0
 40
1.0
 40
1.0
 40
2.0
 40
2.0
 40
2.0
 40
3.0
 40
3.0
 40
3.0
 40
4.0
 40
4.0
 40
4.0
 40
5.0
 40
5.0
 40
5.0
 40
5.0
 10
29.19272487163996
 20
35.9332308899799
 10
29.36084564222849
 20
35.9332308899799
 10
29.44490602752276
 20
36.17042587061556
 10
29.44490602752276
 20
36.6077810309888
 10
29.44490602752276
 20
37.0303222710028
 10
29.36842485729601
 20
37.27991960356712
 10
29.19548094984633
 20
37.27991960356712
 10
29.03700645298009
 20
37.27991960356712
 10
28.93572057889602
 20
37.05254315154166
 10
28.93572057889602
 20
36.6077810309888
 10
28.93572057889602
 20
36.16560273375442
 10
29.0273601792578
 20
35.9332308899799
 10
29.19031330320939
 20
35.9332308899799
 10
29.19031330320939
 20
35.9332308899799
 10
29.19272487163996
 20
35.9332308899799
 10
29.19272487163996
 20
35.9332308899799
 97
        0
 75
     2
 76
     1
 98
        0
  0
POLYLINE
  5
4D
330
3C
100
AcDbEntity
  8
\U+30EC\U+30A4\U+30E4\U+30FC 1
370
     0
100
AcDb2dPolyline
 66
     1
 10
0.0
 20
0.0
 30
0.0
  0
VERTEX
  5
4E
330
4D
100
AcDbEntity
  8
\U+30EC\U+30A4\U+30E4\U+30FC 1
370
     0
100
AcDbVertex
100
AcDb2dVertex
 10
29.98027421911
 20
36.55093691798243
 30
0.0
  0
VERTEX
  5
4F
330
4D
100
AcDbEntity
  8
\U+30EC\U+30A4\U+30E4\U+30FC 1
370
     0
100
AcDbVertex
100
AcDb2dVertex
 10
30.65723592854947
 20
36.55093691798243
 30
0.0
  0
VERTEX
  5
50
330
4D
100
AcDbEntity
  8
\U+30EC\U+30A4\U+30E4\U+30FC 1
370
     0
100
AcDbVertex
100
AcDb2dVertex
 10
30.65723592854947
 20
36.29892801698753
 30
0.0
  0
VERTEX
  5
51
330
4D
100
AcDbEntity
  8
\U+30EC\U+30A4\U+30E4\U+30FC 1
370
     0
100
AcDbVertex
100
AcDb2dVertex
 10
29.98027421911
 20
36.29892801698753
 30
0.0
  0
VERTEX
  5
52
330
4D
100
AcDbEntity
  8
\U+30EC\U+30A4\U+30E4\U+30FC 1
370
     0
100
AcDbVertex
100
AcDb2dVertex
 10
29.98027421911
 20
36.55093691798243
 30
0.0
  0
SEQEND
  5
53
330
4D
100
AcDbEntity
  8
\U+30EC\U+30A4\U+30E4\U+30FC 1
370
     0
  0
HATCH
  5
54
330
3C
100
AcDbEntity
  8
\U+30EC\U+30A4\U+30E4\U+30FC 1
 62
     7
100
AcDbHatch
 10
0.0
 20
0.0
 30
0.0
210
0.0
220
0.0
230
1.0
  2
SOLID
 70
     1
 71
     0
 91
        1
 92
        1
 93
        4
 72
     1
 10
29.98027421911
 20
36.55093691798243
 11
30.65723592854947
 21
36.55093691798243
 72
     1
 10
30.65723592854947
 20
36.55093691798243
 11
30.65723592854947
 21
36.29892801698753
 72
     1
 10
30.65723592854947
 20
36.29892801698753
 11
29.98027421911
 21
36.29892801698753
 72
     1
 10
29.98027421911
 20
36.29892801698753
 11
29.98027421911
 21
36.55093691798243
 97
        0
 75
     2
 76
     1
 98
        0
  0
SPLINE
  5
55
330
3C
100
AcDbEntity
  8
\U+30EC\U+30A4\U+30E4\U+30FC 1
370
     0
100
AcDbSpline
210
0.0
220
0.0
230
1.0
 70
    11
 71
     3
 72
    41
 73
    37
 74
     0
 42
0.0000000001
 43
0.0000000001
 40
0.0
 40
0.0
 40
0.0
 40
0.0
 40
1.0
 40
1.0
 40
1.0
 40
2.0
 40
2.0
 40
2.0
 40
3.0
 40
3.0
 40
3.0
 40
4.0
 40
4.0
 40
4.0
 40
5.0
 40
5.0
 40
5.0
 40
6.0
 40
6.0
 40
6.0
 40
7.0
 40
7.0
 40
7.0
 40
8.0
 40
8.0
 40
8.0
 40
9.0
 40
9.0
 40
9.0
 40
10.0
 40
10.0
 40
10.0
 40
11.0
 40
11.0
 40
11.0
 40
12.0
 40
12.0
 40
12.0
 40
12.0
 10
32.7050020358819
 20
37.16123598580535
 30
0.0
 10
32.82110183032521
 20
37.00810139046395
 30
0.0
 10
32.89034829526024
 20
36.81775973933657
 30
0.0
 10
32.89034829526024
 20
36.61036485430727
 30
0.0
 10
32.89034829526024
 20
36.10634705231747
 30
0.0
 10
32.480037152287
 20
35.69603590934424
 30
0.0
 10
31.97601935029721
 20
35.69603590934424
 30
0.0
 10
31.76827995549212
 20
35.69603590934424
 30
0.0
 10
31.57811055925263
 20
35.76528237427927
 30
0.0
 10
31.42514821879913
 20
35.88138216872258
 30
0.0
 10
31.42514821879913
 20
35.88138216872258
 30
0.0
 10
31.30388077771888
 20
35.76287080584869
 30
0.0
 10
31.30388077771888
 20
35.76287080584869
 30
0.0
 10
31.30388077771888
 20
35.76287080584869
 30
0.0
 10
31.12852530183863
 20
35.93822628172894
 30
0.0
 10
31.12852530183863
 20
35.93822628172894
 30
0.0
 10
31.12852530183863
 20
35.93822628172894
 30
0.0
 10
31.24703666471251
 20
36.0593214679213
 30
0.0
 10
31.24703666471251
 20
36.0593214679213
 30
0.0
 10
31.13093687026921
 20
36.2124560632627
 30
0.0
 10
31.06169040533418
 20
36.40279771439008
 30
0.0
 10
31.06169040533418
 20
36.61036485430727
 30
0.0
 10
31.06169040533418
 20
37.11438265629707
 30
0.0
 10
31.47200154830741
 20
37.5245215443824
 30
0.0
 10
31.97601935029721
 20
37.5245215443824
 30
0.0
 10
32.1834142353265
 20
37.5245215443824
 30
0.0
 10
32.37392814134179
 20
37.45527507944738
 30
0.0
 10
32.52689048179528
 20
37.33917528500407
 30
0.0
 10
32.52689048179528
 20
37.33917528500407
 30
0.0
 10
32.64815792287553
 20
37.45785890276585
 30
0.0
 10
32.64815792287553
 20
37.45785890276585
 30
0.0
 10
32.64815792287553
 20
37.45785890276585
 30
0.0
 10
32.82351339875579
 20
37.2823311719977
 30
0.0
 10
32.82351339875579
 20
37.2823311719977
 30
0.0
 10
32.82351339875579
 20
37.2823311719977
 30
0.0
 10
32.7050020358819
 20
37.16123598580535
 30
0.0
 10
32.7050020358819
 20
37.16123598580535
 30
0.0
  0
SPLINE
  5
56
330
3C
100
AcDbEntity
  8
\U+30EC\U+30A4\U+30E4\U+30FC 1
370
     0
100
AcDbSpline
210
0.0
220
0.0
230
1.0
 70
    11
 71
     3
 72
    17
 73
    13
 74
     0
 42
0.0000000001
 43
0.0000000001
 40
0.0
 40
0.0
 40
0.0
 40
0.0
 40
1.0
 40
1.0
 40
1.0
 40
2.0
 40
2.0
 40
2.0
 40
3.0
 40
3.0
 40
3.0
 40
4.0
 40
4.0
 40
4.0
 40
4.0
 10
32.34671186905388
 20
37.1564128489442
 30
0.0
 10
32.24025834833287
 20
37.23048245074038
 30
0.0
 10
32.11451228016727
 20
37.27251264338751
 30
0.0
 10
31.97601935029721
 20
37.27251264338751
 30
0.0
 10
31.61049447817747
 20
37.27251264338751
 30
0.0
 10
31.31387156121697
 20
36.97588972642701
 30
0.0
 10
31.31387156121697
 20
36.61036485430727
 30
0.0
 10
31.31387156121697
 20
36.47445574775568
 30
0.0
 10
31.35349018543353
 20
36.35094899313275
 30
0.0
 10
31.42997135566028
 20
36.23967233555059
 30
0.0
 10
31.42997135566028
 20
36.23967233555059
 30
0.0
 10
32.34671186905388
 20
37.1564128489442
 30
0.0
 10
32.34671186905388
 20
37.1564128489442
 30
0.0
  0
SPLINE
  5
57
330
3C
100
AcDbEntity
  8
\U+30EC\U+30A4\U+30E4\U+30FC 1
370
     0
100
AcDbSpline
210
0.0
220
0.0
230
1.0
 70
    11
 71
     3
 72
    17
 73
    13
 74
     0
 42
0.0000000001
 43
0.0000000001
 40
0.0
 40
0.0
 40
0.0
 40
0.0
 40
1.0
 40
1.0
 40
1.0
 40
2.0
 40
2.0
 40
2.0
 40
3.0
 40
3.0
 40
3.0
 40
4.0
 40
4.0
 40
4.0
 40
4.0
 10
31.60532683154053
 20
36.06431685967034
 30
0.0
 10
31.71178035226155
 20
35.99007500298627
 30
0.0
 10
31.83752642042715
 20
35.94821706522703
 30
0.0
 10
31.97601935029721
 20
35.94821706522703
 30
0.0
 10
32.34671186905388
 20
35.94821706522703
 30
0.0
 10
32.63816713937744
 20
36.24949086416078
 30
0.0
 10
32.63816713937744
 20
36.61036485430727
 30
0.0
 10
32.63816713937744
 20
36.74868552928943
 30
0.0
 10
32.59613694673031
 20
36.87460385234293
 30
0.0
 10
32.52206734493414
 20
36.98088511817605
 30
0.0
 10
32.52206734493414
 20
36.98088511817605
 30
0.0
 10
31.60532683154053
 20
36.06431685967034
 30
0.0
 10
31.60532683154053
 20
36.06431685967034
 30
0.0
  0
HATCH
  5
58
330
3C
100
AcDbEntity
  8
\U+30EC\U+30A4\U+30E4\U+30FC 1
 62
     7
100
AcDbHatch
 10
0.0
 20
0.0
 30
0.0
210
0.0
220
0.0
230
1.0
  2
SOLID
 70
     1
 71
     0
 91
        3
 92
        1
 93
        1
 72
     4
 94
        3
 73
     0
 74
     1
 95
       41
 96
       37
 40
0.0
 40
0.0
 40
0.0
 40
0.0
 40
1.0
 40
1.0
 40
1.0
 40
2.0
 40
2.0
 40
2.0
 40
3.0
 40
3.0
 40
3.0
 40
4.0
 40
4.0
 40
4.0
 40
5.0
 40
5.0
 40
5.0
 40
6.0
 40
6.0
 40
6.0
 40
7.0
 40
7.0
 40
7.0
 40
8.0
 40
8.0
 40
8.0
 40
9.0
 40
9.0
 40
9.0
 40
10.0
 40
10.0
 40
10.0
 40
11.0
 40
11.0
 40
11.0
 40
12.0
 40
12.0
 40
12.0
 40
12.0
 10
32.7050020358819
 20
37.16123598580535
 10
32.82110183032521
 20
37.00810139046395
 10
32.89034829526024
 20
36.81775973933657
 10
32.89034829526024
 20
36.61036485430727
 10
32.89034829526024
 20
36.10634705231747
 10
32.480037152287
 20
35.69603590934424
 10
31.97601935029721
 20
35.69603590934424
 10
31.76827995549212
 20
35.69603590934424
 10
31.57811055925263
 20
35.76528237427927
 10
31.42514821879913
 20
35.88138216872258
 10
31.42514821879913
 20
35.88138216872258
 10
31.30388077771888
 20
35.76287080584869
 10
31.30388077771888
 20
35.76287080584869
 10
31.30388077771888
 20
35.76287080584869
 10
31.12852530183863
 20
35.93822628172894
 10
31.12852530183863
 20
35.93822628172894
 10
31.12852530183863
 20
35.93822628172894
 10
31.24703666471251
 20
36.0593214679213
 10
31.24703666471251
 20
36.0593214679213
 10
31.13093687026921
 20
36.2124560632627
 10
31.06169040533418
 20
36.40279771439008
 10
31.06169040533418
 20
36.61036485430727
 10
31.06169040533418
 20
37.11438265629707
 10
31.47200154830741
 20
37.5245215443824
 10
31.97601935029721
 20
37.5245215443824
 10
32.1834142353265
 20
37.5245215443824
 10
32.37392814134179
 20
37.45527507944738
 10
32.52689048179528
 20
37.33917528500407
 10
32.52689048179528
 20
37.33917528500407
 10
32.64815792287553
 20
37.45785890276585
 10
32.64815792287553
 20
37.45785890276585
 10
32.64815792287553
 20
37.45785890276585
 10
32.82351339875579
 20
37.2823311719977
 10
32.82351339875579
 20
37.2823311719977
 10
32.82351339875579
 20
37.2823311719977
 10
32.7050020358819
 20
37.16123598580535
 10
32.7050020358819
 20
37.16123598580535
 97
        0
 92
        1
 93
        1
 72
     4
 94
        3
 73
     0
 74
     1
 95
       17
 96
       13
 40
0.0
 40
0.0
 40
0.0
 40
0.0
 40
1.0
 40
1.0
 40
1.0
 40
2.0
 40
2.0
 40
2.0
 40
3.0
 40
3.0
 40
3.0
 40
4.0
 40
4.0
 40
4.0
 40
4.0
 10
32.34671186905388
 20
37.1564128489442
 10
32.24025834833287
 20
37.23048245074038
 10
32.11451228016727
 20
37.27251264338751
 10
31.97601935029721
 20
37.27251264338751
 10
31.61049447817747
 20
37.27251264338751
 10
31.31387156121697
 20
36.97588972642701
 10
31.31387156121697
 20
36.61036485430727
 10
31.31387156121697
 20
36.47445574775568
 10
31.35349018543353
 20
36.35094899313275
 10
31.42997135566028
 20
36.23967233555059
 10
31.42997135566028
 20
36.23967233555059
 10
32.34671186905388
 20
37.1564128489442
 10
32.34671186905388
 20
37.1564128489442
 97
        0
 92
        1
 93
        1
 72
     4
 94
        3
 73
     0
 74
     1
 95
       17
 96
       13
 40
0.0
 40
0.0
 40
0.0
 40
0.0
 40
1.0
 40
1.0
 40
1.0
 40
2.0
 40
2.0
 40
2.0
 40
3.0
 40
3.0
 40
3.0
 40
4.0
 40
4.0
 40
4.0
 40
4.0
 10
31.60532683154053
 20
36.06431685967034
 10
31.71178035226155
 20
35.99007500298627
 10
31.83752642042715
 20
35.94821706522703
 10
31.97601935029721
 20
35.94821706522703
 10
32.34671186905388
 20
35.94821706522703
 10
32.63816713937744
 20
36.24949086416078
 10
32.63816713937744
 20
36.61036485430727
 10
32.63816713937744
 20
36.74868552928943
 10
32.59613694673031
 20
36.87460385234293
 10
32.52206734493414
 20
36.98088511817605
 10
32.52206734493414
 20
36.98088511817605
 10
31.60532683154053
 20
36.06431685967034
 10
31.60532683154053
 20
36.06431685967034
 97
        0
 75
     2
 76
     1
 98
        0
  0
SPLINE
  5
59
330
3C
100
AcDbEntity
  8
\U+30EC\U+30A4\U+30E4\U+30FC 1
370
     0
100
AcDbSpline
210
0.0
220
0.0
230
1.0
 70
    11
 71
     3
 72
    59
 73
    55
 74
     0
 42
0.0000000001
 43
0.0000000001
 40
0.0
 40
0.0
 40
0.0
 40
0.0
 40
1.0
 40
1.0
 40
1.0
 40
2.0
 40
2.0
 40
2.0
 40
3.0
 40
3.0
 40
3.0
 40
4.0
 40
4.0
 40
4.0
 40
5.0
 40
5.0
 40
5.0
 40
6.0
 40
6.0
 40
6.0
 40
7.0
 40
7.0
 40
7.0
 40
8.0
 40
8.0
 40
8.0
 40
9.0
 40
9.0
 40
9.0
 40
10.0
 40
10.0
 40
10.0
 40
11.0
 40
11.0
 40
11.0
 40
12.0
 40
12.0
 40
12.0
 40
13.0
 40
13.0
 40
13.0
 40
14.0
 40
14.0
 40
14.0
 40
15.0
 40
15.0
 40
15.0
 40
16.0
 40
16.0
 40
16.0
 40
17.0
 40
17.0
 40
17.0
 40
18.0
 40
18.0
 40
18.0
 40
18.0
 10
34.07718447287804
 20
36.67702749592383
 30
0.0
 10
34.28492386768313
 20
36.63000191152765
 30
0.0
 10
34.45786777513281
 20
36.46205339582702
 30
0.0
 10
34.45786777513281
 20
36.20763292640155
 30
0.0
 10
34.45786777513281
 20
35.89619608908181
 30
0.0
 10
34.20809818768058
 20
35.64418718808692
 30
0.0
 10
33.77332685062582
 20
35.64418718808692
 30
0.0
 10
33.57557823931882
 20
35.64418718808692
 30
0.0
 10
33.397811195008
 20
35.69603590934424
 30
0.0
 10
33.30410453599144
 20
35.75787541409965
 30
0.0
 10
33.30410453599144
 20
35.75787541409965
 30
0.0
 10
33.38540884307933
 20
36.03468901895187
 30
0.0
 10
33.38540884307933
 20
36.03468901895187
 30
0.0
 10
33.45465530801437
 20
35.99007500298627
 30
0.0
 10
33.60520608003729
 20
35.9332308899799
 30
0.0
 10
33.74852214676849
 20
35.9332308899799
 30
0.0
 10
33.97348703036339
 20
35.9332308899799
 30
0.0
 10
34.08476368794556
 20
36.07172381984996
 30
0.0
 10
34.08476368794556
 20
36.22485841519136
 30
0.0
 10
34.08476368794556
 20
36.43483712353913
 30
0.0
 10
33.90182899699779
 20
36.53371142919262
 30
0.0
 10
33.70166881726022
 20
36.53371142919262
 30
0.0
 10
33.70166881726022
 20
36.53371142919262
 30
0.0
 10
33.57557823931882
 20
36.53371142919262
 30
0.0
 10
33.57557823931882
 20
36.53371142919262
 30
0.0
 10
33.57557823931882
 20
36.53371142919262
 30
0.0
 10
33.57557823931882
 20
36.79071572193656
 30
0.0
 10
33.57557823931882
 20
36.79071572193656
 30
0.0
 10
33.57557823931882
 20
36.79071572193656
 30
0.0
 10
33.6944341119685
 20
36.79071572193656
 30
0.0
 10
33.6944341119685
 20
36.79071572193656
 30
0.0
 10
33.84016174713027
 20
36.79071572193656
 30
0.0
 10
34.02791957493919
 20
36.87219228391236
 30
0.0
 10
34.02791957493919
 20
37.05254315154166
 30
0.0
 10
34.02791957493919
 20
37.1834568663442
 30
0.0
 10
33.94144762121435
 20
37.27991960356712
 30
0.0
 10
33.76850371376467
 20
37.27991960356712
 30
0.0
 10
33.6400015673927
 20
37.27991960356712
 30
0.0
 10
33.5139109894513
 20
37.22307549056076
 30
0.0
 10
33.4422529560857
 20
37.17863372948305
 30
0.0
 10
33.4422529560857
 20
37.17863372948305
 30
0.0
 10
33.36577178585895
 20
37.44046115908814
 30
0.0
 10
33.36577178585895
 20
37.44046115908814
 30
0.0
 10
33.46223452308188
 20
37.50471223227412
 30
0.0
 10
33.65240391932137
 20
37.56896330546011
 30
0.0
 10
33.85256409905894
 20
37.56896330546011
 30
0.0
 10
34.21085426588696
 20
37.56896330546011
 30
0.0
 10
34.39861209369587
 20
37.35898459711235
 30
0.0
 10
34.39861209369587
 20
37.11179883297859
 30
0.0
 10
34.39861209369587
 20
36.91921786830854
 30
0.0
 10
34.28251229925256
 20
36.75850405789962
 30
0.0
 10
34.07718447287804
 20
36.68202288767287
 30
0.0
 10
34.07718447287804
 20
36.68202288767287
 30
0.0
 10
34.07718447287804
 20
36.67702749592383
 30
0.0
 10
34.07718447287804
 20
36.67702749592383
 30
0.0
  0
HATCH
  5
5A
330
3C
100
AcDbEntity
  8
\U+30EC\U+30A4\U+30E4\U+30FC 1
 62
     7
100
AcDbHatch
 10
0.0
 20
0.0
 30
0.0
210
0.0
220
0.0
230
1.0
  2
SOLID
 70
     1
 71
     0
 91
        1
 92
        1
 93
        1
 72
     4
 94
        3
 73
     0
 74
     1
 95
       59
 96
       55
 40
0.0
 40
0.0
 40
0.0
 40
0.0
 40
1.0
 40
1.0
 40
1.0
 40
2.0
 40
2.0
 40
2.0
 40
3.0
 40
3.0
 40
3.0
 40
4.0
 40
4.0
 40
4.0
 40
5.0
 40
5.0
 40
5.0
 40
6.0
 40
6.0
 40
6.0
 40
7.0
 40
7.0
 40
7.0
 40
8.0
 40
8.0
 40
8.0
 40
9.0
 40
9.0
 40
9.0
 40
10.0
 40
10.0
 40
10.0
 40
11.0
 40
11.0
 40
11.0
 40
12.0
 40
12.0
 40
12.0
 40
13.0
 40
13.0
 40
13.0
 40
14.0
 40
14.0
 40
14.0
 40
15.0
 40
15.0
 40
15.0
 40
16.0
 40
16.0
 40
16.0
 40
17.0
 40
17.0
 40
17.0
 40
18.0
 40
18.0
 40
18.0
 40
18.0
 10
34.07718447287804
 20
36.67702749592383
 10
34.28492386768313
 20
36.63000191152765
 10
34.45786777513281
 20
36.46205339582702
 10
34.45786777513281
 20
36.20763292640155
 10
34.45786777513281
 20
35.89619608908181
 10
34.20809818768058
 20
35.64418718808692
 10
33.77332685062582
 20
35.64418718808692
 10
33.57557823931882
 20
35.64418718808692
 10
33.397811195008
 20
35.69603590934424
 10
33.30410453599144
 20
35.75787541409965
 10
33.30410453599144
 20
35.75787541409965
 10
33.38540884307933
 20
36.03468901895187
 10
33.38540884307933
 20
36.03468901895187
 10
33.45465530801437
 20
35.99007500298627
 10
33.60520608003729
 20
35.9332308899799
 10
33.74852214676849
 20
35.9332308899799
 10
33.97348703036339
 20
35.9332308899799
 10
34.08476368794556
 20
36.07172381984996
 10
34.08476368794556
 20
36.22485841519136
 10
34.08476368794556
 20
36.43483712353913
 10
33.90182899699779
 20
36.53371142919262
 10
33.70166881726022
 20
36.53371142919262
 10
33.70166881726022
 20
36.53371142919262
 10
33.57557823931882
 20
36.53371142919262
 10
33.57557823931882
 20
36.53371142919262
 10
33.57557823931882
 20
36.53371142919262
 10
33.57557823931882
 20
36.79071572193656
 10
33.57557823931882
 20
36.79071572193656
 10
33.57557823931882
 20
36.79071572193656
 10
33.6944341119685
 20
36.79071572193656
 10
33.6944341119685
 20
36.79071572193656
 10
33.84016174713027
 20
36.79071572193656
 10
34.02791957493919
 20
36.87219228391236
 10
34.02791957493919
 20
37.05254315154166
 10
34.02791957493919
 20
37.1834568663442
 10
33.94144762121435
 20
37.27991960356712
 10
33.76850371376467
 20
37.27991960356712
 10
33.6400015673927
 20
37.27991960356712
 10
33.5139109894513
 20
37.22307549056076
 10
33.4422529560857
 20
37.17863372948305
 10
33.4422529560857
 20
37.17863372948305
 10
33.36577178585895
 20
37.44046115908814
 10
33.36577178585895
 20
37.44046115908814
 10
33.46223452308188
 20
37.50471223227412
 10
33.65240391932137
 20
37.56896330546011
 10
33.85256409905894
 20
37.56896330546011
 10
34.21085426588696
 20
37.56896330546011
 10
34.39861209369587
 20
37.35898459711235
 10
34.39861209369587
 20
37.11179883297859
 10
34.39861209369587
 20
36.91921786830854
 10
34.28251229925256
 20
36.75850405789962
 10
34.07718447287804
 20
36.68202288767287
 10
34.07718447287804
 20
36.68202288767287
 10
34.07718447287804
 20
36.67702749592383
 10
34.07718447287804
 20
36.67702749592383
 97
        0
 75
     2
 76
     1
 98
        0
  0
SPLINE
  5
5B
330
3C
100
AcDbEntity
  8
\U+30EC\U+30A4\U+30E4\U+30FC 1
370
     0
100
AcDbSpline
210
0.0
220
0.0
230
1.0
 70
    11
 71
     3
 72
    17
 73
    13
 74
     0
 42
0.0000000001
 43
0.0000000001
 40
0.0
 40
0.0
 40
0.0
 40
0.0
 40
1.0
 40
1.0
 40
1.0
 40
2.0
 40
2.0
 40
2.0
 40
3.0
 40
3.0
 40
3.0
 40
4.0
 40
4.0
 40
4.0
 40
4.0
 10
34.70901540168821
 20
36.60037407080918
 30
0.0
 10
34.70901540168821
 20
37.16864294598496
 30
0.0
 10
34.91916636492387
 20
37.56896330546011
 30
0.0
 10
35.33912378161941
 20
37.56896330546011
 30
0.0
 10
35.77871825553532
 20
37.56896330546011
 30
0.0
 10
35.94925059455442
 20
37.13401971351745
 30
0.0
 10
35.94925059455442
 20
36.61518799116842
 30
0.0
 10
35.94925059455442
 20
35.99748196316589
 30
0.0
 10
35.71946257409838
 20
35.64418718808692
 30
0.0
 10
35.32672142969074
 20
35.64418718808692
 30
0.0
 10
34.89195009263598
 20
35.64418718808692
 30
0.0
 10
34.70901540168821
 20
36.07913078002958
 30
0.0
 10
34.70901540168821
 20
36.60037407080918
 30
0.0
  0
SPLINE
  5
5C
330
3C
100
AcDbEntity
  8
\U+30EC\U+30A4\U+30E4\U+30FC 1
370
     0
100
AcDbSpline
210
0.0
220
0.0
230
1.0
 70
    11
 71
     3
 72
    20
 73
    16
 74
     0
 42
0.0000000001
 43
0.0000000001
 40
0.0
 40
0.0
 40
0.0
 40
0.0
 40
1.0
 40
1.0
 40
1.0
 40
2.0
 40
2.0
 40
2.0
 40
3.0
 40
3.0
 40
3.0
 40
4.0
 40
4.0
 40
4.0
 40
5.0
 40
5.0
 40
5.0
 40
5.0
 10
35.33154456655189
 20
35.9332308899799
 30
0.0
 10
35.49966533714042
 20
35.9332308899799
 30
0.0
 10
35.58372572243469
 20
36.17042587061556
 30
0.0
 10
35.58372572243469
 20
36.6077810309888
 30
0.0
 10
35.58372572243469
 20
37.0303222710028
 30
0.0
 10
35.50724455220794
 20
37.27991960356712
 30
0.0
 10
35.33395613498246
 20
37.27991960356712
 30
0.0
 10
35.17617065766782
 20
37.27991960356712
 30
0.0
 10
35.07454027380795
 20
37.05254315154166
 30
0.0
 10
35.07454027380795
 20
36.6077810309888
 30
0.0
 10
35.07454027380795
 20
36.16560273375442
 30
0.0
 10
35.16617987416973
 20
35.9332308899799
 30
0.0
 10
35.32913299812132
 20
35.9332308899799
 30
0.0
 10
35.32913299812132
 20
35.9332308899799
 30
0.0
 10
35.33154456655189
 20
35.9332308899799
 30
0.0
 10
35.33154456655189
 20
35.9332308899799
 30
0.0
  0
HATCH
  5
5D
330
3C
100
AcDbEntity
  8
\U+30EC\U+30A4\U+30E4\U+30FC 1
 62
     7
100
AcDbHatch
 10
0.0
 20
0.0
 30
0.0
210
0.0
220
0.0
230
1.0
  2
SOLID
 70
     1
 71
     0
 91
        2
 92
        1
 93
        1
 72
     4
 94
        3
 73
     0
 74
     1
 95
       17
 96
       13
 40
0.0
 40
0.0
 40
0.0
 40
0.0
 40
1.0
 40
1.0
 40
1.0
 40
2.0
 40
2.0
 40
2.0
 40
3.0
 40
3.0
 40
3.0
 40
4.0
 40
4.0
 40
4.0
 40
4.0
 10
34.70901540168821
 20
36.60037407080918
 10
34.70901540168821
 20
37.16864294598496
 10
34.91916636492387
 20
37.56896330546011
 10
35.33912378161941
 20
37.56896330546011
 10
35.77871825553532
 20
37.56896330546011
 10
35.94925059455442
 20
37.13401971351745
 10
35.94925059455442
 20
36.61518799116842
 10
35.94925059455442
 20
35.99748196316589
 10
35.71946257409838
 20
35.64418718808692
 10
35.32672142969074
 20
35.64418718808692
 10
34.89195009263598
 20
35.64418718808692
 10
34.70901540168821
 20
36.07913078002958
 10
34.70901540168821
 20
36.60037407080918
 97
        0
 92
        1
 93
        1
 72
     4
 94
        3
 73
     0
 74
     1
 95
       20
 96
       16
 40
0.0
 40
0.0
 40
0.0
 40
0.0
 40
1.0
 40
1.0
 40
1.0
 40
2.0
 40
2.0
 40
2.0
 40
3.0
 40
3.0
 40
3.0
 40
4.0
 40
4.0
 40
4.0
 40
5.0
 40
5.0
 40
5.0
 40
5.0
 10
35.33154456655189
 20
35.9332308899799
 10
35.49966533714042
 20
35.9332308899799
 10
35.58372572243469
 20
36.17042587061556
 10
35.58372572243469
 20
36.6077810309888
 10
35.58372572243469
 20
37.0303222710028
 10
35.50724455220794
 20
37.27991960356712
 10
35.33395613498246
 20
37.27991960356712
 10
35.17617065766782
 20
37.27991960356712
 10
35.07454027380795
 20
37.05254315154166
 10
35.07454027380795
 20
36.6077810309888
 10
35.07454027380795
 20
36.16560273375442
 10
35.16617987416973
 20
35.9332308899799
 10
35.32913299812132
 20
35.9332308899799
 10
35.32913299812132
 20
35.9332308899799
 10
35.33154456655189
 20
35.9332308899799
 10
35.33154456655189
 20
35.9332308899799
 97
        0
 75
     2
 76
     1
 98
        0
  0
SPLINE
  5
5E
330
3C
100
AcDbEntity
  8
\U+30EC\U+30A4\U+30E4\U+30FC 1
370
     0
100
AcDbSpline
210
0.0
220
0.0
230
1.0
 70
    11
 71
     3
 72
    17
 73
    13
 74
     0
 42
0.0000000001
 43
0.0000000001
 40
0.0
 40
0.0
 40
0.0
 40
0.0
 40
1.0
 40
1.0
 40
1.0
 40
2.0
 40
2.0
 40
2.0
 40
3.0
 40
3.0
 40
3.0
 40
4.0
 40
4.0
 40
4.0
 40
4.0
 10
36.12150548245251
 20
36.60037407080918
 30
0.0
 10
36.12150548245251
 20
37.16864294598496
 30
0.0
 10
36.33165644568817
 20
37.56896330546011
 30
0.0
 10
36.7516138623837
 20
37.56896330546011
 30
0.0
 10
37.19120833629961
 20
37.56896330546011
 30
0.0
 10
37.36174067531871
 20
37.13401971351745
 30
0.0
 10
37.36174067531871
 20
36.61518799116842
 30
0.0
 10
37.36174067531871
 20
35.99748196316589
 30
0.0
 10
37.13195265486267
 20
35.64418718808692
 30
0.0
 10
36.73921151045504
 20
35.64418718808692
 30
0.0
 10
36.30444017340027
 20
35.64418718808692
 30
0.0
 10
36.12150548245251
 20
36.07913078002958
 30
0.0
 10
36.12150548245251
 20
36.60037407080918
 30
0.0
  0
SPLINE
  5
5F
330
3C
100
AcDbEntity
  8
\U+30EC\U+30A4\U+30E4\U+30FC 1
370
     0
100
AcDbSpline
210
0.0
220
0.0
230
1.0
 70
    11
 71
     3
 72
    20
 73
    16
 74
     0
 42
0.0000000001
 43
0.0000000001
 40
0.0
 40
0.0
 40
0.0
 40
0.0
 40
1.0
 40
1.0
 40
1.0
 40
2.0
 40
2.0
 40
2.0
 40
3.0
 40
3.0
 40
3.0
 40
4.0
 40
4.0
 40
4.0
 40
5.0
 40
5.0
 40
5.0
 40
5.0
 10
36.74403464731618
 20
35.9332308899799
 30
0.0
 10
36.91215541790471
 20
35.9332308899799
 30
0.0
 10
36.99621580319898
 20
36.17042587061556
 30
0.0
 10
36.99621580319898
 20
36.6077810309888
 30
0.0
 10
36.99621580319898
 20
37.0303222710028
 30
0.0
 10
36.91973463297223
 20
37.27991960356712
 30
0.0
 10
36.74644621574676
 20
37.27991960356712
 30
0.0
 10
36.58866073843211
 20
37.27991960356712
 30
0.0
 10
36.48703035457224
 20
37.05254315154166
 30
0.0
 10
36.48703035457224
 20
36.6077810309888
 30
0.0
 10
36.48703035457224
 20
36.16560273375442
 30
0.0
 10
36.57866995493402
 20
35.9332308899799
 30
0.0
 10
36.74162307888561
 20
35.9332308899799
 30
0.0
 10
36.74162307888561
 20
35.9332308899799
 30
0.0
 10
36.74403464731618
 20
35.9332308899799
 30
0.0
 10
36.74403464731618
 20
35.9332308899799
 30
0.0
  0
HATCH
  5
60
330
3C
100
AcDbEntity
  8
\U+30EC\U+30A4\U+30E4\U+30FC 1
 62
     7
100
AcDbHatch
 10
0.0
 20
0.0
 30
0.0
210
0.0
220
0.0
230
1.0
  2
SOLID
 70
     1
 71
     0
 91
        2
 92
        1
 93
        1
 72
     4
 94
        3
 73
     0
 74
     1
 95
       17
 96
       13
 40
0.0
 40
0.0
 40
0.0
 40
0.0
 40
1.0
 40
1.0
 40
1.0
 40
2.0
 40
2.0
 40
2.0
 40
3.0
 40
3.0
 40
3.0
 40
4.0
 40
4.0
 40
4.0
 40
4.0
 10
36.12150548245251
 20
36.60037407080918
 10
36.12150548245251
 20
37.16864294598496
 10
36.33165644568817
 20
37.56896330546011
 10
36.7516138623837
 20
37.56896330546011
 10
37.19120833629961
 20
37.56896330546011
 10
37.36174067531871
 20
37.13401971351745
 10
37.36174067531871
 20
36.61518799116842
 10
37.36174067531871
 20
35.99748196316589
 10
37.13195265486267
 20
35.64418718808692
 10
36.73921151045504
 20
35.64418718808692
 10
36.30444017340027
 20
35.64418718808692
 10
36.12150548245251
 20
36.07913078002958
 10
36.12150548245251
 20
36.60037407080918
 97
        0
 92
        1
 93
        1
 72
     4
 94
        3
 73
     0
 74
     1
 95
       20
 96
       16
 40
0.0
 40
0.0
 40
0.0
 40
0.0
 40
1.0
 40
1.0
 40
1.0
 40
2.0
 40
2.0
 40
2.0
 40
3.0
 40
3.0
 40
3.0
 40
4.0
 40
4.0
 40
4.0
 40
5.0
 40
5.0
 40
5.0
 40
5.0
 10
36.74403464731618
 20
35.9332308899799
 10
36.91215541790471
 20
35.9332308899799
 10
36.99621580319898
 20
36.17042587061556
 10
36.99621580319898
 20
36.6077810309888
 10
36.99621580319898
 20
37.0303222710028
 10
36.91973463297223
 20
37.27991960356712
 10
36.74644621574676
 20
37.27991960356712
 10
36.58866073843211
 20
37.27991960356712
 10
36.48703035457224
 20
37.05254315154166
 10
36.48703035457224
 20
36.6077810309888
 10
36.48703035457224
 20
36.16560273375442
 10
36.57866995493402
 20
35.9332308899799
 10
36.74162307888561
 20
35.9332308899799
 10
36.74162307888561
 20
35.9332308899799
 10
36.74403464731618
 20
35.9332308899799
 10
36.74403464731618
 20
35.9332308899799
 97
        0
 75
     2
 76
     1
 98
        0
  0
ENDBLK
  5
3F
330
3C
100
AcDbEntity
  8
0
100
AcDbBlockEnd
  0
BLOCK
  5
3AF
330
3AD
100
AcDbEntity
  8
0
100
AcDbBlockBegin
  2
block 3
 70
     0
 71
     0
 10
0.0
 20
0.0
 30
0.0
  3
block 3
  1

  0
POLYLINE
  5
3B1
330
3AD
100
AcDbEntity
  8
\U+30EC\U+30A4\U+30E4\U+30FC 1
370
     0
100
AcDb2dPolyline
 66
     1
 10
0.0
 20
0.0
 30
0.0
  0
VERTEX
  5
3B2
330
3B1
100
AcDbEntity
  8
\U+30EC\U+30A4\U+30E4\U+30FC 1
370
     0
100
AcDbVertex
100
AcDb2dVertex
 10
10.55922462815258
 20
44.44778999878221
 30
0.0
  0
VERTEX
  5
3B3
330
3B1
100
AcDbEntity
  8
\U+30EC\U+30A4\U+30E4\U+30FC 1
370
     0
100
AcDbVertex
100
AcDb2dVertex
 10
9.01754338146472
 20
44.44778999878221
 30
0.0
  0
VERTEX
  5
3B4
330
3B1
100
AcDbEntity
  8
\U+30EC\U+30A4\U+30E4\U+30FC 1
370
     0
100
AcDbVertex
100
AcDb2dVertex
 10
9.01754338146472
 20
44.44296686192106
 30
0.0
  0
VERTEX
  5
3B5
330
3B1
100
AcDbEntity
  8
\U+30EC\U+30A4\U+30E4\U+30FC 1
370
     0
100
AcDbVertex
100
AcDb2dVertex
 10
9.185491897165353
 20
44.12171149599114
 30
0.0
  0
VERTEX
  5
3B6
330
3B1
100
AcDbEntity
  8
\U+30EC\U+30A4\U+30E4\U+30FC 1
370
     0
100
AcDbVertex
100
AcDb2dVertex
 10
8.923492212672365
 20
44.04264650244592
 30
0.0
  0
VERTEX
  5
3B7
330
3B1
100
AcDbEntity
  8
\U+30EC\U+30A4\U+30E4\U+30FC 1
370
     0
100
AcDbVertex
100
AcDb2dVertex
 10
8.691292623785747
 20
44.49722715160897
 30
0.0
  0
VERTEX
  5
3B8
330
3B1
100
AcDbEntity
  8
\U+30EC\U+30A4\U+30E4\U+30FC 1
370
     0
100
AcDbVertex
100
AcDb2dVertex
 10
8.691292623785747
 20
44.80366859717966
 30
0.0
  0
VERTEX
  5
3B9
330
3B1
100
AcDbEntity
  8
\U+30EC\U+30A4\U+30E4\U+30FC 1
370
     0
100
AcDbVertex
100
AcDb2dVertex
 10
10.55922462815258
 20
44.80366859717966
 30
0.0
  0
VERTEX
  5
3BA
330
3B1
100
AcDbEntity
  8
\U+30EC\U+30A4\U+30E4\U+30FC 1
370
     0
100
AcDbVertex
100
AcDb2dVertex
 10
10.55922462815258
 20
44.44778999878221
 30
0.0
  0
SEQEND
  5
3BB
330
3B1
100
AcDbEntity
  8
\U+30EC\U+30A4\U+30E4\U+30FC 1
370
     0
  0
HATCH
  5
3BC
330
3AD
100
AcDbEntity
  8
\U+30EC\U+30A4\U+30E4\U+30FC 1
 62
     7
100
AcDbHatch
 10
0.0
 20
0.0
 30
0.0
210
0.0
220
0.0
230
1.0
  2
SOLID
 70
     1
 71
     0
 91
        1
 92
        1
 93
        8
 72
     1
 10
10.55922462815258
 20
44.44778999878221
 11
9.01754338146472
 21
44.44778999878221
 72
     1
 10
9.01754338146472
 20
44.44778999878221
 11
9.01754338146472
 21
44.44296686192106
 72
     1
 10
9.01754338146472
 20
44.44296686192106
 11
9.185491897165353
 21
44.12171149599114
 72
     1
 10
9.185491897165353
 20
44.12171149599114
 11
8.923492212672365
 21
44.04264650244592
 72
     1
 10
8.923492212672365
 20
44.04264650244592
 11
8.691292623785747
 21
44.49722715160897
 72
     1
 10
8.691292623785747
 20
44.49722715160897
 11
8.691292623785747
 21
44.80366859717966
 72
     1
 10
8.691292623785747
 20
44.80366859717966
 11
10.55922462815258
 21
44.80366859717966
 72
     1
 10
10.55922462815258
 20
44.80366859717966
 11
10.55922462815258
 21
44.44778999878221
 97
        0
 75
     2
 76
     1
 98
        0
  0
SPLINE
  5
3BD
330
3AD
100
AcDbEntity
  8
\U+30EC\U+30A4\U+30E4\U+30FC 1
370
     0
100
AcDbSpline
210
0.0
220
0.0
230
1.0
 70
    11
 71
     3
 72
    35
 73
    31
 74
     0
 42
0.0000000001
 43
0.0000000001
 40
0.0
 40
0.0
 40
0.0
 40
0.0
 40
1.0
 40
1.0
 40
1.0
 40
2.0
 40
2.0
 40
2.0
 40
3.0
 40
3.0
 40
3.0
 40
4.0
 40
4.0
 40
4.0
 40
5.0
 40
5.0
 40
5.0
 40
6.0
 40
6.0
 40
6.0
 40
7.0
 40
7.0
 40
7.0
 40
8.0
 40
8.0
 40
8.0
 40
9.0
 40
9.0
 40
9.0
 40
10.0
 40
10.0
 40
10.0
 40
10.0
 10
9.578405296460883
 20
45.65770833137836
 30
0.0
 10
9.481942559237956
 20
45.48476442392868
 30
0.0
 10
9.326224140578088
 20
45.3932970784548
 30
0.0
 10
9.168094153487646
 20
45.3932970784548
 30
0.0
 10
8.859413394374277
 20
45.3932970784548
 30
0.0
 10
8.661664783067277
 20
45.64788980276817
 30
0.0
 10
8.661664783067277
 20
45.97155673712867
 30
0.0
 10
8.661664783067277
 20
46.34207700099745
 30
0.0
 10
8.896448195272367
 20
46.51760473176559
 30
0.0
 10
9.131059352589558
 20
46.51760473176559
 30
0.0
 10
9.281782379500381
 20
46.51760473176559
 30
0.0
 10
9.44731932677044
 20
46.43354434647133
 30
0.0
 10
9.551189024172984
 20
46.24337495023185
 30
0.0
 10
9.551189024172984
 20
46.24337495023185
 30
0.0
 10
9.55601216103413
 20
46.24337495023185
 30
0.0
 10
9.55601216103413
 20
46.24337495023185
 30
0.0
 10
9.640072546328396
 20
46.42613738629171
 30
0.0
 10
9.800614101849412
 20
46.57686041320254
 30
0.0
 10
10.03298594562393
 20
46.57686041320254
 30
0.0
 10
10.36647140859462
 20
46.57686041320254
 30
0.0
 10
10.58644090044047
 20
46.31486072870955
 30
0.0
 10
10.58644090044047
 20
45.94434046484077
 30
0.0
 10
10.58644090044047
 20
45.54660392868409
 30
0.0
 10
10.34183895962519
 20
45.33404139701786
 30
0.0
 10
10.07501613827106
 20
45.33404139701786
 30
0.0
 10
9.845228117815015
 20
45.33404139701786
 30
0.0
 10
9.679691170544956
 20
45.46995050356945
 30
0.0
 10
9.5858122566405
 20
45.65770833137836
 30
0.0
 10
9.5858122566405
 20
45.65770833137836
 30
0.0
 10
9.578405296460883
 20
45.65770833137836
 30
0.0
 10
9.578405296460883
 20
45.65770833137836
 30
0.0
  0
SPLINE
  5
3BE
330
3AD
100
AcDbEntity
  8
\U+30EC\U+30A4\U+30E4\U+30FC 1
370
     0
100
AcDbSpline
210
0.0
220
0.0
230
1.0
 70
    11
 71
     3
 72
    17
 73
    13
 74
     0
 42
0.0000000001
 43
0.0000000001
 40
0.0
 40
0.0
 40
0.0
 40
0.0
 40
1.0
 40
1.0
 40
1.0
 40
2.0
 40
2.0
 40
2.0
 40
3.0
 40
3.0
 40
3.0
 40
4.0
 40
4.0
 40
4.0
 40
4.0
 10
9.150868664697837
 20
45.73677332492358
 30
0.0
 10
9.294184731429043
 20
45.73677332492358
 30
0.0
 10
9.393059037082544
 20
45.84047076743823
 30
0.0
 10
9.44731932677044
 20
45.9863706574879
 30
0.0
 10
9.405289134123308
 20
46.09006810000255
 30
0.0
 10
9.289189339679998
 20
46.17654005372739
 30
0.0
 10
9.1632710166265
 20
46.17654005372739
 30
0.0
 10
9.034768870254528
 20
46.17654005372739
 30
0.0
 10
8.906266723882558
 20
46.11487280385987
 30
0.0
 10
8.906266723882558
 20
45.95915438520001
 30
0.0
 10
8.906266723882558
 20
45.79861282967899
 30
0.0
 10
9.032357301823955
 20
45.73677332492358
 30
0.0
 10
9.150868664697837
 20
45.73677332492358
 30
0.0
  0
SPLINE
  5
3BF
330
3AD
100
AcDbEntity
  8
\U+30EC\U+30A4\U+30E4\U+30FC 1
370
     0
100
AcDbSpline
210
0.0
220
0.0
230
1.0
 70
    11
 71
     3
 72
    17
 73
    13
 74
     0
 42
0.0000000001
 43
0.0000000001
 40
0.0
 40
0.0
 40
0.0
 40
0.0
 40
1.0
 40
1.0
 40
1.0
 40
2.0
 40
2.0
 40
2.0
 40
3.0
 40
3.0
 40
3.0
 40
4.0
 40
4.0
 40
4.0
 40
4.0
 10
10.0626137863424
 20
46.2111632861949
 30
0.0
 10
9.879679095394632
 20
46.2111632861949
 30
0.0
 10
9.763579300951323
 20
46.08765653157198
 30
0.0
 10
9.709319011263426
 20
45.92453115273249
 30
0.0
 10
9.76116773252075
 20
45.78379890931976
 30
0.0
 10
9.892081447323294
 20
45.69973852402549
 30
0.0
 10
10.04039290580354
 20
45.69973852402549
 30
0.0
 10
10.19852289289399
 20
45.69973852402549
 30
0.0
 10
10.33684356787615
 20
45.79602900636052
 30
0.0
 10
10.33684356787615
 20
45.95415899345096
 30
0.0
 10
10.33684356787615
 20
46.11969594072102
 30
0.0
 10
10.20834142150418
 20
46.2111632861949
 30
0.0
 10
10.0626137863424
 20
46.2111632861949
 30
0.0
  0
HATCH
  5
3C0
330
3AD
100
AcDbEntity
  8
\U+30EC\U+30A4\U+30E4\U+30FC 1
 62
     7
100
AcDbHatch
 10
0.0
 20
0.0
 30
0.0
210
0.0
220
0.0
230
1.0
  2
SOLID
 70
     1
 71
     0
 91
        3
 92
        1
 93
        1
 72
     4
 94
        3
 73
     0
 74
     1
 95
       35
 96
       31
 40
0.0
 40
0.0
 40
0.0
 40
0.0
 40
1.0
 40
1.0
 40
1.0
 40
2.0
 40
2.0
 40
2.0
 40
3.0
 40
3.0
 40
3.0
 40
4.0
 40
4.0
 40
4.0
 40
5.0
 40
5.0
 40
5.0
 40
6.0
 40
6.0
 40
6.0
 40
7.0
 40
7.0
 40
7.0
 40
8.0
 40
8.0
 40
8.0
 40
9.0
 40
9.0
 40
9.0
 40
10.0
 40
10.0
 40
10.0
 40
10.0
 10
9.578405296460883
 20
45.65770833137836
 10
9.481942559237956
 20
45.48476442392868
 10
9.326224140578088
 20
45.3932970784548
 10
9.168094153487646
 20
45.3932970784548
 10
8.859413394374277
 20
45.3932970784548
 10
8.661664783067277
 20
45.64788980276817
 10
8.661664783067277
 20
45.97155673712867
 10
8.661664783067277
 20
46.34207700099745
 10
8.896448195272367
 20
46.51760473176559
 10
9.131059352589558
 20
46.51760473176559
 10
9.281782379500381
 20
46.51760473176559
 10
9.44731932677044
 20
46.43354434647133
 10
9.551189024172984
 20
46.24337495023185
 10
9.551189024172984
 20
46.24337495023185
 10
9.55601216103413
 20
46.24337495023185
 10
9.55601216103413
 20
46.24337495023185
 10
9.640072546328396
 20
46.42613738629171
 10
9.800614101849412
 20
46.57686041320254
 10
10.03298594562393
 20
46.57686041320254
 10
10.36647140859462
 20
46.57686041320254
 10
10.58644090044047
 20
46.31486072870955
 10
10.58644090044047
 20
45.94434046484077
 10
10.58644090044047
 20
45.54660392868409
 10
10.34183895962519
 20
45.33404139701786
 10
10.07501613827106
 20
45.33404139701786
 10
9.845228117815015
 20
45.33404139701786
 10
9.679691170544956
 20
45.46995050356945
 10
9.5858122566405
 20
45.65770833137836
 10
9.5858122566405
 20
45.65770833137836
 10
9.578405296460883
 20
45.65770833137836
 10
9.578405296460883
 20
45.65770833137836
 97
        0
 92
        1
 93
        1
 72
     4
 94
        3
 73
     0
 74
     1
 95
       17
 96
       13
 40
0.0
 40
0.0
 40
0.0
 40
0.0
 40
1.0
 40
1.0
 40
1.0
 40
2.0
 40
2.0
 40
2.0
 40
3.0
 40
3.0
 40
3.0
 40
4.0
 40
4.0
 40
4.0
 40
4.0
 10
9.150868664697837
 20
45.73677332492358
 10
9.294184731429043
 20
45.73677332492358
 10
9.393059037082544
 20
45.84047076743823
 10
9.44731932677044
 20
45.9863706574879
 10
9.405289134123308
 20
46.09006810000255
 10
9.289189339679998
 20
46.17654005372739
 10
9.1632710166265
 20
46.17654005372739
 10
9.034768870254528
 20
46.17654005372739
 10
8.906266723882558
 20
46.11487280385987
 10
8.906266723882558
 20
45.95915438520001
 10
8.906266723882558
 20
45.79861282967899
 10
9.032357301823955
 20
45.73677332492358
 10
9.150868664697837
 20
45.73677332492358
 97
        0
 92
        1
 93
        1
 72
     4
 94
        3
 73
     0
 74
     1
 95
       17
 96
       13
 40
0.0
 40
0.0
 40
0.0
 40
0.0
 40
1.0
 40
1.0
 40
1.0
 40
2.0
 40
2.0
 40
2.0
 40
3.0
 40
3.0
 40
3.0
 40
4.0
 40
4.0
 40
4.0
 40
4.0
 10
10.0626137863424
 20
46.2111632861949
 10
9.879679095394632
 20
46.2111632861949
 10
9.763579300951323
 20
46.08765653157198
 10
9.709319011263426
 20
45.92453115273249
 10
9.76116773252075
 20
45.78379890931976
 10
9.892081447323294
 20
45.69973852402549
 10
10.04039290580354
 20
45.69973852402549
 10
10.19852289289399
 20
45.69973852402549
 10
10.33684356787615
 20
45.79602900636052
 10
10.33684356787615
 20
45.95415899345096
 10
10.33684356787615
 20
46.11969594072102
 10
10.20834142150418
 20
46.2111632861949
 10
10.0626137863424
 20
46.2111632861949
 97
        0
 75
     2
 76
     1
 98
        0
  0
SPLINE
  5
3C1
330
3AD
100
AcDbEntity
  8
\U+30EC\U+30A4\U+30E4\U+30FC 1
370
     0
100
AcDbSpline
210
0.0
220
0.0
230
1.0
 70
    11
 71
     3
 72
    47
 73
    43
 74
     0
 42
0.0000000001
 43
0.0000000001
 40
0.0
 40
0.0
 40
0.0
 40
0.0
 40
1.0
 40
1.0
 40
1.0
 40
2.0
 40
2.0
 40
2.0
 40
3.0
 40
3.0
 40
3.0
 40
4.0
 40
4.0
 40
4.0
 40
5.0
 40
5.0
 40
5.0
 40
6.0
 40
6.0
 40
6.0
 40
7.0
 40
7.0
 40
7.0
 40
8.0
 40
8.0
 40
8.0
 40
9.0
 40
9.0
 40
9.0
 40
10.0
 40
10.0
 40
10.0
 40
11.0
 40
11.0
 40
11.0
 40
12.0
 40
12.0
 40
12.0
 40
13.0
 40
13.0
 40
13.0
 40
14.0
 40
14.0
 40
14.0
 40
14.0
 10
8.688881055355175
 20
47.87066687620505
 30
0.0
 10
8.688881055355175
 20
47.87066687620505
 30
0.0
 10
8.990327109176823
 20
47.87066687620505
 30
0.0
 10
8.990327109176823
 20
47.87066687620505
 30
0.0
 10
8.990327109176823
 20
47.87066687620505
 30
0.0
 10
8.990327109176823
 20
47.23573535941271
 30
0.0
 10
8.990327109176823
 20
47.23573535941271
 30
0.0
 10
8.990327109176823
 20
47.23573535941271
 30
0.0
 10
9.356024236184455
 20
47.18629820658596
 30
0.0
 10
9.356024236184455
 20
47.18629820658596
 30
0.0
 10
9.351028844435412
 20
47.22092143905348
 30
0.0
 10
9.348617276004838
 20
47.25054927977195
 30
0.0
 10
9.348617276004838
 20
47.2901679039885
 30
0.0
 10
9.348617276004838
 20
47.61624640677958
 30
0.0
 10
9.531379712064705
 20
47.92268785235027
 30
0.0
 10
9.934111639970427
 20
47.92268785235027
 30
0.0
 10
10.29240180679844
 20
47.92268785235027
 30
0.0
 10
10.58644090044047
 20
47.64845807081652
 30
0.0
 10
10.58644090044047
 20
47.20851908712481
 30
0.0
 10
10.58644090044047
 20
47.02334508263437
 30
0.0
 10
10.53941531604429
 20
46.85522431204584
 30
0.0
 10
10.48997816321755
 20
46.76375696657196
 30
0.0
 10
10.48997816321755
 20
46.76375696657196
 30
0.0
 10
10.21333681325322
 20
46.83541499993756
 30
0.0
 10
10.21333681325322
 20
46.83541499993756
 30
0.0
 10
10.25278318258188
 20
46.90965685662164
 30
0.0
 10
10.29980876697806
 20
47.04556596317322
 30
0.0
 10
10.29980876697806
 20
47.18888202990443
 30
0.0
 10
10.29980876697806
 20
47.37905142614392
 30
0.0
 10
10.17871358078571
 20
47.55440690202417
 30
0.0
 10
9.963739480688897
 20
47.55440690202417
 30
0.0
 10
9.738946851981897
 20
47.55440690202417
 30
0.0
 10
9.6128562740405
 20
47.38886995475411
 30
0.0
 10
9.6128562740405
 20
47.07260998057323
 30
0.0
 10
9.6128562740405
 20
46.98872185016685
 30
0.0
 10
9.617851665789544
 20
46.92447077698088
 30
0.0
 10
9.625258625969161
 20
46.86263127222546
 30
0.0
 10
9.625258625969161
 20
46.86263127222546
 30
0.0
 10
8.688881055355175
 20
46.9763194982382
 30
0.0
 10
8.688881055355175
 20
46.9763194982382
 30
0.0
 10
8.688881055355175
 20
46.9763194982382
 30
0.0
 10
8.688881055355175
 20
47.87066687620505
 30
0.0
 10
8.688881055355175
 20
47.87066687620505
 30
0.0
  0
HATCH
  5
3C2
330
3AD
100
AcDbEntity
  8
\U+30EC\U+30A4\U+30E4\U+30FC 1
 62
     7
100
AcDbHatch
 10
0.0
 20
0.0
 30
0.0
210
0.0
220
0.0
230
1.0
  2
SOLID
 70
     1
 71
     0
 91
        1
 92
        1
 93
        1
 72
     4
 94
        3
 73
     0
 74
     1
 95
       47
 96
       43
 40
0.0
 40
0.0
 40
0.0
 40
0.0
 40
1.0
 40
1.0
 40
1.0
 40
2.0
 40
2.0
 40
2.0
 40
3.0
 40
3.0
 40
3.0
 40
4.0
 40
4.0
 40
4.0
 40
5.0
 40
5.0
 40
5.0
 40
6.0
 40
6.0
 40
6.0
 40
7.0
 40
7.0
 40
7.0
 40
8.0
 40
8.0
 40
8.0
 40
9.0
 40
9.0
 40
9.0
 40
10.0
 40
10.0
 40
10.0
 40
11.0
 40
11.0
 40
11.0
 40
12.0
 40
12.0
 40
12.0
 40
13.0
 40
13.0
 40
13.0
 40
14.0
 40
14.0
 40
14.0
 40
14.0
 10
8.688881055355175
 20
47.87066687620505
 10
8.688881055355175
 20
47.87066687620505
 10
8.990327109176823
 20
47.87066687620505
 10
8.990327109176823
 20
47.87066687620505
 10
8.990327109176823
 20
47.87066687620505
 10
8.990327109176823
 20
47.23573535941271
 10
8.990327109176823
 20
47.23573535941271
 10
8.990327109176823
 20
47.23573535941271
 10
9.356024236184455
 20
47.18629820658596
 10
9.356024236184455
 20
47.18629820658596
 10
9.351028844435412
 20
47.22092143905348
 10
9.348617276004838
 20
47.25054927977195
 10
9.348617276004838
 20
47.2901679039885
 10
9.348617276004838
 20
47.61624640677958
 10
9.531379712064705
 20
47.92268785235027
 10
9.934111639970427
 20
47.92268785235027
 10
10.29240180679844
 20
47.92268785235027
 10
10.58644090044047
 20
47.64845807081652
 10
10.58644090044047
 20
47.20851908712481
 10
10.58644090044047
 20
47.02334508263437
 10
10.53941531604429
 20
46.85522431204584
 10
10.48997816321755
 20
46.76375696657196
 10
10.48997816321755
 20
46.76375696657196
 10
10.21333681325322
 20
46.83541499993756
 10
10.21333681325322
 20
46.83541499993756
 10
10.25278318258188
 20
46.90965685662164
 10
10.29980876697806
 20
47.04556596317322
 10
10.29980876697806
 20
47.18888202990443
 10
10.29980876697806
 20
47.37905142614392
 10
10.17871358078571
 20
47.55440690202417
 10
9.963739480688897
 20
47.55440690202417
 10
9.738946851981897
 20
47.55440690202417
 10
9.6128562740405
 20
47.38886995475411
 10
9.6128562740405
 20
47.07260998057323
 10
9.6128562740405
 20
46.98872185016685
 10
9.617851665789544
 20
46.92447077698088
 10
9.625258625969161
 20
46.86263127222546
 10
9.625258625969161
 20
46.86263127222546
 10
8.688881055355175
 20
46.9763194982382
 10
8.688881055355175
 20
46.9763194982382
 10
8.688881055355175
 20
46.9763194982382
 10
8.688881055355175
 20
47.87066687620505
 10
8.688881055355175
 20
47.87066687620505
 97
        0
 75
     2
 76
     1
 98
        0
  0
ENDBLK
  5
3B0
330
3AD
100
AcDbEntity
  8
0
100
AcDbBlockEnd
  0
BLOCK
  5
3C5
330
3C3
100
AcDbEntity
  8
0
100
AcDbBlockBegin
  2
block 4
 70
     0
 71
     0
 10
0.0
 20
0.0
 30
0.0
  3
block 4
  1

  0
POLYLINE
  5
3C7
330
3C3
100
AcDbEntity
  8
\U+30EC\U+30A4\U+30E4\U+30FC 1
370
     0
100
AcDb2dPolyline
 66
     1
 10
0.0
 20
0.0
 30
0.0
  0
VERTEX
  5
3C8
330
3C7
100
AcDbEntity
  8
\U+30EC\U+30A4\U+30E4\U+30FC 1
370
     0
100
AcDbVertex
100
AcDb2dVertex
 10
14.37346461087986
 20
47.26501869035538
 30
0.0
  0
VERTEX
  5
3C9
330
3C7
100
AcDbEntity
  8
\U+30EC\U+30A4\U+30E4\U+30FC 1
370
     0
100
AcDbVertex
100
AcDb2dVertex
 10
12.831783364192
 20
47.26501869035538
 30
0.0
  0
VERTEX
  5
3CA
330
3C7
100
AcDbEntity
  8
\U+30EC\U+30A4\U+30E4\U+30FC 1
370
     0
100
AcDbVertex
100
AcDb2dVertex
 10
12.831783364192
 20
47.26019555349424
 30
0.0
  0
VERTEX
  5
3CB
330
3C7
100
AcDbEntity
  8
\U+30EC\U+30A4\U+30E4\U+30FC 1
370
     0
100
AcDbVertex
100
AcDb2dVertex
 10
12.99973187989264
 20
46.93894018756431
 30
0.0
  0
VERTEX
  5
3CC
330
3C7
100
AcDbEntity
  8
\U+30EC\U+30A4\U+30E4\U+30FC 1
370
     0
100
AcDbVertex
100
AcDb2dVertex
 10
12.73773219539965
 20
46.85987519401909
 30
0.0
  0
VERTEX
  5
3CD
330
3C7
100
AcDbEntity
  8
\U+30EC\U+30A4\U+30E4\U+30FC 1
370
     0
100
AcDbVertex
100
AcDb2dVertex
 10
12.50553260651303
 20
47.31445584318214
 30
0.0
  0
VERTEX
  5
3CE
330
3C7
100
AcDbEntity
  8
\U+30EC\U+30A4\U+30E4\U+30FC 1
370
     0
100
AcDbVertex
100
AcDb2dVertex
 10
12.50553260651303
 20
47.62089728875283
 30
0.0
  0
VERTEX
  5
3CF
330
3C7
100
AcDbEntity
  8
\U+30EC\U+30A4\U+30E4\U+30FC 1
370
     0
100
AcDbVertex
100
AcDb2dVertex
 10
14.37346461087986
 20
47.62089728875283
 30
0.0
  0
VERTEX
  5
3D0
330
3C7
100
AcDbEntity
  8
\U+30EC\U+30A4\U+30E4\U+30FC 1
370
     0
100
AcDbVertex
100
AcDb2dVertex
 10
14.37346461087986
 20
47.26501869035538
 30
0.0
  0
SEQEND
  5
3D1
330
3C7
100
AcDbEntity
  8
\U+30EC\U+30A4\U+30E4\U+30FC 1
370
     0
  0
HATCH
  5
3D2
330
3C3
100
AcDbEntity
  8
\U+30EC\U+30A4\U+30E4\U+30FC 1
 62
     7
100
AcDbHatch
 10
0.0
 20
0.0
 30
0.0
210
0.0
220
0.0
230
1.0
  2
SOLID
 70
     1
 71
     0
 91
        1
 92
        1
 93
        8
 72
     1
 10
14.37346461087986
 20
47.26501869035538
 11
12.831783364192
 21
47.26501869035538
 72
     1
 10
12.831783364192
 20
47.26501869035538
 11
12.831783364192
 21
47.26019555349424
 72
     1
 10
12.831783364192
 20
47.26019555349424
 11
12.99973187989264
 21
46.93894018756431
 72
     1
 10
12.99973187989264
 20
46.93894018756431
 11
12.73773219539965
 21
46.85987519401909
 72
     1
 10
12.73773219539965
 20
46.85987519401909
 11
12.50553260651303
 21
47.31445584318214
 72
     1
 10
12.50553260651303
 20
47.31445584318214
 11
12.50553260651303
 21
47.62089728875283
 72
     1
 10
12.50553260651303
 20
47.62089728875283
 11
14.37346461087986
 21
47.62089728875283
 72
     1
 10
14.37346461087986
 20
47.62089728875283
 11
14.37346461087986
 21
47.26501869035538
 97
        0
 75
     2
 76
     1
 98
        0
  0
SPLINE
  5
3D3
330
3C3
100
AcDbEntity
  8
\U+30EC\U+30A4\U+30E4\U+30FC 1
370
     0
100
AcDbSpline
210
0.0
220
0.0
230
1.0
 70
    11
 71
     3
 72
    17
 73
    13
 74
     0
 42
0.0000000001
 43
0.0000000001
 40
0.0
 40
0.0
 40
0.0
 40
0.0
 40
1.0
 40
1.0
 40
1.0
 40
2.0
 40
2.0
 40
2.0
 40
3.0
 40
3.0
 40
3.0
 40
4.0
 40
4.0
 40
4.0
 40
4.0
 10
13.44449400044549
 20
48.15127008859103
 30
0.0
 10
12.87622512526971
 20
48.15127008859103
 30
0.0
 10
12.47590476579456
 20
48.3612487969388
 30
0.0
 10
12.47590476579456
 20
48.78137846852222
 30
0.0
 10
12.47590476579456
 20
49.22114519732603
 30
0.0
 10
12.91067610284933
 20
49.39167753634514
 30
0.0
 10
13.42968008008625
 20
49.39167753634514
 30
0.0
 10
14.04738610808879
 20
49.39167753634514
 30
0.0
 10
14.40068088316776
 20
49.16188951588909
 30
0.0
 10
14.40068088316776
 20
48.76897611659356
 30
0.0
 10
14.40068088316776
 20
48.33403252465089
 30
0.0
 10
13.96573729122509
 20
48.15127008859103
 30
0.0
 10
13.44449400044549
 20
48.15127008859103
 30
0.0
  0
SPLINE
  5
3D4
330
3C3
100
AcDbEntity
  8
\U+30EC\U+30A4\U+30E4\U+30FC 1
370
     0
100
AcDbSpline
210
0.0
220
0.0
230
1.0
 70
    11
 71
     3
 72
    20
 73
    16
 74
     0
 42
0.0000000001
 43
0.0000000001
 40
0.0
 40
0.0
 40
0.0
 40
0.0
 40
1.0
 40
1.0
 40
1.0
 40
2.0
 40
2.0
 40
2.0
 40
3.0
 40
3.0
 40
3.0
 40
4.0
 40
4.0
 40
4.0
 40
5.0
 40
5.0
 40
5.0
 40
5.0
 10
14.11163718127477
 20
48.7739715083426
 30
0.0
 10
14.11163718127477
 20
48.94192002404323
 30
0.0
 10
13.87444220063911
 20
49.0259804093375
 30
0.0
 10
13.43708704026587
 20
49.0259804093375
 30
0.0
 10
13.01454580025187
 20
49.0259804093375
 30
0.0
 10
12.76494846768755
 20
48.94932698422286
 30
0.0
 10
12.76494846768755
 20
48.77638307677318
 30
0.0
 10
12.76494846768755
 20
48.61825308968274
 30
0.0
 10
12.99232491971302
 20
48.51696721559866
 30
0.0
 10
13.43708704026587
 20
48.51696721559866
 30
0.0
 10
13.87926533750025
 20
48.51696721559866
 30
0.0
 10
14.11163718127477
 20
48.60843456107254
 30
0.0
 10
14.11163718127477
 20
48.77138768502413
 30
0.0
 10
14.11163718127477
 20
48.77138768502413
 30
0.0
 10
14.11163718127477
 20
48.7739715083426
 30
0.0
 10
14.11163718127477
 20
48.7739715083426
 30
0.0
  0
HATCH
  5
3D5
330
3C3
100
AcDbEntity
  8
\U+30EC\U+30A4\U+30E4\U+30FC 1
 62
     7
100
AcDbHatch
 10
0.0
 20
0.0
 30
0.0
210
0.0
220
0.0
230
1.0
  2
SOLID
 70
     1
 71
     0
 91
        2
 92
        1
 93
        1
 72
     4
 94
        3
 73
     0
 74
     1
 95
       17
 96
       13
 40
0.0
 40
0.0
 40
0.0
 40
0.0
 40
1.0
 40
1.0
 40
1.0
 40
2.0
 40
2.0
 40
2.0
 40
3.0
 40
3.0
 40
3.0
 40
4.0
 40
4.0
 40
4.0
 40
4.0
 10
13.44449400044549
 20
48.15127008859103
 10
12.87622512526971
 20
48.15127008859103
 10
12.47590476579456
 20
48.3612487969388
 10
12.47590476579456
 20
48.78137846852222
 10
12.47590476579456
 20
49.22114519732603
 10
12.91067610284933
 20
49.39167753634514
 10
13.42968008008625
 20
49.39167753634514
 10
14.04738610808879
 20
49.39167753634514
 10
14.40068088316776
 20
49.16188951588909
 10
14.40068088316776
 20
48.76897611659356
 10
14.40068088316776
 20
48.33403252465089
 10
13.96573729122509
 20
48.15127008859103
 10
13.44449400044549
 20
48.15127008859103
 97
        0
 92
        1
 93
        1
 72
     4
 94
        3
 73
     0
 74
     1
 95
       20
 96
       16
 40
0.0
 40
0.0
 40
0.0
 40
0.0
 40
1.0
 40
1.0
 40
1.0
 40
2.0
 40
2.0
 40
2.0
 40
3.0
 40
3.0
 40
3.0
 40
4.0
 40
4.0
 40
4.0
 40
5.0
 40
5.0
 40
5.0
 40
5.0
 10
14.11163718127477
 20
48.7739715083426
 10
14.11163718127477
 20
48.94192002404323
 10
13.87444220063911
 20
49.0259804093375
 10
13.43708704026587
 20
49.0259804093375
 10
13.01454580025187
 20
49.0259804093375
 10
12.76494846768755
 20
48.94932698422286
 10
12.76494846768755
 20
48.77638307677318
 10
12.76494846768755
 20
48.61825308968274
 10
12.99232491971302
 20
48.51696721559866
 10
13.43708704026587
 20
48.51696721559866
 10
13.87926533750025
 20
48.51696721559866
 10
14.11163718127477
 20
48.60843456107254
 10
14.11163718127477
 20
48.77138768502413
 10
14.11163718127477
 20
48.77138768502413
 10
14.11163718127477
 20
48.7739715083426
 10
14.11163718127477
 20
48.7739715083426
 97
        0
 75
     2
 76
     1
 98
        0
  0
SPLINE
  5
3D6
330
3C3
100
AcDbEntity
  8
\U+30EC\U+30A4\U+30E4\U+30FC 1
370
     0
100
AcDbSpline
210
0.0
220
0.0
230
1.0
 70
    11
 71
     3
 72
    17
 73
    13
 74
     0
 42
0.0000000001
 43
0.0000000001
 40
0.0
 40
0.0
 40
0.0
 40
0.0
 40
1.0
 40
1.0
 40
1.0
 40
2.0
 40
2.0
 40
2.0
 40
3.0
 40
3.0
 40
3.0
 40
4.0
 40
4.0
 40
4.0
 40
4.0
 10
13.44449400044549
 20
49.56376016935532
 30
0.0
 10
12.87622512526971
 20
49.56376016935532
 30
0.0
 10
12.47590476579456
 20
49.77373887770309
 30
0.0
 10
12.47590476579456
 20
50.19386854928651
 30
0.0
 10
12.47590476579456
 20
50.63363527809032
 30
0.0
 10
12.91067610284933
 20
50.80416761710943
 30
0.0
 10
13.42968008008625
 20
50.80416761710943
 30
0.0
 10
14.04738610808879
 20
50.80416761710943
 30
0.0
 10
14.40068088316776
 20
50.57437959665338
 30
0.0
 10
14.40068088316776
 20
50.18146619735785
 30
0.0
 10
14.40068088316776
 20
49.74652260541519
 30
0.0
 10
13.96573729122509
 20
49.56376016935532
 30
0.0
 10
13.44449400044549
 20
49.56376016935532
 30
0.0
  0
SPLINE
  5
3D7
330
3C3
100
AcDbEntity
  8
\U+30EC\U+30A4\U+30E4\U+30FC 1
370
     0
100
AcDbSpline
210
0.0
220
0.0
230
1.0
 70
    11
 71
     3
 72
    20
 73
    16
 74
     0
 42
0.0000000001
 43
0.0000000001
 40
0.0
 40
0.0
 40
0.0
 40
0.0
 40
1.0
 40
1.0
 40
1.0
 40
2.0
 40
2.0
 40
2.0
 40
3.0
 40
3.0
 40
3.0
 40
4.0
 40
4.0
 40
4.0
 40
5.0
 40
5.0
 40
5.0
 40
5.0
 10
14.11163718127477
 20
50.1864615891069
 30
0.0
 10
14.11163718127477
 20
50.35441010480753
 30
0.0
 10
13.87444220063911
 20
50.43847049010179
 30
0.0
 10
13.43708704026587
 20
50.43847049010179
 30
0.0
 10
13.01454580025187
 20
50.43847049010179
 30
0.0
 10
12.76494846768755
 20
50.36181706498715
 30
0.0
 10
12.76494846768755
 20
50.18887315753747
 30
0.0
 10
12.76494846768755
 20
50.03074317044703
 30
0.0
 10
12.99232491971302
 20
49.92945729636295
 30
0.0
 10
13.43708704026587
 20
49.92945729636295
 30
0.0
 10
13.87926533750025
 20
49.92945729636295
 30
0.0
 10
14.11163718127477
 20
50.02092464183684
 30
0.0
 10
14.11163718127477
 20
50.18387776578842
 30
0.0
 10
14.11163718127477
 20
50.18387776578842
 30
0.0
 10
14.11163718127477
 20
50.1864615891069
 30
0.0
 10
14.11163718127477
 20
50.1864615891069
 30
0.0
  0
HATCH
  5
3D8
330
3C3
100
AcDbEntity
  8
\U+30EC\U+30A4\U+30E4\U+30FC 1
 62
     7
100
AcDbHatch
 10
0.0
 20
0.0
 30
0.0
210
0.0
220
0.0
230
1.0
  2
SOLID
 70
     1
 71
     0
 91
        2
 92
        1
 93
        1
 72
     4
 94
        3
 73
     0
 74
     1
 95
       17
 96
       13
 40
0.0
 40
0.0
 40
0.0
 40
0.0
 40
1.0
 40
1.0
 40
1.0
 40
2.0
 40
2.0
 40
2.0
 40
3.0
 40
3.0
 40
3.0
 40
4.0
 40
4.0
 40
4.0
 40
4.0
 10
13.44449400044549
 20
49.56376016935532
 10
12.87622512526971
 20
49.56376016935532
 10
12.47590476579456
 20
49.77373887770309
 10
12.47590476579456
 20
50.19386854928651
 10
12.47590476579456
 20
50.63363527809032
 10
12.91067610284933
 20
50.80416761710943
 10
13.42968008008625
 20
50.80416761710943
 10
14.04738610808879
 20
50.80416761710943
 10
14.40068088316776
 20
50.57437959665338
 10
14.40068088316776
 20
50.18146619735785
 10
14.40068088316776
 20
49.74652260541519
 10
13.96573729122509
 20
49.56376016935532
 10
13.44449400044549
 20
49.56376016935532
 97
        0
 92
        1
 93
        1
 72
     4
 94
        3
 73
     0
 74
     1
 95
       20
 96
       16
 40
0.0
 40
0.0
 40
0.0
 40
0.0
 40
1.0
 40
1.0
 40
1.0
 40
2.0
 40
2.0
 40
2.0
 40
3.0
 40
3.0
 40
3.0
 40
4.0
 40
4.0
 40
4.0
 40
5.0
 40
5.0
 40
5.0
 40
5.0
 10
14.11163718127477
 20
50.1864615891069
 10
14.11163718127477
 20
50.35441010480753
 10
13.87444220063911
 20
50.43847049010179
 10
13.43708704026587
 20
50.43847049010179
 10
13.01454580025187
 20
50.43847049010179
 10
12.76494846768755
 20
50.36181706498715
 10
12.76494846768755
 20
50.18887315753747
 10
12.76494846768755
 20
50.03074317044703
 10
12.99232491971302
 20
49.92945729636295
 10
13.43708704026587
 20
49.92945729636295
 10
13.87926533750025
 20
49.92945729636295
 10
14.11163718127477
 20
50.02092464183684
 10
14.11163718127477
 20
50.18387776578842
 10
14.11163718127477
 20
50.18387776578842
 10
14.11163718127477
 20
50.1864615891069
 10
14.11163718127477
 20
50.1864615891069
 97
        0
 75
     2
 76
     1
 98
        0
  0
ENDBLK
  5
3C6
330
3C3
100
AcDbEntity
  8
0
100
AcDbBlockEnd
  0
BLOCK
  5
3DB
330
3D9
100
AcDbEntity
  8
0
100
AcDbBlockBegin
  2
block 5
 70
     0
 71
     0
 10
0.0
 20
0.0
 30
0.0
  3
block 5
  1

  0
SPLINE
  5
3DD
330
3D9
100
AcDbEntity
  8
\U+30EC\U+30A4\U+30E4\U+30FC 1
370
     0
100
AcDbSpline
210
0.0
220
0.0
230
1.0
 70
    11
 71
     3
 72
    41
 73
    37
 74
     0
 42
0.0000000001
 43
0.0000000001
 40
0.0
 40
0.0
 40
0.0
 40
0.0
 40
1.0
 40
1.0
 40
1.0
 40
2.0
 40
2.0
 40
2.0
 40
3.0
 40
3.0
 40
3.0
 40
4.0
 40
4.0
 40
4.0
 40
5.0
 40
5.0
 40
5.0
 40
6.0
 40
6.0
 40
6.0
 40
7.0
 40
7.0
 40
7.0
 40
8.0
 40
8.0
 40
8.0
 40
9.0
 40
9.0
 40
9.0
 40
10.0
 40
10.0
 40
10.0
 40
11.0
 40
11.0
 40
11.0
 40
12.0
 40
12.0
 40
12.0
 40
12.0
 10
29.86400216977879
 20
56.91714907883664
 30
0.0
 10
29.9801019642221
 20
56.76401448349525
 30
0.0
 10
30.04934842915713
 20
56.57367283236787
 30
0.0
 10
30.04934842915713
 20
56.36627794733857
 30
0.0
 10
30.04934842915713
 20
55.86226014534878
 30
0.0
 10
29.63920954107179
 20
55.45194900237554
 30
0.0
 10
29.135191739082
 20
55.45194900237554
 30
0.0
 10
28.92762459916481
 20
55.45194900237554
 30
0.0
 10
28.73745520292532
 20
55.52119546731057
 30
0.0
 10
28.58414835269603
 20
55.63729526175388
 30
0.0
 10
28.58414835269603
 20
55.63729526175388
 30
0.0
 10
28.46305316650367
 20
55.51878389888
 30
0.0
 10
28.46305316650367
 20
55.51878389888
 30
0.0
 10
28.46305316650367
 20
55.51878389888
 30
0.0
 10
28.28769769062342
 20
55.69413937476025
 30
0.0
 10
28.28769769062342
 20
55.69413937476025
 30
0.0
 10
28.28769769062342
 20
55.69413937476025
 30
0.0
 10
28.40620905349731
 20
55.8152345609526
 30
0.0
 10
28.40620905349731
 20
55.8152345609526
 30
0.0
 10
28.290109259054
 20
55.968369156294
 30
0.0
 10
28.22103504900686
 20
56.15871080742138
 30
0.0
 10
28.22103504900686
 20
56.36627794733857
 30
0.0
 10
28.22103504900686
 20
56.87029574932837
 30
0.0
 10
28.6311739370922
 20
57.28043463741371
 30
0.0
 10
29.135191739082
 20
57.28043463741371
 30
0.0
 10
29.34275887899919
 20
57.28043463741371
 30
0.0
 10
29.53292827523867
 20
57.21118817247868
 30
0.0
 10
29.68623512546797
 20
57.09508837803537
 30
0.0
 10
29.68623512546797
 20
57.09508837803537
 30
0.0
 10
29.80715805677243
 20
57.21377199579715
 30
0.0
 10
29.80715805677243
 20
57.21377199579715
 30
0.0
 10
29.80715805677243
 20
57.21377199579715
 30
0.0
 10
29.98268578754058
 20
57.038244265029
 30
0.0
 10
29.98268578754058
 20
57.038244265029
 30
0.0
 10
29.98268578754058
 20
57.038244265029
 30
0.0
 10
29.86400216977879
 20
56.91714907883664
 30
0.0
 10
29.86400216977879
 20
56.91714907883664
 30
0.0
  0
SPLINE
  5
3DE
330
3D9
100
AcDbEntity
  8
\U+30EC\U+30A4\U+30E4\U+30FC 1
370
     0
100
AcDbSpline
210
0.0
220
0.0
230
1.0
 70
    11
 71
     3
 72
    17
 73
    13
 74
     0
 42
0.0000000001
 43
0.0000000001
 40
0.0
 40
0.0
 40
0.0
 40
0.0
 40
1.0
 40
1.0
 40
1.0
 40
2.0
 40
2.0
 40
2.0
 40
3.0
 40
3.0
 40
3.0
 40
4.0
 40
4.0
 40
4.0
 40
4.0
 10
29.50571200295078
 20
56.9123259419755
 30
0.0
 10
29.39960299200556
 20
56.98639554377168
 30
0.0
 10
29.27351241406416
 20
57.02842573641881
 30
0.0
 10
29.135191739082
 20
57.02842573641881
 30
0.0
 10
28.76949461207436
 20
57.02842573641881
 30
0.0
 10
28.47304395000176
 20
56.73180281945831
 30
0.0
 10
28.47304395000176
 20
56.36627794733857
 30
0.0
 10
28.47304395000176
 20
56.23036884078699
 30
0.0
 10
28.51249031933042
 20
56.10686208616406
 30
0.0
 10
28.58914374444507
 20
55.9955854285819
 30
0.0
 10
28.58914374444507
 20
55.9955854285819
 30
0.0
 10
29.50571200295078
 20
56.9123259419755
 30
0.0
 10
29.50571200295078
 20
56.9123259419755
 30
0.0
  0
SPLINE
  5
3DF
330
3D9
100
AcDbEntity
  8
\U+30EC\U+30A4\U+30E4\U+30FC 1
370
     0
100
AcDbSpline
210
0.0
220
0.0
230
1.0
 70
    11
 71
     3
 72
    17
 73
    13
 74
     0
 42
0.0000000001
 43
0.0000000001
 40
0.0
 40
0.0
 40
0.0
 40
0.0
 40
1.0
 40
1.0
 40
1.0
 40
2.0
 40
2.0
 40
2.0
 40
3.0
 40
3.0
 40
3.0
 40
4.0
 40
4.0
 40
4.0
 40
4.0
 10
28.76449922032532
 20
55.82022995270165
 30
0.0
 10
28.87078048615844
 20
55.74598809601757
 30
0.0
 10
28.99687106409984
 20
55.70413015825834
 30
0.0
 10
29.135191739082
 20
55.70413015825834
 30
0.0
 10
29.50571200295078
 20
55.70413015825834
 30
0.0
 10
29.79733952816224
 20
56.00540395719209
 30
0.0
 10
29.79733952816224
 20
56.36627794733857
 30
0.0
 10
29.79733952816224
 20
56.50459862232074
 30
0.0
 10
29.7553093355151
 20
56.63051694537423
 30
0.0
 10
29.68123973371893
 20
56.73679821120735
 30
0.0
 10
29.68123973371893
 20
56.73679821120735
 30
0.0
 10
28.76449922032532
 20
55.82022995270165
 30
0.0
 10
28.76449922032532
 20
55.82022995270165
 30
0.0
  0
HATCH
  5
3E0
330
3D9
100
AcDbEntity
  8
\U+30EC\U+30A4\U+30E4\U+30FC 1
 62
     7
100
AcDbHatch
 10
0.0
 20
0.0
 30
0.0
210
0.0
220
0.0
230
1.0
  2
SOLID
 70
     1
 71
     0
 91
        3
 92
        1
 93
        1
 72
     4
 94
        3
 73
     0
 74
     1
 95
       41
 96
       37
 40
0.0
 40
0.0
 40
0.0
 40
0.0
 40
1.0
 40
1.0
 40
1.0
 40
2.0
 40
2.0
 40
2.0
 40
3.0
 40
3.0
 40
3.0
 40
4.0
 40
4.0
 40
4.0
 40
5.0
 40
5.0
 40
5.0
 40
6.0
 40
6.0
 40
6.0
 40
7.0
 40
7.0
 40
7.0
 40
8.0
 40
8.0
 40
8.0
 40
9.0
 40
9.0
 40
9.0
 40
10.0
 40
10.0
 40
10.0
 40
11.0
 40
11.0
 40
11.0
 40
12.0
 40
12.0
 40
12.0
 40
12.0
 10
29.86400216977879
 20
56.91714907883664
 10
29.9801019642221
 20
56.76401448349525
 10
30.04934842915713
 20
56.57367283236787
 10
30.04934842915713
 20
56.36627794733857
 10
30.04934842915713
 20
55.86226014534878
 10
29.63920954107179
 20
55.45194900237554
 10
29.135191739082
 20
55.45194900237554
 10
28.92762459916481
 20
55.45194900237554
 10
28.73745520292532
 20
55.52119546731057
 10
28.58414835269603
 20
55.63729526175388
 10
28.58414835269603
 20
55.63729526175388
 10
28.46305316650367
 20
55.51878389888
 10
28.46305316650367
 20
55.51878389888
 10
28.46305316650367
 20
55.51878389888
 10
28.28769769062342
 20
55.69413937476025
 10
28.28769769062342
 20
55.69413937476025
 10
28.28769769062342
 20
55.69413937476025
 10
28.40620905349731
 20
55.8152345609526
 10
28.40620905349731
 20
55.8152345609526
 10
28.290109259054
 20
55.968369156294
 10
28.22103504900686
 20
56.15871080742138
 10
28.22103504900686
 20
56.36627794733857
 10
28.22103504900686
 20
56.87029574932837
 10
28.6311739370922
 20
57.28043463741371
 10
29.135191739082
 20
57.28043463741371
 10
29.34275887899919
 20
57.28043463741371
 10
29.53292827523867
 20
57.21118817247868
 10
29.68623512546797
 20
57.09508837803537
 10
29.68623512546797
 20
57.09508837803537
 10
29.80715805677243
 20
57.21377199579715
 10
29.80715805677243
 20
57.21377199579715
 10
29.80715805677243
 20
57.21377199579715
 10
29.98268578754058
 20
57.038244265029
 10
29.98268578754058
 20
57.038244265029
 10
29.98268578754058
 20
57.038244265029
 10
29.86400216977879
 20
56.91714907883664
 10
29.86400216977879
 20
56.91714907883664
 97
        0
 92
        1
 93
        1
 72
     4
 94
        3
 73
     0
 74
     1
 95
       17
 96
       13
 40
0.0
 40
0.0
 40
0.0
 40
0.0
 40
1.0
 40
1.0
 40
1.0
 40
2.0
 40
2.0
 40
2.0
 40
3.0
 40
3.0
 40
3.0
 40
4.0
 40
4.0
 40
4.0
 40
4.0
 10
29.50571200295078
 20
56.9123259419755
 10
29.39960299200556
 20
56.98639554377168
 10
29.27351241406416
 20
57.02842573641881
 10
29.135191739082
 20
57.02842573641881
 10
28.76949461207436
 20
57.02842573641881
 10
28.47304395000176
 20
56.73180281945831
 10
28.47304395000176
 20
56.36627794733857
 10
28.47304395000176
 20
56.23036884078699
 10
28.51249031933042
 20
56.10686208616406
 10
28.58914374444507
 20
55.9955854285819
 10
28.58914374444507
 20
55.9955854285819
 10
29.50571200295078
 20
56.9123259419755
 10
29.50571200295078
 20
56.9123259419755
 97
        0
 92
        1
 93
        1
 72
     4
 94
        3
 73
     0
 74
     1
 95
       17
 96
       13
 40
0.0
 40
0.0
 40
0.0
 40
0.0
 40
1.0
 40
1.0
 40
1.0
 40
2.0
 40
2.0
 40
2.0
 40
3.0
 40
3.0
 40
3.0
 40
4.0
 40
4.0
 40
4.0
 40
4.0
 10
28.76449922032532
 20
55.82022995270165
 10
28.87078048615844
 20
55.74598809601757
 10
28.99687106409984
 20
55.70413015825834
 10
29.135191739082
 20
55.70413015825834
 10
29.50571200295078
 20
55.70413015825834
 10
29.79733952816224
 20
56.00540395719209
 10
29.79733952816224
 20
56.36627794733857
 10
29.79733952816224
 20
56.50459862232074
 10
29.7553093355151
 20
56.63051694537423
 10
29.68123973371893
 20
56.73679821120735
 10
29.68123973371893
 20
56.73679821120735
 10
28.76449922032532
 20
55.82022995270165
 10
28.76449922032532
 20
55.82022995270165
 97
        0
 75
     2
 76
     1
 98
        0
  0
POLYLINE
  5
3E1
330
3D9
100
AcDbEntity
  8
\U+30EC\U+30A4\U+30E4\U+30FC 1
370
     0
100
AcDb2dPolyline
 66
     1
 10
0.0
 20
0.0
 30
0.0
  0
VERTEX
  5
3E2
330
3E1
100
AcDbEntity
  8
\U+30EC\U+30A4\U+30E4\U+30FC 1
370
     0
100
AcDbVertex
100
AcDb2dVertex
 10
31.51575428983353
 20
55.42731655340611
 30
0.0
  0
VERTEX
  5
3E3
330
3E1
100
AcDbEntity
  8
\U+30EC\U+30A4\U+30E4\U+30FC 1
370
     0
100
AcDbVertex
100
AcDb2dVertex
 10
31.17710118022589
 20
55.42731655340611
 30
0.0
  0
VERTEX
  5
3E4
330
3E1
100
AcDbEntity
  8
\U+30EC\U+30A4\U+30E4\U+30FC 1
370
     0
100
AcDbVertex
100
AcDb2dVertex
 10
31.17710118022589
 20
55.88930416274878
 30
0.0
  0
VERTEX
  5
3E5
330
3E1
100
AcDbEntity
  8
\U+30EC\U+30A4\U+30E4\U+30FC 1
370
     0
100
AcDbVertex
100
AcDb2dVertex
 10
30.42365830055967
 20
55.88930416274878
 30
0.0
  0
VERTEX
  5
3E6
330
3E1
100
AcDbEntity
  8
\U+30EC\U+30A4\U+30E4\U+30FC 1
370
     0
100
AcDbVertex
100
AcDb2dVertex
 10
30.42365830055967
 20
56.12649914338444
 30
0.0
  0
VERTEX
  5
3E7
330
3E1
100
AcDbEntity
  8
\U+30EC\U+30A4\U+30E4\U+30FC 1
370
     0
100
AcDbVertex
100
AcDb2dVertex
 10
31.10303157842971
 20
57.29524855777294
 30
0.0
  0
VERTEX
  5
3E8
330
3E1
100
AcDbEntity
  8
\U+30EC\U+30A4\U+30E4\U+30FC 1
370
     0
100
AcDbVertex
100
AcDb2dVertex
 10
31.51575428983353
 20
57.29524855777294
 30
0.0
  0
VERTEX
  5
3E9
330
3E1
100
AcDbEntity
  8
\U+30EC\U+30A4\U+30E4\U+30FC 1
370
     0
100
AcDbVertex
100
AcDb2dVertex
 10
31.51575428983353
 20
56.166117767601
 30
0.0
  0
VERTEX
  5
3EA
330
3E1
100
AcDbEntity
  8
\U+30EC\U+30A4\U+30E4\U+30FC 1
370
     0
100
AcDbVertex
100
AcDb2dVertex
 10
31.73072838993033
 20
56.166117767601
 30
0.0
  0
VERTEX
  5
3EB
330
3E1
100
AcDbEntity
  8
\U+30EC\U+30A4\U+30E4\U+30FC 1
370
     0
100
AcDbVertex
100
AcDb2dVertex
 10
31.73072838993033
 20
55.88930416274878
 30
0.0
  0
VERTEX
  5
3EC
330
3E1
100
AcDbEntity
  8
\U+30EC\U+30A4\U+30E4\U+30FC 1
370
     0
100
AcDbVertex
100
AcDb2dVertex
 10
31.51575428983353
 20
55.88930416274878
 30
0.0
  0
VERTEX
  5
3ED
330
3E1
100
AcDbEntity
  8
\U+30EC\U+30A4\U+30E4\U+30FC 1
370
     0
100
AcDbVertex
100
AcDb2dVertex
 10
31.51575428983353
 20
55.42731655340611
 30
0.0
  0
SEQEND
  5
3EE
330
3E1
100
AcDbEntity
  8
\U+30EC\U+30A4\U+30E4\U+30FC 1
370
     0
  0
SPLINE
  5
3EF
330
3D9
100
AcDbEntity
  8
\U+30EC\U+30A4\U+30E4\U+30FC 1
370
     0
100
AcDbSpline
210
0.0
220
0.0
230
1.0
 70
    11
 71
     3
 72
    26
 73
    22
 74
     0
 42
0.0000000001
 43
0.0000000001
 40
0.0
 40
0.0
 40
0.0
 40
0.0
 40
1.0
 40
1.0
 40
1.0
 40
2.0
 40
2.0
 40
2.0
 40
3.0
 40
3.0
 40
3.0
 40
4.0
 40
4.0
 40
4.0
 40
5.0
 40
5.0
 40
5.0
 40
6.0
 40
6.0
 40
6.0
 40
7.0
 40
7.0
 40
7.0
 40
7.0
 10
30.74956454846285
 20
56.166117767601
 30
0.0
 10
30.74956454846285
 20
56.166117767601
 30
0.0
 10
31.17710118022589
 20
56.166117767601
 30
0.0
 10
31.17710118022589
 20
56.166117767601
 30
0.0
 10
31.17710118022589
 20
56.166117767601
 30
0.0
 10
31.17710118022589
 20
56.63051694537423
 30
0.0
 10
31.17710118022589
 20
56.63051694537423
 30
0.0
 10
31.17710118022589
 20
56.73938203452582
 30
0.0
 10
31.18433588551761
 20
56.85789339739971
 30
0.0
 10
31.19191510058513
 20
56.96917005498187
 30
0.0
 10
31.19191510058513
 20
56.96917005498187
 30
0.0
 10
31.18226882686283
 20
56.96917005498187
 30
0.0
 10
31.18226882686283
 20
56.96917005498187
 30
0.0
 10
31.12508020408067
 20
56.85048643722009
 30
0.0
 10
31.08098295277876
 20
56.74678899470544
 30
0.0
 10
31.0237943299966
 20
56.64050772887232
 30
0.0
 10
31.0237943299966
 20
56.64050772887232
 30
0.0
 10
30.74956454846285
 20
56.17094090446214
 30
0.0
 10
30.74956454846285
 20
56.17094090446214
 30
0.0
 10
30.74956454846285
 20
56.17094090446214
 30
0.0
 10
30.74956454846285
 20
56.166117767601
 30
0.0
 10
30.74956454846285
 20
56.166117767601
 30
0.0
  0
HATCH
  5
3F0
330
3D9
100
AcDbEntity
  8
\U+30EC\U+30A4\U+30E4\U+30FC 1
 62
     7
100
AcDbHatch
 10
0.0
 20
0.0
 30
0.0
210
0.0
220
0.0
230
1.0
  2
SOLID
 70
     1
 71
     0
 91
        2
 92
        1
 93
       11
 72
     1
 10
31.51575428983353
 20
55.42731655340611
 11
31.17710118022589
 21
55.42731655340611
 72
     1
 10
31.17710118022589
 20
55.42731655340611
 11
31.17710118022589
 21
55.88930416274878
 72
     1
 10
31.17710118022589
 20
55.88930416274878
 11
30.42365830055967
 21
55.88930416274878
 72
     1
 10
30.42365830055967
 20
55.88930416274878
 11
30.42365830055967
 21
56.12649914338444
 72
     1
 10
30.42365830055967
 20
56.12649914338444
 11
31.10303157842971
 21
57.29524855777294
 72
     1
 10
31.10303157842971
 20
57.29524855777294
 11
31.51575428983353
 21
57.29524855777294
 72
     1
 10
31.51575428983353
 20
57.29524855777294
 11
31.51575428983353
 21
56.166117767601
 72
     1
 10
31.51575428983353
 20
56.166117767601
 11
31.73072838993033
 21
56.166117767601
 72
     1
 10
31.73072838993033
 20
56.166117767601
 11
31.73072838993033
 21
55.88930416274878
 72
     1
 10
31.73072838993033
 20
55.88930416274878
 11
31.51575428983353
 21
55.88930416274878
 72
     1
 10
31.51575428983353
 20
55.88930416274878
 11
31.51575428983353
 21
55.42731655340611
 97
        0
 92
        1
 93
        1
 72
     4
 94
        3
 73
     0
 74
     1
 95
       26
 96
       22
 40
0.0
 40
0.0
 40
0.0
 40
0.0
 40
1.0
 40
1.0
 40
1.0
 40
2.0
 40
2.0
 40
2.0
 40
3.0
 40
3.0
 40
3.0
 40
4.0
 40
4.0
 40
4.0
 40
5.0
 40
5.0
 40
5.0
 40
6.0
 40
6.0
 40
6.0
 40
7.0
 40
7.0
 40
7.0
 40
7.0
 10
30.74956454846285
 20
56.166117767601
 10
30.74956454846285
 20
56.166117767601
 10
31.17710118022589
 20
56.166117767601
 10
31.17710118022589
 20
56.166117767601
 10
31.17710118022589
 20
56.166117767601
 10
31.17710118022589
 20
56.63051694537423
 10
31.17710118022589
 20
56.63051694537423
 10
31.17710118022589
 20
56.73938203452582
 10
31.18433588551761
 20
56.85789339739971
 10
31.19191510058513
 20
56.96917005498187
 10
31.19191510058513
 20
56.96917005498187
 10
31.18226882686283
 20
56.96917005498187
 10
31.18226882686283
 20
56.96917005498187
 10
31.12508020408067
 20
56.85048643722009
 10
31.08098295277876
 20
56.74678899470544
 10
31.0237943299966
 20
56.64050772887232
 10
31.0237943299966
 20
56.64050772887232
 10
30.74956454846285
 20
56.17094090446214
 10
30.74956454846285
 20
56.17094090446214
 10
30.74956454846285
 20
56.17094090446214
 10
30.74956454846285
 20
56.166117767601
 10
30.74956454846285
 20
56.166117767601
 97
        0
 75
     2
 76
     1
 98
        0
  0
SPLINE
  5
3F1
330
3D9
100
AcDbEntity
  8
\U+30EC\U+30A4\U+30E4\U+30FC 1
370
     0
100
AcDbSpline
210
0.0
220
0.0
230
1.0
 70
    11
 71
     3
 72
    17
 73
    13
 74
     0
 42
0.0000000001
 43
0.0000000001
 40
0.0
 40
0.0
 40
0.0
 40
0.0
 40
1.0
 40
1.0
 40
1.0
 40
2.0
 40
2.0
 40
2.0
 40
3.0
 40
3.0
 40
3.0
 40
4.0
 40
4.0
 40
4.0
 40
4.0
 10
31.86818779047301
 20
56.35628716384048
 30
0.0
 10
31.86818779047301
 20
56.92455603901627
 30
0.0
 10
32.07799424393287
 20
57.32487639849141
 30
0.0
 10
32.4982961704042
 20
57.32487639849141
 30
0.0
 10
32.93789064432011
 20
57.32487639849141
 30
0.0
 10
33.10876749311501
 20
56.88993280654875
 30
0.0
 10
33.10876749311501
 20
56.37110108419972
 30
0.0
 10
33.10876749311501
 20
55.75339505619719
 30
0.0
 10
32.87863496288317
 20
55.40010028111822
 30
0.0
 10
32.48589381847554
 20
55.40010028111822
 30
0.0
 10
32.05112248142077
 20
55.40010028111822
 30
0.0
 10
31.86818779047301
 20
55.83504387306088
 30
0.0
 10
31.86818779047301
 20
56.35628716384048
 30
0.0
  0
SPLINE
  5
3F2
330
3D9
100
AcDbEntity
  8
\U+30EC\U+30A4\U+30E4\U+30FC 1
370
     0
100
AcDbSpline
210
0.0
220
0.0
230
1.0
 70
    11
 71
     3
 72
    20
 73
    16
 74
     0
 42
0.0000000001
 43
0.0000000001
 40
0.0
 40
0.0
 40
0.0
 40
0.0
 40
1.0
 40
1.0
 40
1.0
 40
2.0
 40
2.0
 40
2.0
 40
3.0
 40
3.0
 40
3.0
 40
4.0
 40
4.0
 40
4.0
 40
5.0
 40
5.0
 40
5.0
 40
5.0
 10
32.49071695533669
 20
55.68914398301121
 30
0.0
 10
32.65883772592522
 20
55.68914398301121
 30
0.0
 10
32.74289811121948
 20
55.92633896364686
 30
0.0
 10
32.74289811121948
 20
56.3636941240201
 30
0.0
 10
32.74289811121948
 20
56.78623536403411
 30
0.0
 10
32.66641694099273
 20
57.03583269659843
 30
0.0
 10
32.49347303354305
 20
57.03583269659843
 30
0.0
 10
32.33499853667681
 20
57.03583269659843
 30
0.0
 10
32.23371266259274
 20
56.80845624457296
 30
0.0
 10
32.23371266259274
 20
56.3636941240201
 30
0.0
 10
32.23371266259274
 20
55.92151582678572
 30
0.0
 10
32.32535226295452
 20
55.68914398301121
 30
0.0
 10
32.48830538690611
 20
55.68914398301121
 30
0.0
 10
32.48830538690611
 20
55.68914398301121
 30
0.0
 10
32.49071695533669
 20
55.68914398301121
 30
0.0
 10
32.49071695533669
 20
55.68914398301121
 30
0.0
  0
HATCH
  5
3F3
330
3D9
100
AcDbEntity
  8
\U+30EC\U+30A4\U+30E4\U+30FC 1
 62
     7
100
AcDbHatch
 10
0.0
 20
0.0
 30
0.0
210
0.0
220
0.0
230
1.0
  2
SOLID
 70
     1
 71
     0
 91
        2
 92
        1
 93
        1
 72
     4
 94
        3
 73
     0
 74
     1
 95
       17
 96
       13
 40
0.0
 40
0.0
 40
0.0
 40
0.0
 40
1.0
 40
1.0
 40
1.0
 40
2.0
 40
2.0
 40
2.0
 40
3.0
 40
3.0
 40
3.0
 40
4.0
 40
4.0
 40
4.0
 40
4.0
 10
31.86818779047301
 20
56.35628716384048
 10
31.86818779047301
 20
56.92455603901627
 10
32.07799424393287
 20
57.32487639849141
 10
32.4982961704042
 20
57.32487639849141
 10
32.93789064432011
 20
57.32487639849141
 10
33.10876749311501
 20
56.88993280654875
 10
33.10876749311501
 20
56.37110108419972
 10
33.10876749311501
 20
55.75339505619719
 10
32.87863496288317
 20
55.40010028111822
 10
32.48589381847554
 20
55.40010028111822
 10
32.05112248142077
 20
55.40010028111822
 10
31.86818779047301
 20
55.83504387306088
 10
31.86818779047301
 20
56.35628716384048
 97
        0
 92
        1
 93
        1
 72
     4
 94
        3
 73
     0
 74
     1
 95
       20
 96
       16
 40
0.0
 40
0.0
 40
0.0
 40
0.0
 40
1.0
 40
1.0
 40
1.0
 40
2.0
 40
2.0
 40
2.0
 40
3.0
 40
3.0
 40
3.0
 40
4.0
 40
4.0
 40
4.0
 40
5.0
 40
5.0
 40
5.0
 40
5.0
 10
32.49071695533669
 20
55.68914398301121
 10
32.65883772592522
 20
55.68914398301121
 10
32.74289811121948
 20
55.92633896364686
 10
32.74289811121948
 20
56.3636941240201
 10
32.74289811121948
 20
56.78623536403411
 10
32.66641694099273
 20
57.03583269659843
 10
32.49347303354305
 20
57.03583269659843
 10
32.33499853667681
 20
57.03583269659843
 10
32.23371266259274
 20
56.80845624457296
 10
32.23371266259274
 20
56.3636941240201
 10
32.23371266259274
 20
55.92151582678572
 10
32.32535226295452
 20
55.68914398301121
 10
32.48830538690611
 20
55.68914398301121
 10
32.48830538690611
 20
55.68914398301121
 10
32.49071695533669
 20
55.68914398301121
 10
32.49071695533669
 20
55.68914398301121
 97
        0
 75
     2
 76
     1
 98
        0
  0
SPLINE
  5
3F4
330
3D9
100
AcDbEntity
  8
\U+30EC\U+30A4\U+30E4\U+30FC 1
370
     0
100
AcDbSpline
210
0.0
220
0.0
230
1.0
 70
    11
 71
     3
 72
    17
 73
    13
 74
     0
 42
0.0000000001
 43
0.0000000001
 40
0.0
 40
0.0
 40
0.0
 40
0.0
 40
1.0
 40
1.0
 40
1.0
 40
2.0
 40
2.0
 40
2.0
 40
3.0
 40
3.0
 40
3.0
 40
4.0
 40
4.0
 40
4.0
 40
4.0
 10
33.28102238101309
 20
56.35628716384048
 30
0.0
 10
33.28102238101309
 20
56.92455603901627
 30
0.0
 10
33.49117334424876
 20
57.32487639849141
 30
0.0
 10
33.91078625116849
 20
57.32487639849141
 30
0.0
 10
34.35038072508441
 20
57.32487639849141
 30
0.0
 10
34.5212575738793
 20
56.88993280654875
 30
0.0
 10
34.5212575738793
 20
56.37110108419972
 30
0.0
 10
34.5212575738793
 20
55.75339505619719
 30
0.0
 10
34.29112504364746
 20
55.40010028111822
 30
0.0
 10
33.89838389923983
 20
55.40010028111822
 30
0.0
 10
33.46361256218506
 20
55.40010028111822
 30
0.0
 10
33.28102238101309
 20
55.83504387306088
 30
0.0
 10
33.28102238101309
 20
56.35628716384048
 30
0.0
  0
SPLINE
  5
3F5
330
3D9
100
AcDbEntity
  8
\U+30EC\U+30A4\U+30E4\U+30FC 1
370
     0
100
AcDbSpline
210
0.0
220
0.0
230
1.0
 70
    11
 71
     3
 72
    20
 73
    16
 74
     0
 42
0.0000000001
 43
0.0000000001
 40
0.0
 40
0.0
 40
0.0
 40
0.0
 40
1.0
 40
1.0
 40
1.0
 40
2.0
 40
2.0
 40
2.0
 40
3.0
 40
3.0
 40
3.0
 40
4.0
 40
4.0
 40
4.0
 40
5.0
 40
5.0
 40
5.0
 40
5.0
 10
33.90320703610097
 20
55.68914398301121
 30
0.0
 10
34.07132780668951
 20
55.68914398301121
 30
0.0
 10
34.15538819198377
 20
55.92633896364686
 30
0.0
 10
34.15538819198377
 20
56.3636941240201
 30
0.0
 10
34.15538819198377
 20
56.78623536403411
 30
0.0
 10
34.07890702175703
 20
57.03583269659843
 30
0.0
 10
33.90596311430735
 20
57.03583269659843
 30
0.0
 10
33.74748861744111
 20
57.03583269659843
 30
0.0
 10
33.64620274335704
 20
56.80845624457296
 30
0.0
 10
33.64620274335704
 20
56.3636941240201
 30
0.0
 10
33.64620274335704
 20
55.92151582678572
 30
0.0
 10
33.73784234371882
 20
55.68914398301121
 30
0.0
 10
33.9011399774462
 20
55.68914398301121
 30
0.0
 10
33.9011399774462
 20
55.68914398301121
 30
0.0
 10
33.90320703610097
 20
55.68914398301121
 30
0.0
 10
33.90320703610097
 20
55.68914398301121
 30
0.0
  0
HATCH
  5
3F6
330
3D9
100
AcDbEntity
  8
\U+30EC\U+30A4\U+30E4\U+30FC 1
 62
     7
100
AcDbHatch
 10
0.0
 20
0.0
 30
0.0
210
0.0
220
0.0
230
1.0
  2
SOLID
 70
     1
 71
     0
 91
        2
 92
        1
 93
        1
 72
     4
 94
        3
 73
     0
 74
     1
 95
       17
 96
       13
 40
0.0
 40
0.0
 40
0.0
 40
0.0
 40
1.0
 40
1.0
 40
1.0
 40
2.0
 40
2.0
 40
2.0
 40
3.0
 40
3.0
 40
3.0
 40
4.0
 40
4.0
 40
4.0
 40
4.0
 10
33.28102238101309
 20
56.35628716384048
 10
33.28102238101309
 20
56.92455603901627
 10
33.49117334424876
 20
57.32487639849141
 10
33.91078625116849
 20
57.32487639849141
 10
34.35038072508441
 20
57.32487639849141
 10
34.5212575738793
 20
56.88993280654875
 10
34.5212575738793
 20
56.37110108419972
 10
34.5212575738793
 20
55.75339505619719
 10
34.29112504364746
 20
55.40010028111822
 10
33.89838389923983
 20
55.40010028111822
 10
33.46361256218506
 20
55.40010028111822
 10
33.28102238101309
 20
55.83504387306088
 10
33.28102238101309
 20
56.35628716384048
 97
        0
 92
        1
 93
        1
 72
     4
 94
        3
 73
     0
 74
     1
 95
       20
 96
       16
 40
0.0
 40
0.0
 40
0.0
 40
0.0
 40
1.0
 40
1.0
 40
1.0
 40
2.0
 40
2.0
 40
2.0
 40
3.0
 40
3.0
 40
3.0
 40
4.0
 40
4.0
 40
4.0
 40
5.0
 40
5.0
 40
5.0
 40
5.0
 10
33.90320703610097
 20
55.68914398301121
 10
34.07132780668951
 20
55.68914398301121
 10
34.15538819198377
 20
55.92633896364686
 10
34.15538819198377
 20
56.3636941240201
 10
34.15538819198377
 20
56.78623536403411
 10
34.07890702175703
 20
57.03583269659843
 10
33.90596311430735
 20
57.03583269659843
 10
33.74748861744111
 20
57.03583269659843
 10
33.64620274335704
 20
56.80845624457296
 10
33.64620274335704
 20
56.3636941240201
 10
33.64620274335704
 20
55.92151582678572
 10
33.73784234371882
 20
55.68914398301121
 10
33.9011399774462
 20
55.68914398301121
 10
33.9011399774462
 20
55.68914398301121
 10
33.90320703610097
 20
55.68914398301121
 10
33.90320703610097
 20
55.68914398301121
 97
        0
 75
     2
 76
     1
 98
        0
  0
ENDBLK
  5
3DC
330
3D9
100
AcDbEntity
  8
0
100
AcDbBlockEnd
  0
BLOCK
  5
3F9
330
3F7
100
AcDbEntity
  8
0
100
AcDbBlockBegin
  2
block 6
 70
     0
 71
     0
 10
0.0
 20
0.0
 30
0.0
  3
block 6
  1

  0
POLYLINE
  5
3FB
330
3F7
100
AcDbEntity
  8
\U+30EC\U+30A4\U+30E4\U+30FC 1
370
     0
100
AcDb2dPolyline
 66
     1
 10
0.0
 20
0.0
 30
0.0
  0
VERTEX
  5
3FC
330
3FB
100
AcDbEntity
  8
\U+30EC\U+30A4\U+30E4\U+30FC 1
370
     0
100
AcDbVertex
100
AcDb2dVertex
 10
48.91556502619483
 20
45.39674217621276
 30
0.0
  0
VERTEX
  5
3FD
330
3FB
100
AcDbEntity
  8
\U+30EC\U+30A4\U+30E4\U+30FC 1
370
     0
100
AcDbVertex
100
AcDb2dVertex
 10
47.37422828928277
 20
45.39674217621276
 30
0.0
  0
VERTEX
  5
3FE
330
3FB
100
AcDbEntity
  8
\U+30EC\U+30A4\U+30E4\U+30FC 1
370
     0
100
AcDbVertex
100
AcDb2dVertex
 10
47.37422828928277
 20
45.39191903935161
 30
0.0
  0
VERTEX
  5
3FF
330
3FB
100
AcDbEntity
  8
\U+30EC\U+30A4\U+30E4\U+30FC 1
370
     0
100
AcDbVertex
100
AcDb2dVertex
 10
47.54200455009551
 20
45.07066367342168
 30
0.0
  0
VERTEX
  5
400
330
3FB
100
AcDbEntity
  8
\U+30EC\U+30A4\U+30E4\U+30FC 1
370
     0
100
AcDbVertex
100
AcDb2dVertex
 10
47.27983261071462
 20
44.99159867987647
 30
0.0
  0
VERTEX
  5
401
330
3FB
100
AcDbEntity
  8
\U+30EC\U+30A4\U+30E4\U+30FC 1
370
     0
100
AcDbVertex
100
AcDb2dVertex
 10
47.04763302182801
 20
45.44617932903951
 30
0.0
  0
VERTEX
  5
402
330
3FB
100
AcDbEntity
  8
\U+30EC\U+30A4\U+30E4\U+30FC 1
370
     0
100
AcDbVertex
100
AcDb2dVertex
 10
47.04763302182801
 20
45.7526207746102
 30
0.0
  0
VERTEX
  5
403
330
3FB
100
AcDbEntity
  8
\U+30EC\U+30A4\U+30E4\U+30FC 1
370
     0
100
AcDbVertex
100
AcDb2dVertex
 10
48.91556502619483
 20
45.7526207746102
 30
0.0
  0
VERTEX
  5
404
330
3FB
100
AcDbEntity
  8
\U+30EC\U+30A4\U+30E4\U+30FC 1
370
     0
100
AcDbVertex
100
AcDb2dVertex
 10
48.91556502619483
 20
45.39674217621276
 30
0.0
  0
SEQEND
  5
405
330
3FB
100
AcDbEntity
  8
\U+30EC\U+30A4\U+30E4\U+30FC 1
370
     0
  0
HATCH
  5
406
330
3F7
100
AcDbEntity
  8
\U+30EC\U+30A4\U+30E4\U+30FC 1
 62
     7
100
AcDbHatch
 10
0.0
 20
0.0
 30
0.0
210
0.0
220
0.0
230
1.0
  2
SOLID
 70
     1
 71
     0
 91
        1
 92
        1
 93
        8
 72
     1
 10
48.91556502619483
 20
45.39674217621276
 11
47.37422828928277
 21
45.39674217621276
 72
     1
 10
47.37422828928277
 20
45.39674217621276
 11
47.37422828928277
 21
45.39191903935161
 72
     1
 10
47.37422828928277
 20
45.39191903935161
 11
47.54200455009551
 21
45.07066367342168
 72
     1
 10
47.54200455009551
 20
45.07066367342168
 11
47.27983261071462
 21
44.99159867987647
 72
     1
 10
47.27983261071462
 20
44.99159867987647
 11
47.04763302182801
 21
45.44617932903951
 72
     1
 10
47.04763302182801
 20
45.44617932903951
 11
47.04763302182801
 21
45.7526207746102
 72
     1
 10
47.04763302182801
 20
45.7526207746102
 11
48.91556502619483
 21
45.7526207746102
 72
     1
 10
48.91556502619483
 20
45.7526207746102
 11
48.91556502619483
 21
45.39674217621276
 97
        0
 75
     2
 76
     1
 98
        0
  0
SPLINE
  5
407
330
3F7
100
AcDbEntity
  8
\U+30EC\U+30A4\U+30E4\U+30FC 1
370
     0
100
AcDbSpline
210
0.0
220
0.0
230
1.0
 70
    11
 71
     3
 72
    32
 73
    28
 74
     0
 42
0.0000000001
 43
0.0000000001
 40
0.0
 40
0.0
 40
0.0
 40
0.0
 40
1.0
 40
1.0
 40
1.0
 40
2.0
 40
2.0
 40
2.0
 40
3.0
 40
3.0
 40
3.0
 40
4.0
 40
4.0
 40
4.0
 40
5.0
 40
5.0
 40
5.0
 40
6.0
 40
6.0
 40
6.0
 40
7.0
 40
7.0
 40
7.0
 40
8.0
 40
8.0
 40
8.0
 40
9.0
 40
9.0
 40
9.0
 40
9.0
 10
47.85102981898467
 20
46.65368609320508
 30
0.0
 10
47.75181100355537
 20
46.73516265518088
 30
0.0
 10
47.68532061682671
 20
46.86366480155285
 30
0.0
 10
47.68532061682671
 20
47.02420635707387
 30
0.0
 10
47.68532061682671
 20
47.31325005896685
 30
0.0
 10
47.90511785378467
 20
47.53563111924328
 30
0.0
 10
48.27822194097192
 20
47.53563111924328
 30
0.0
 10
48.63168897093879
 20
47.53563111924328
 30
0.0
 10
48.94312580825852
 20
47.30584309878723
 30
0.0
 10
48.94312580825852
 20
46.92791587473884
 30
0.0
 10
48.94312580825852
 20
46.50537463472483
 30
0.0
 10
48.60447269865089
 20
46.27799818269936
 30
0.0
 10
48.14730822616937
 20
46.27799818269936
 30
0.0
 10
47.72011610418213
 20
46.27799818269936
 30
0.0
 10
47.0207612593159
 20
46.47075140225732
 30
0.0
 10
47.0207612593159
 20
47.36027564336302
 30
0.0
 10
47.0207612593159
 20
47.36027564336302
 30
0.0
 10
47.30257025591717
 20
47.36027564336302
 30
0.0
 10
47.30257025591717
 20
47.36027564336302
 30
0.0
 10
47.30257025591717
 20
47.31325005896685
 30
0.0
 10
47.30739339277832
 20
47.26140133770952
 30
0.0
 10
47.31462809807003
 20
47.19973408784201
 30
0.0
 10
47.36182593735411
 20
46.85625784137323
 30
0.0
 10
47.60367179996302
 20
46.69313246253375
 30
0.0
 10
47.85102981898467
 20
46.64627913302547
 30
0.0
 10
47.85102981898467
 20
46.64627913302547
 30
0.0
 10
47.85102981898467
 20
46.65368609320508
 30
0.0
 10
47.85102981898467
 20
46.65368609320508
 30
0.0
  0
SPLINE
  5
408
330
3F7
100
AcDbEntity
  8
\U+30EC\U+30A4\U+30E4\U+30FC 1
370
     0
100
AcDbSpline
210
0.0
220
0.0
230
1.0
 70
    11
 71
     3
 72
    17
 73
    13
 74
     0
 42
0.0000000001
 43
0.0000000001
 40
0.0
 40
0.0
 40
0.0
 40
0.0
 40
1.0
 40
1.0
 40
1.0
 40
2.0
 40
2.0
 40
2.0
 40
3.0
 40
3.0
 40
3.0
 40
4.0
 40
4.0
 40
4.0
 40
4.0
 10
48.29544742976172
 20
47.17251781555412
 30
0.0
 10
48.10045489666109
 20
47.17251781555412
 30
0.0
 10
47.93991334114008
 20
47.07863890164965
 30
0.0
 10
47.93991334114008
 20
46.90810656263056
 30
0.0
 10
47.93991334114008
 20
46.79941372836686
 30
0.0
 10
48.03362000015664
 20
46.64128374127642
 30
0.0
 10
48.2437709633923
 20
46.64128374127642
 30
0.0
 10
48.48561682600121
 20
46.64627913302547
 30
0.0
 10
48.67854230044706
 20
46.74498118379107
 30
0.0
 10
48.67854230044706
 20
46.92533205142036
 30
0.0
 10
48.67854230044706
 20
47.08604586182928
 30
0.0
 10
48.50559839299739
 20
47.17251781555412
 30
0.0
 10
48.29544742976172
 20
47.17251781555412
 30
0.0
  0
HATCH
  5
409
330
3F7
100
AcDbEntity
  8
\U+30EC\U+30A4\U+30E4\U+30FC 1
 62
     7
100
AcDbHatch
 10
0.0
 20
0.0
 30
0.0
210
0.0
220
0.0
230
1.0
  2
SOLID
 70
     1
 71
     0
 91
        2
 92
        1
 93
        1
 72
     4
 94
        3
 73
     0
 74
     1
 95
       32
 96
       28
 40
0.0
 40
0.0
 40
0.0
 40
0.0
 40
1.0
 40
1.0
 40
1.0
 40
2.0
 40
2.0
 40
2.0
 40
3.0
 40
3.0
 40
3.0
 40
4.0
 40
4.0
 40
4.0
 40
5.0
 40
5.0
 40
5.0
 40
6.0
 40
6.0
 40
6.0
 40
7.0
 40
7.0
 40
7.0
 40
8.0
 40
8.0
 40
8.0
 40
9.0
 40
9.0
 40
9.0
 40
9.0
 10
47.85102981898467
 20
46.65368609320508
 10
47.75181100355537
 20
46.73516265518088
 10
47.68532061682671
 20
46.86366480155285
 10
47.68532061682671
 20
47.02420635707387
 10
47.68532061682671
 20
47.31325005896685
 10
47.90511785378467
 20
47.53563111924328
 10
48.27822194097192
 20
47.53563111924328
 10
48.63168897093879
 20
47.53563111924328
 10
48.94312580825852
 20
47.30584309878723
 10
48.94312580825852
 20
46.92791587473884
 10
48.94312580825852
 20
46.50537463472483
 10
48.60447269865089
 20
46.27799818269936
 10
48.14730822616937
 20
46.27799818269936
 10
47.72011610418213
 20
46.27799818269936
 10
47.0207612593159
 20
46.47075140225732
 10
47.0207612593159
 20
47.36027564336302
 10
47.0207612593159
 20
47.36027564336302
 10
47.30257025591717
 20
47.36027564336302
 10
47.30257025591717
 20
47.36027564336302
 10
47.30257025591717
 20
47.31325005896685
 10
47.30739339277832
 20
47.26140133770952
 10
47.31462809807003
 20
47.19973408784201
 10
47.36182593735411
 20
46.85625784137323
 10
47.60367179996302
 20
46.69313246253375
 10
47.85102981898467
 20
46.64627913302547
 10
47.85102981898467
 20
46.64627913302547
 10
47.85102981898467
 20
46.65368609320508
 10
47.85102981898467
 20
46.65368609320508
 97
        0
 92
        1
 93
        1
 72
     4
 94
        3
 73
     0
 74
     1
 95
       17
 96
       13
 40
0.0
 40
0.0
 40
0.0
 40
0.0
 40
1.0
 40
1.0
 40
1.0
 40
2.0
 40
2.0
 40
2.0
 40
3.0
 40
3.0
 40
3.0
 40
4.0
 40
4.0
 40
4.0
 40
4.0
 10
48.29544742976172
 20
47.17251781555412
 10
48.10045489666109
 20
47.17251781555412
 10
47.93991334114008
 20
47.07863890164965
 10
47.93991334114008
 20
46.90810656263056
 10
47.93991334114008
 20
46.79941372836686
 10
48.03362000015664
 20
46.64128374127642
 10
48.2437709633923
 20
46.64128374127642
 10
48.48561682600121
 20
46.64627913302547
 10
48.67854230044706
 20
46.74498118379107
 10
48.67854230044706
 20
46.92533205142036
 10
48.67854230044706
 20
47.08604586182928
 10
48.50559839299739
 20
47.17251781555412
 10
48.29544742976172
 20
47.17251781555412
 97
        0
 75
     2
 76
     1
 98
        0
  0
POLYLINE
  5
40A
330
3F7
100
AcDbEntity
  8
\U+30EC\U+30A4\U+30E4\U+30FC 1
370
     0
100
AcDb2dPolyline
 66
     1
 10
0.0
 20
0.0
 30
0.0
  0
VERTEX
  5
40B
330
40A
100
AcDbEntity
  8
\U+30EC\U+30A4\U+30E4\U+30FC 1
370
     0
100
AcDbVertex
100
AcDb2dVertex
 10
48.91556502619483
 20
48.75536798044961
 30
0.0
  0
VERTEX
  5
40C
330
40A
100
AcDbEntity
  8
\U+30EC\U+30A4\U+30E4\U+30FC 1
370
     0
100
AcDbVertex
100
AcDb2dVertex
 10
48.91556502619483
 20
48.41688712572988
 30
0.0
  0
VERTEX
  5
40D
330
40A
100
AcDbEntity
  8
\U+30EC\U+30A4\U+30E4\U+30FC 1
370
     0
100
AcDbVertex
100
AcDb2dVertex
 10
48.45392192662796
 20
48.41688712572988
 30
0.0
  0
VERTEX
  5
40E
330
40A
100
AcDbEntity
  8
\U+30EC\U+30A4\U+30E4\U+30FC 1
370
     0
100
AcDbVertex
100
AcDb2dVertex
 10
48.45392192662796
 20
47.66344424606365
 30
0.0
  0
VERTEX
  5
40F
330
40A
100
AcDbEntity
  8
\U+30EC\U+30A4\U+30E4\U+30FC 1
370
     0
100
AcDbVertex
100
AcDb2dVertex
 10
48.21655469110441
 20
47.66344424606365
 30
0.0
  0
VERTEX
  5
410
330
40A
100
AcDbEntity
  8
\U+30EC\U+30A4\U+30E4\U+30FC 1
370
     0
100
AcDbVertex
100
AcDb2dVertex
 10
47.04763302182801
 20
48.3428175239337
 30
0.0
  0
VERTEX
  5
411
330
40A
100
AcDbEntity
  8
\U+30EC\U+30A4\U+30E4\U+30FC 1
370
     0
100
AcDbVertex
100
AcDb2dVertex
 10
47.04763302182801
 20
48.75536798044961
 30
0.0
  0
VERTEX
  5
412
330
40A
100
AcDbEntity
  8
\U+30EC\U+30A4\U+30E4\U+30FC 1
370
     0
100
AcDbVertex
100
AcDb2dVertex
 10
48.17693606688784
 20
48.75536798044961
 30
0.0
  0
VERTEX
  5
413
330
40A
100
AcDbEntity
  8
\U+30EC\U+30A4\U+30E4\U+30FC 1
370
     0
100
AcDbVertex
100
AcDb2dVertex
 10
48.17693606688784
 20
48.97034208054642
 30
0.0
  0
VERTEX
  5
414
330
40A
100
AcDbEntity
  8
\U+30EC\U+30A4\U+30E4\U+30FC 1
370
     0
100
AcDbVertex
100
AcDb2dVertex
 10
48.45392192662796
 20
48.97034208054642
 30
0.0
  0
VERTEX
  5
415
330
40A
100
AcDbEntity
  8
\U+30EC\U+30A4\U+30E4\U+30FC 1
370
     0
100
AcDbVertex
100
AcDb2dVertex
 10
48.45392192662796
 20
48.75536798044961
 30
0.0
  0
VERTEX
  5
416
330
40A
100
AcDbEntity
  8
\U+30EC\U+30A4\U+30E4\U+30FC 1
370
     0
100
AcDbVertex
100
AcDb2dVertex
 10
48.91556502619483
 20
48.75536798044961
 30
0.0
  0
SEQEND
  5
417
330
40A
100
AcDbEntity
  8
\U+30EC\U+30A4\U+30E4\U+30FC 1
370
     0
  0
SPLINE
  5
418
330
3F7
100
AcDbEntity
  8
\U+30EC\U+30A4\U+30E4\U+30FC 1
370
     0
100
AcDbSpline
210
0.0
220
0.0
230
1.0
 70
    11
 71
     3
 72
    26
 73
    22
 74
     0
 42
0.0000000001
 43
0.0000000001
 40
0.0
 40
0.0
 40
0.0
 40
0.0
 40
1.0
 40
1.0
 40
1.0
 40
2.0
 40
2.0
 40
2.0
 40
3.0
 40
3.0
 40
3.0
 40
4.0
 40
4.0
 40
4.0
 40
5.0
 40
5.0
 40
5.0
 40
6.0
 40
6.0
 40
6.0
 40
7.0
 40
7.0
 40
7.0
 40
7.0
 10
48.17693606688784
 20
47.98952274885472
 30
0.0
 10
48.17693606688784
 20
47.98952274885472
 30
0.0
 10
48.17693606688784
 20
48.41688712572988
 30
0.0
 10
48.17693606688784
 20
48.41688712572988
 30
0.0
 10
48.17693606688784
 20
48.41688712572988
 30
0.0
 10
47.71253688911461
 20
48.41688712572988
 30
0.0
 10
47.71253688911461
 20
48.41688712572988
 30
0.0
 10
47.60367179996302
 20
48.41688712572988
 30
0.0
 10
47.48516043708914
 20
48.42429408590949
 30
0.0
 10
47.37422828928277
 20
48.43170104608911
 30
0.0
 10
47.37422828928277
 20
48.43170104608911
 30
0.0
 10
47.37422828928277
 20
48.42188251747892
 30
0.0
 10
47.37422828928277
 20
48.42188251747892
 30
0.0
 10
47.49273965215665
 20
48.36503840447255
 30
0.0
 10
47.5960925848955
 20
48.32059664339484
 30
0.0
 10
47.70254610561652
 20
48.26375253038848
 30
0.0
 10
47.70254610561652
 20
48.26375253038848
 30
0.0
 10
48.1721129300267
 20
47.98952274885472
 30
0.0
 10
48.1721129300267
 20
47.98952274885472
 30
0.0
 10
48.1721129300267
 20
47.98952274885472
 30
0.0
 10
48.17693606688784
 20
47.98952274885472
 30
0.0
 10
48.17693606688784
 20
47.98952274885472
 30
0.0
  0
HATCH
  5
419
330
3F7
100
AcDbEntity
  8
\U+30EC\U+30A4\U+30E4\U+30FC 1
 62
     7
100
AcDbHatch
 10
0.0
 20
0.0
 30
0.0
210
0.0
220
0.0
230
1.0
  2
SOLID
 70
     1
 71
     0
 91
        2
 92
        1
 93
       11
 72
     1
 10
48.91556502619483
 20
48.75536798044961
 11
48.91556502619483
 21
48.41688712572988
 72
     1
 10
48.91556502619483
 20
48.41688712572988
 11
48.45392192662796
 21
48.41688712572988
 72
     1
 10
48.45392192662796
 20
48.41688712572988
 11
48.45392192662796
 21
47.66344424606365
 72
     1
 10
48.45392192662796
 20
47.66344424606365
 11
48.21655469110441
 21
47.66344424606365
 72
     1
 10
48.21655469110441
 20
47.66344424606365
 11
47.04763302182801
 21
48.3428175239337
 72
     1
 10
47.04763302182801
 20
48.3428175239337
 11
47.04763302182801
 21
48.75536798044961
 72
     1
 10
47.04763302182801
 20
48.75536798044961
 11
48.17693606688784
 21
48.75536798044961
 72
     1
 10
48.17693606688784
 20
48.75536798044961
 11
48.17693606688784
 21
48.97034208054642
 72
     1
 10
48.17693606688784
 20
48.97034208054642
 11
48.45392192662796
 21
48.97034208054642
 72
     1
 10
48.45392192662796
 20
48.97034208054642
 11
48.45392192662796
 21
48.75536798044961
 72
     1
 10
48.45392192662796
 20
48.75536798044961
 11
48.91556502619483
 21
48.75536798044961
 97
        0
 92
        1
 93
        1
 72
     4
 94
        3
 73
     0
 74
     1
 95
       26
 96
       22
 40
0.0
 40
0.0
 40
0.0
 40
0.0
 40
1.0
 40
1.0
 40
1.0
 40
2.0
 40
2.0
 40
2.0
 40
3.0
 40
3.0
 40
3.0
 40
4.0
 40
4.0
 40
4.0
 40
5.0
 40
5.0
 40
5.0
 40
6.0
 40
6.0
 40
6.0
 40
7.0
 40
7.0
 40
7.0
 40
7.0
 10
48.17693606688784
 20
47.98952274885472
 10
48.17693606688784
 20
47.98952274885472
 10
48.17693606688784
 20
48.41688712572988
 10
48.17693606688784
 20
48.41688712572988
 10
48.17693606688784
 20
48.41688712572988
 10
47.71253688911461
 20
48.41688712572988
 10
47.71253688911461
 20
48.41688712572988
 10
47.60367179996302
 20
48.41688712572988
 10
47.48516043708914
 20
48.42429408590949
 10
47.37422828928277
 20
48.43170104608911
 10
47.37422828928277
 20
48.43170104608911
 10
47.37422828928277
 20
48.42188251747892
 10
47.37422828928277
 20
48.42188251747892
 10
47.49273965215665
 20
48.36503840447255
 10
47.5960925848955
 20
48.32059664339484
 10
47.70254610561652
 20
48.26375253038848
 10
47.70254610561652
 20
48.26375253038848
 10
48.1721129300267
 20
47.98952274885472
 10
48.1721129300267
 20
47.98952274885472
 10
48.1721129300267
 20
47.98952274885472
 10
48.17693606688784
 20
47.98952274885472
 10
48.17693606688784
 20
47.98952274885472
 97
        0
 75
     2
 76
     1
 98
        0
  0
ENDBLK
  5
3FA
330
3F7
100
AcDbEntity
  8
0
100
AcDbBlockEnd
  0
ENDSEC
  0
SECTION
  2
ENTITIES
  0
INSERT
  5
3D
330
1F
100
AcDbEntity
  8
\U+30EC\U+30A4\U+30E4\U+30FC 1
100
AcDbBlockReference
  2
block 2
 10
0.0
 20
0.0
 30
0.0
  0
POLYLINE
  5
61
330
1F
100
AcDbEntity
  8
\U+30EC\U+30A4\U+30E4\U+30FC 1
 62
     7
370
    18
100
AcDb2dPolyline
 66
     1
 10
0.0
 20
0.0
 30
0.0
  0
VERTEX
  5
62
330
61
100
AcDbEntity
  8
\U+30EC\U+30A4\U+30E4\U+30FC 1
 62
     7
370
    18
100
AcDbVertex
100
AcDb2dVertex
 10
27.8220927286349
 20
35.49811504314934
 30
0.0
  0
VERTEX
  5
41B
330
61
100
AcDbEntity
  8
0
100
AcDbVertex
100
AcDb2dVertex
 10
27.8220927286349
 20
35.49811504314934
 30
0.0
  0
SEQEND
  5
63
330
61
100
AcDbEntity
  8
\U+30EC\U+30A4\U+30E4\U+30FC 1
370
    18
  0
POLYLINE
  5
64
330
1F
100
AcDbEntity
  8
\U+30EC\U+30A4\U+30E4\U+30FC 1
 62
     7
370
    18
100
AcDb2dPolyline
 66
     1
 10
0.0
 20
0.0
 30
0.0
  0
VERTEX
  5
65
330
64
100
AcDbEntity
  8
\U+30EC\U+30A4\U+30E4\U+30FC 1
 62
     7
370
    18
100
AcDbVertex
100
AcDb2dVertex
 10
22.78897715914077
 20
35.3578995644003
 30
0.0
  0
VERTEX
  5
41C
330
64
100
AcDbEntity
  8
0
100
AcDbVertex
100
AcDb2dVertex
 10
22.78897715914077
 20
35.3578995644003
 30
0.0
  0
SEQEND
  5
66
330
64
100
AcDbEntity
  8
\U+30EC\U+30A4\U+30E4\U+30FC 1
370
    18
  0
POLYLINE
  5
67
330
1F
100
AcDbEntity
  8
\U+30EC\U+30A4\U+30E4\U+30FC 1
370
     0
100
AcDb2dPolyline
 66
     1
 10
0.0
 20
0.0
 30
0.0
  0
VERTEX
  5
68
330
67
100
AcDbEntity
  8
\U+30EC\U+30A4\U+30E4\U+30FC 1
370
     0
100
AcDbVertex
100
AcDb2dVertex
 10
22.78897715914077
 20
35.3578995644003
 30
0.0
  0
VERTEX
  5
69
330
67
100
AcDbEntity
  8
\U+30EC\U+30A4\U+30E4\U+30FC 1
370
     0
100
AcDbVertex
100
AcDb2dVertex
 10
23.18895300884013
 20
35.45625710539011
 30
0.0
  0
VERTEX
  5
6A
330
67
100
AcDbEntity
  8
\U+30EC\U+30A4\U+30E4\U+30FC 1
370
     0
100
AcDbVertex
100
AcDb2dVertex
 10
23.18895300884013
 20
35.2593697685226
 30
0.0
  0
VERTEX
  5
6B
330
67
100
AcDbEntity
  8
\U+30EC\U+30A4\U+30E4\U+30FC 1
370
     0
100
AcDbVertex
100
AcDb2dVertex
 10
22.78897715914077
 20
35.3578995644003
 30
0.0
  0
SEQEND
  5
6C
330
67
100
AcDbEntity
  8
\U+30EC\U+30A4\U+30E4\U+30FC 1
370
     0
  0
HATCH
  5
6D
330
1F
100
AcDbEntity
  8
\U+30EC\U+30A4\U+30E4\U+30FC 1
 62
     7
100
AcDbHatch
 10
0.0
 20
0.0
 30
0.0
210
0.0
220
0.0
230
1.0
  2
SOLID
 70
     1
 71
     0
 91
        1
 92
        1
 93
        3
 72
     1
 10
22.78897715914077
 20
35.3578995644003
 11
23.18895300884013
 21
35.45625710539011
 72
     1
 10
23.18895300884013
 20
35.45625710539011
 11
23.18895300884013
 21
35.2593697685226
 72
     1
 10
23.18895300884013
 20
35.2593697685226
 11
22.78897715914077
 21
35.3578995644003
 97
        0
 75
     2
 76
     1
 98
        0
  0
POLYLINE
  5
6E
330
1F
100
AcDbEntity
  8
\U+30EC\U+30A4\U+30E4\U+30FC 1
 62
     7
370
    18
100
AcDb2dPolyline
 66
     1
 10
0.0
 20
0.0
 30
0.0
  0
VERTEX
  5
6F
330
6E
100
AcDbEntity
  8
\U+30EC\U+30A4\U+30E4\U+30FC 1
 62
     7
370
    18
100
AcDbVertex
100
AcDb2dVertex
 10
22.78897715914077
 20
35.3578995644003
 30
0.0
  0
VERTEX
  5
70
330
6E
100
AcDbEntity
  8
\U+30EC\U+30A4\U+30E4\U+30FC 1
 62
     7
370
    18
100
AcDbVertex
100
AcDb2dVertex
 10
23.18895300884013
 20
35.45625710539011
 30
0.0
  0
VERTEX
  5
71
330
6E
100
AcDbEntity
  8
\U+30EC\U+30A4\U+30E4\U+30FC 1
 62
     7
370
    18
100
AcDbVertex
100
AcDb2dVertex
 10
23.18895300884013
 20
35.2593697685226
 30
0.0
  0
VERTEX
  5
72
330
6E
100
AcDbEntity
  8
\U+30EC\U+30A4\U+30E4\U+30FC 1
 62
     7
370
    18
100
AcDbVertex
100
AcDb2dVertex
 10
22.78897715914077
 20
35.3578995644003
 30
0.0
  0
SEQEND
  5
73
330
6E
100
AcDbEntity
  8
\U+30EC\U+30A4\U+30E4\U+30FC 1
370
    18
  0
POLYLINE
  5
74
330
1F
100
AcDbEntity
  8
\U+30EC\U+30A4\U+30E4\U+30FC 1
 62
     7
370
    18
100
AcDb2dPolyline
 66
     1
 10
0.0
 20
0.0
 30
0.0
  0
VERTEX
  5
75
330
74
100
AcDbEntity
  8
\U+30EC\U+30A4\U+30E4\U+30FC 1
 62
     7
370
    18
100
AcDbVertex
100
AcDb2dVertex
 10
39.87080537244221
 20
35.3578995644003
 30
0.0
  0
VERTEX
  5
41D
330
74
100
AcDbEntity
  8
0
100
AcDbVertex
100
AcDb2dVertex
 10
39.87080537244221
 20
35.3578995644003
 30
0.0
  0
SEQEND
  5
76
330
74
100
AcDbEntity
  8
\U+30EC\U+30A4\U+30E4\U+30FC 1
370
    18
  0
POLYLINE
  5
77
330
1F
100
AcDbEntity
  8
\U+30EC\U+30A4\U+30E4\U+30FC 1
370
     0
100
AcDb2dPolyline
 66
     1
 10
0.0
 20
0.0
 30
0.0
  0
VERTEX
  5
78
330
77
100
AcDbEntity
  8
\U+30EC\U+30A4\U+30E4\U+30FC 1
370
     0
100
AcDbVertex
100
AcDb2dVertex
 10
39.87080537244221
 20
35.3578995644003
 30
0.0
  0
VERTEX
  5
79
330
77
100
AcDbEntity
  8
\U+30EC\U+30A4\U+30E4\U+30FC 1
370
     0
100
AcDbVertex
100
AcDb2dVertex
 10
39.47048501296707
 20
35.2593697685226
 30
0.0
  0
VERTEX
  5
7A
330
77
100
AcDbEntity
  8
\U+30EC\U+30A4\U+30E4\U+30FC 1
370
     0
100
AcDbVertex
100
AcDb2dVertex
 10
39.47048501296707
 20
35.45625710539011
 30
0.0
  0
VERTEX
  5
7B
330
77
100
AcDbEntity
  8
\U+30EC\U+30A4\U+30E4\U+30FC 1
370
     0
100
AcDbVertex
100
AcDb2dVertex
 10
39.87080537244221
 20
35.3578995644003
 30
0.0
  0
SEQEND
  5
7C
330
77
100
AcDbEntity
  8
\U+30EC\U+30A4\U+30E4\U+30FC 1
370
     0
  0
HATCH
  5
7D
330
1F
100
AcDbEntity
  8
\U+30EC\U+30A4\U+30E4\U+30FC 1
 62
     7
100
AcDbHatch
 10
0.0
 20
0.0
 30
0.0
210
0.0
220
0.0
230
1.0
  2
SOLID
 70
     1
 71
     0
 91
        1
 92
        1
 93
        3
 72
     1
 10
39.87080537244221
 20
35.3578995644003
 11
39.47048501296707
 21
35.2593697685226
 72
     1
 10
39.47048501296707
 20
35.2593697685226
 11
39.47048501296707
 21
35.45625710539011
 72
     1
 10
39.47048501296707
 20
35.45625710539011
 11
39.87080537244221
 21
35.3578995644003
 97
        0
 75
     2
 76
     1
 98
        0
  0
POLYLINE
  5
7E
330
1F
100
AcDbEntity
  8
\U+30EC\U+30A4\U+30E4\U+30FC 1
 62
     7
370
    18
100
AcDb2dPolyline
 66
     1
 10
0.0
 20
0.0
 30
0.0
  0
VERTEX
  5
7F
330
7E
100
AcDbEntity
  8
\U+30EC\U+30A4\U+30E4\U+30FC 1
 62
     7
370
    18
100
AcDbVertex
100
AcDb2dVertex
 10
39.87080537244221
 20
35.3578995644003
 30
0.0
  0
VERTEX
  5
80
330
7E
100
AcDbEntity
  8
\U+30EC\U+30A4\U+30E4\U+30FC 1
 62
     7
370
    18
100
AcDbVertex
100
AcDb2dVertex
 10
39.47048501296707
 20
35.2593697685226
 30
0.0
  0
VERTEX
  5
81
330
7E
100
AcDbEntity
  8
\U+30EC\U+30A4\U+30E4\U+30FC 1
 62
     7
370
    18
100
AcDbVertex
100
AcDb2dVertex
 10
39.47048501296707
 20
35.45625710539011
 30
0.0
  0
VERTEX
  5
82
330
7E
100
AcDbEntity
  8
\U+30EC\U+30A4\U+30E4\U+30FC 1
 62
     7
370
    18
100
AcDbVertex
100
AcDb2dVertex
 10
39.87080537244221
 20
35.3578995644003
 30
0.0
  0
SEQEND
  5
83
330
7E
100
AcDbEntity
  8
\U+30EC\U+30A4\U+30E4\U+30FC 1
370
    18
  0
POLYLINE
  5
84
330
1F
100
AcDbEntity
  8
\U+30EC\U+30A4\U+30E4\U+30FC 1
 62
     7
370
    18
100
AcDb2dPolyline
 66
     1
 10
0.0
 20
0.0
 30
0.0
  0
VERTEX
  5
85
330
84
100
AcDbEntity
  8
\U+30EC\U+30A4\U+30E4\U+30FC 1
 62
     7
370
    18
100
AcDbVertex
100
AcDb2dVertex
 10
29.90723814664121
 20
54.86542110908256
 30
0.0
  0
VERTEX
  5
41E
330
84
100
AcDbEntity
  8
0
100
AcDbVertex
100
AcDb2dVertex
 10
29.90723814664121
 20
54.86542110908256
 30
0.0
  0
SEQEND
  5
86
330
84
100
AcDbEntity
  8
\U+30EC\U+30A4\U+30E4\U+30FC 1
370
    18
  0
POLYLINE
  5
87
330
1F
100
AcDbEntity
  8
\U+30EC\U+30A4\U+30E4\U+30FC 1
 62
     7
370
    18
100
AcDb2dPolyline
 66
     1
 10
0.0
 20
0.0
 30
0.0
  0
VERTEX
  5
88
330
87
100
AcDbEntity
  8
\U+30EC\U+30A4\U+30E4\U+30FC 1
 62
     7
370
    18
100
AcDbVertex
100
AcDb2dVertex
 10
18.07005450517275
 20
54.86542110908256
 30
0.0
  0
VERTEX
  5
41F
330
87
100
AcDbEntity
  8
0
100
AcDbVertex
100
AcDb2dVertex
 10
18.07005450517275
 20
54.86542110908256
 30
0.0
  0
SEQEND
  5
89
330
87
100
AcDbEntity
  8
\U+30EC\U+30A4\U+30E4\U+30FC 1
370
    18
  0
POLYLINE
  5
8A
330
1F
100
AcDbEntity
  8
\U+30EC\U+30A4\U+30E4\U+30FC 1
370
     0
100
AcDb2dPolyline
 66
     1
 10
0.0
 20
0.0
 30
0.0
  0
VERTEX
  5
8B
330
8A
100
AcDbEntity
  8
\U+30EC\U+30A4\U+30E4\U+30FC 1
370
     0
100
AcDbVertex
100
AcDb2dVertex
 10
18.07005450517275
 20
54.86542110908256
 30
0.0
  0
VERTEX
  5
8C
330
8A
100
AcDbEntity
  8
\U+30EC\U+30A4\U+30E4\U+30FC 1
370
     0
100
AcDbVertex
100
AcDb2dVertex
 10
18.47020260976
 20
54.93587335823288
 30
0.0
  0
VERTEX
  5
8D
330
8A
100
AcDbEntity
  8
\U+30EC\U+30A4\U+30E4\U+30FC 1
370
     0
100
AcDbVertex
100
AcDb2dVertex
 10
18.47020260976
 20
54.79548562459594
 30
0.0
  0
VERTEX
  5
8E
330
8A
100
AcDbEntity
  8
\U+30EC\U+30A4\U+30E4\U+30FC 1
370
     0
100
AcDbVertex
100
AcDb2dVertex
 10
18.07005450517275
 20
54.86542110908256
 30
0.0
  0
SEQEND
  5
8F
330
8A
100
AcDbEntity
  8
\U+30EC\U+30A4\U+30E4\U+30FC 1
370
     0
  0
HATCH
  5
90
330
1F
100
AcDbEntity
  8
\U+30EC\U+30A4\U+30E4\U+30FC 1
 62
     7
100
AcDbHatch
 10
0.0
 20
0.0
 30
0.0
210
0.0
220
0.0
230
1.0
  2
SOLID
 70
     1
 71
     0
 91
        1
 92
        1
 93
        3
 72
     1
 10
18.07005450517275
 20
54.86542110908256
 11
18.47020260976
 21
54.93587335823288
 72
     1
 10
18.47020260976
 20
54.93587335823288
 11
18.47020260976
 21
54.79548562459594
 72
     1
 10
18.47020260976
 20
54.79548562459594
 11
18.07005450517275
 21
54.86542110908256
 97
        0
 75
     2
 76
     1
 98
        0
  0
POLYLINE
  5
91
330
1F
100
AcDbEntity
  8
\U+30EC\U+30A4\U+30E4\U+30FC 1
 62
     7
370
    18
100
AcDb2dPolyline
 66
     1
 10
0.0
 20
0.0
 30
0.0
  0
VERTEX
  5
92
330
91
100
AcDbEntity
  8
\U+30EC\U+30A4\U+30E4\U+30FC 1
 62
     7
370
    18
100
AcDbVertex
100
AcDb2dVertex
 10
18.07005450517275
 20
54.86542110908256
 30
0.0
  0
VERTEX
  5
93
330
91
100
AcDbEntity
  8
\U+30EC\U+30A4\U+30E4\U+30FC 1
 62
     7
370
    18
100
AcDbVertex
100
AcDb2dVertex
 10
18.47020260976
 20
54.93587335823288
 30
0.0
  0
VERTEX
  5
94
330
91
100
AcDbEntity
  8
\U+30EC\U+30A4\U+30E4\U+30FC 1
 62
     7
370
    18
100
AcDbVertex
100
AcDb2dVertex
 10
18.47020260976
 20
54.79548562459594
 30
0.0
  0
VERTEX
  5
95
330
91
100
AcDbEntity
  8
\U+30EC\U+30A4\U+30E4\U+30FC 1
 62
     7
370
    18
100
AcDbVertex
100
AcDb2dVertex
 10
18.07005450517275
 20
54.86542110908256
 30
0.0
  0
SEQEND
  5
96
330
91
100
AcDbEntity
  8
\U+30EC\U+30A4\U+30E4\U+30FC 1
370
    18
  0
POLYLINE
  5
97
330
1F
100
AcDbEntity
  8
\U+30EC\U+30A4\U+30E4\U+30FC 1
 62
     7
370
    18
100
AcDb2dPolyline
 66
     1
 10
0.0
 20
0.0
 30
0.0
  0
VERTEX
  5
98
330
97
100
AcDbEntity
  8
\U+30EC\U+30A4\U+30E4\U+30FC 1
 62
     7
370
    18
100
AcDbVertex
100
AcDb2dVertex
 10
44.49929421026374
 20
54.86542110908256
 30
0.0
  0
VERTEX
  5
420
330
97
100
AcDbEntity
  8
0
100
AcDbVertex
100
AcDb2dVertex
 10
44.49929421026374
 20
54.86542110908256
 30
0.0
  0
SEQEND
  5
99
330
97
100
AcDbEntity
  8
\U+30EC\U+30A4\U+30E4\U+30FC 1
370
    18
  0
POLYLINE
  5
9A
330
1F
100
AcDbEntity
  8
\U+30EC\U+30A4\U+30E4\U+30FC 1
370
     0
100
AcDb2dPolyline
 66
     1
 10
0.0
 20
0.0
 30
0.0
  0
VERTEX
  5
9B
330
9A
100
AcDbEntity
  8
\U+30EC\U+30A4\U+30E4\U+30FC 1
370
     0
100
AcDbVertex
100
AcDb2dVertex
 10
44.49929421026374
 20
54.86542110908256
 30
0.0
  0
VERTEX
  5
9C
330
9A
100
AcDbEntity
  8
\U+30EC\U+30A4\U+30E4\U+30FC 1
370
     0
100
AcDbVertex
100
AcDb2dVertex
 10
44.0989738507886
 20
54.79548562459594
 30
0.0
  0
VERTEX
  5
9D
330
9A
100
AcDbEntity
  8
\U+30EC\U+30A4\U+30E4\U+30FC 1
370
     0
100
AcDbVertex
100
AcDb2dVertex
 10
44.0989738507886
 20
54.93587335823288
 30
0.0
  0
VERTEX
  5
9E
330
9A
100
AcDbEntity
  8
\U+30EC\U+30A4\U+30E4\U+30FC 1
370
     0
100
AcDbVertex
100
AcDb2dVertex
 10
44.49929421026374
 20
54.86542110908256
 30
0.0
  0
SEQEND
  5
9F
330
9A
100
AcDbEntity
  8
\U+30EC\U+30A4\U+30E4\U+30FC 1
370
     0
  0
HATCH
  5
A0
330
1F
100
AcDbEntity
  8
\U+30EC\U+30A4\U+30E4\U+30FC 1
 62
     7
100
AcDbHatch
 10
0.0
 20
0.0
 30
0.0
210
0.0
220
0.0
230
1.0
  2
SOLID
 70
     1
 71
     0
 91
        1
 92
        1
 93
        3
 72
     1
 10
44.49929421026374
 20
54.86542110908256
 11
44.0989738507886
 21
54.79548562459594
 72
     1
 10
44.0989738507886
 20
54.79548562459594
 11
44.0989738507886
 21
54.93587335823288
 72
     1
 10
44.0989738507886
 20
54.93587335823288
 11
44.49929421026374
 21
54.86542110908256
 97
        0
 75
     2
 76
     1
 98
        0
  0
POLYLINE
  5
A1
330
1F
100
AcDbEntity
  8
\U+30EC\U+30A4\U+30E4\U+30FC 1
 62
     7
370
    18
100
AcDb2dPolyline
 66
     1
 10
0.0
 20
0.0
 30
0.0
  0
VERTEX
  5
A2
330
A1
100
AcDbEntity
  8
\U+30EC\U+30A4\U+30E4\U+30FC 1
 62
     7
370
    18
100
AcDbVertex
100
AcDb2dVertex
 10
44.49929421026374
 20
54.86542110908256
 30
0.0
  0
VERTEX
  5
A3
330
A1
100
AcDbEntity
  8
\U+30EC\U+30A4\U+30E4\U+30FC 1
 62
     7
370
    18
100
AcDbVertex
100
AcDb2dVertex
 10
44.0989738507886
 20
54.79548562459594
 30
0.0
  0
VERTEX
  5
A4
330
A1
100
AcDbEntity
  8
\U+30EC\U+30A4\U+30E4\U+30FC 1
 62
     7
370
    18
100
AcDbVertex
100
AcDb2dVertex
 10
44.0989738507886
 20
54.93587335823288
 30
0.0
  0
VERTEX
  5
A5
330
A1
100
AcDbEntity
  8
\U+30EC\U+30A4\U+30E4\U+30FC 1
 62
     7
370
    18
100
AcDbVertex
100
AcDb2dVertex
 10
44.49929421026374
 20
54.86542110908256
 30
0.0
  0
SEQEND
  5
A6
330
A1
100
AcDbEntity
  8
\U+30EC\U+30A4\U+30E4\U+30FC 1
370
    18
  0
POLYLINE
  5
A7
330
1F
100
AcDbEntity
  8
\U+30EC\U+30A4\U+30E4\U+30FC 1
 62
     7
370
    18
100
AcDb2dPolyline
 66
     1
 10
0.0
 20
0.0
 30
0.0
  0
VERTEX
  5
A8
330
A7
100
AcDbEntity
  8
\U+30EC\U+30A4\U+30E4\U+30FC 1
 62
     7
370
    18
100
AcDbVertex
100
AcDb2dVertex
 10
14.57362479061743
 20
45.44979668168537
 30
0.0
  0
VERTEX
  5
421
330
A7
100
AcDbEntity
  8
0
100
AcDbVertex
100
AcDb2dVertex
 10
14.57362479061743
 20
45.44979668168537
 30
0.0
  0
SEQEND
  5
A9
330
A7
100
AcDbEntity
  8
\U+30EC\U+30A4\U+30E4\U+30FC 1
370
    18
  0
POLYLINE
  5
AA
330
1F
100
AcDbEntity
  8
\U+30EC\U+30A4\U+30E4\U+30FC 1
370
     0
100
AcDb2dPolyline
 66
     1
 10
0.0
 20
0.0
 30
0.0
  0
VERTEX
  5
AB
330
AA
100
AcDbEntity
  8
\U+30EC\U+30A4\U+30E4\U+30FC 1
370
     0
100
AcDbVertex
100
AcDb2dVertex
 10
14.57362479061743
 20
45.44979668168537
 30
0.0
  0
VERTEX
  5
AC
330
AA
100
AcDbEntity
  8
\U+30EC\U+30A4\U+30E4\U+30FC 1
370
     0
100
AcDbVertex
100
AcDb2dVertex
 10
14.50334479635501
 20
45.85046155093632
 30
0.0
  0
VERTEX
  5
AD
330
AA
100
AcDbEntity
  8
\U+30EC\U+30A4\U+30E4\U+30FC 1
370
     0
100
AcDbVertex
100
AcDb2dVertex
 10
14.64321576532826
 20
45.85046155093632
 30
0.0
  0
VERTEX
  5
AE
330
AA
100
AcDbEntity
  8
\U+30EC\U+30A4\U+30E4\U+30FC 1
370
     0
100
AcDbVertex
100
AcDb2dVertex
 10
14.57362479061743
 20
45.44979668168537
 30
0.0
  0
SEQEND
  5
AF
330
AA
100
AcDbEntity
  8
\U+30EC\U+30A4\U+30E4\U+30FC 1
370
     0
  0
HATCH
  5
B0
330
1F
100
AcDbEntity
  8
\U+30EC\U+30A4\U+30E4\U+30FC 1
 62
     7
100
AcDbHatch
 10
0.0
 20
0.0
 30
0.0
210
0.0
220
0.0
230
1.0
  2
SOLID
 70
     1
 71
     0
 91
        1
 92
        1
 93
        3
 72
     1
 10
14.57362479061743
 20
45.44979668168537
 11
14.50334479635501
 21
45.85046155093632
 72
     1
 10
14.50334479635501
 20
45.85046155093632
 11
14.64321576532826
 21
45.85046155093632
 72
     1
 10
14.64321576532826
 20
45.85046155093632
 11
14.57362479061743
 21
45.44979668168537
 97
        0
 75
     2
 76
     1
 98
        0
  0
POLYLINE
  5
B1
330
1F
100
AcDbEntity
  8
\U+30EC\U+30A4\U+30E4\U+30FC 1
 62
     7
370
    18
100
AcDb2dPolyline
 66
     1
 10
0.0
 20
0.0
 30
0.0
  0
VERTEX
  5
B2
330
B1
100
AcDbEntity
  8
\U+30EC\U+30A4\U+30E4\U+30FC 1
 62
     7
370
    18
100
AcDbVertex
100
AcDb2dVertex
 10
14.57362479061743
 20
45.44979668168537
 30
0.0
  0
VERTEX
  5
B3
330
B1
100
AcDbEntity
  8
\U+30EC\U+30A4\U+30E4\U+30FC 1
 62
     7
370
    18
100
AcDbVertex
100
AcDb2dVertex
 10
14.50334479635501
 20
45.85046155093632
 30
0.0
  0
VERTEX
  5
B4
330
B1
100
AcDbEntity
  8
\U+30EC\U+30A4\U+30E4\U+30FC 1
 62
     7
370
    18
100
AcDbVertex
100
AcDb2dVertex
 10
14.64321576532826
 20
45.85046155093632
 30
0.0
  0
VERTEX
  5
B5
330
B1
100
AcDbEntity
  8
\U+30EC\U+30A4\U+30E4\U+30FC 1
 62
     7
370
    18
100
AcDbVertex
100
AcDb2dVertex
 10
14.57362479061743
 20
45.44979668168537
 30
0.0
  0
SEQEND
  5
B6
330
B1
100
AcDbEntity
  8
\U+30EC\U+30A4\U+30E4\U+30FC 1
370
    18
  0
POLYLINE
  5
B7
330
1F
100
AcDbEntity
  8
\U+30EC\U+30A4\U+30E4\U+30FC 1
 62
     7
370
    18
100
AcDb2dPolyline
 66
     1
 10
0.0
 20
0.0
 30
0.0
  0
VERTEX
  5
B8
330
B7
100
AcDbEntity
  8
\U+30EC\U+30A4\U+30E4\U+30FC 1
 62
     7
370
    18
100
AcDbVertex
100
AcDb2dVertex
 10
14.57362479061743
 20
52.04078545732978
 30
0.0
  0
VERTEX
  5
422
330
B7
100
AcDbEntity
  8
0
100
AcDbVertex
100
AcDb2dVertex
 10
14.57362479061743
 20
52.04078545732978
 30
0.0
  0
SEQEND
  5
B9
330
B7
100
AcDbEntity
  8
\U+30EC\U+30A4\U+30E4\U+30FC 1
370
    18
  0
POLYLINE
  5
BA
330
1F
100
AcDbEntity
  8
\U+30EC\U+30A4\U+30E4\U+30FC 1
370
     0
100
AcDb2dPolyline
 66
     1
 10
0.0
 20
0.0
 30
0.0
  0
VERTEX
  5
BB
330
BA
100
AcDbEntity
  8
\U+30EC\U+30A4\U+30E4\U+30FC 1
370
     0
100
AcDbVertex
100
AcDb2dVertex
 10
14.57362479061743
 20
52.04078545732978
 30
0.0
  0
VERTEX
  5
BC
330
BA
100
AcDbEntity
  8
\U+30EC\U+30A4\U+30E4\U+30FC 1
370
     0
100
AcDbVertex
100
AcDb2dVertex
 10
14.64321576532826
 20
51.64012058807883
 30
0.0
  0
VERTEX
  5
BD
330
BA
100
AcDbEntity
  8
\U+30EC\U+30A4\U+30E4\U+30FC 1
370
     0
100
AcDbVertex
100
AcDb2dVertex
 10
14.50334479635501
 20
51.64012058807883
 30
0.0
  0
VERTEX
  5
BE
330
BA
100
AcDbEntity
  8
\U+30EC\U+30A4\U+30E4\U+30FC 1
370
     0
100
AcDbVertex
100
AcDb2dVertex
 10
14.57362479061743
 20
52.04078545732978
 30
0.0
  0
SEQEND
  5
BF
330
BA
100
AcDbEntity
  8
\U+30EC\U+30A4\U+30E4\U+30FC 1
370
     0
  0
HATCH
  5
C0
330
1F
100
AcDbEntity
  8
\U+30EC\U+30A4\U+30E4\U+30FC 1
 62
     7
100
AcDbHatch
 10
0.0
 20
0.0
 30
0.0
210
0.0
220
0.0
230
1.0
  2
SOLID
 70
     1
 71
     0
 91
        1
 92
        1
 93
        3
 72
     1
 10
14.57362479061743
 20
52.04078545732978
 11
14.64321576532826
 21
51.64012058807883
 72
     1
 10
14.64321576532826
 20
51.64012058807883
 11
14.50334479635501
 21
51.64012058807883
 72
     1
 10
14.50334479635501
 20
51.64012058807883
 11
14.57362479061743
 21
52.04078545732978
 97
        0
 75
     2
 76
     1
 98
        0
  0
POLYLINE
  5
C1
330
1F
100
AcDbEntity
  8
\U+30EC\U+30A4\U+30E4\U+30FC 1
 62
     7
370
    18
100
AcDb2dPolyline
 66
     1
 10
0.0
 20
0.0
 30
0.0
  0
VERTEX
  5
C2
330
C1
100
AcDbEntity
  8
\U+30EC\U+30A4\U+30E4\U+30FC 1
 62
     7
370
    18
100
AcDbVertex
100
AcDb2dVertex
 10
14.57362479061743
 20
52.04078545732978
 30
0.0
  0
VERTEX
  5
C3
330
C1
100
AcDbEntity
  8
\U+30EC\U+30A4\U+30E4\U+30FC 1
 62
     7
370
    18
100
AcDbVertex
100
AcDb2dVertex
 10
14.64321576532826
 20
51.64012058807883
 30
0.0
  0
VERTEX
  5
C4
330
C1
100
AcDbEntity
  8
\U+30EC\U+30A4\U+30E4\U+30FC 1
 62
     7
370
    18
100
AcDbVertex
100
AcDb2dVertex
 10
14.50334479635501
 20
51.64012058807883
 30
0.0
  0
VERTEX
  5
C5
330
C1
100
AcDbEntity
  8
\U+30EC\U+30A4\U+30E4\U+30FC 1
 62
     7
370
    18
100
AcDbVertex
100
AcDb2dVertex
 10
14.57362479061743
 20
52.04078545732978
 30
0.0
  0
SEQEND
  5
C6
330
C1
100
AcDbEntity
  8
\U+30EC\U+30A4\U+30E4\U+30FC 1
370
    18
  0
POLYLINE
  5
C7
330
1F
100
AcDbEntity
  8
\U+30EC\U+30A4\U+30E4\U+30FC 1
 62
     7
370
    18
100
AcDb2dPolyline
 66
     1
 10
0.0
 20
0.0
 30
0.0
  0
VERTEX
  5
C8
330
C7
100
AcDbEntity
  8
\U+30EC\U+30A4\U+30E4\U+30FC 1
 62
     7
370
    18
100
AcDbVertex
100
AcDb2dVertex
 10
10.78711784484174
 20
52.04078545732978
 30
0.0
  0
VERTEX
  5
423
330
C7
100
AcDbEntity
  8
0
100
AcDbVertex
100
AcDb2dVertex
 10
10.78711784484174
 20
52.04078545732978
 30
0.0
  0
SEQEND
  5
C9
330
C7
100
AcDbEntity
  8
\U+30EC\U+30A4\U+30E4\U+30FC 1
370
    18
  0
POLYLINE
  5
CA
330
1F
100
AcDbEntity
  8
\U+30EC\U+30A4\U+30E4\U+30FC 1
370
     0
100
AcDb2dPolyline
 66
     1
 10
0.0
 20
0.0
 30
0.0
  0
VERTEX
  5
CB
330
CA
100
AcDbEntity
  8
\U+30EC\U+30A4\U+30E4\U+30FC 1
370
     0
100
AcDbVertex
100
AcDb2dVertex
 10
10.78711784484174
 20
52.04078545732978
 30
0.0
  0
VERTEX
  5
CC
330
CA
100
AcDbEntity
  8
\U+30EC\U+30A4\U+30E4\U+30FC 1
370
     0
100
AcDbVertex
100
AcDb2dVertex
 10
10.86721636771435
 20
51.64012058807883
 30
0.0
  0
VERTEX
  5
CD
330
CA
100
AcDbEntity
  8
\U+30EC\U+30A4\U+30E4\U+30FC 1
370
     0
100
AcDbVertex
100
AcDb2dVertex
 10
10.70770834152072
 20
51.64012058807883
 30
0.0
  0
VERTEX
  5
CE
330
CA
100
AcDbEntity
  8
\U+30EC\U+30A4\U+30E4\U+30FC 1
370
     0
100
AcDbVertex
100
AcDb2dVertex
 10
10.78711784484174
 20
52.04078545732978
 30
0.0
  0
SEQEND
  5
CF
330
CA
100
AcDbEntity
  8
\U+30EC\U+30A4\U+30E4\U+30FC 1
370
     0
  0
HATCH
  5
D0
330
1F
100
AcDbEntity
  8
\U+30EC\U+30A4\U+30E4\U+30FC 1
 62
     7
100
AcDbHatch
 10
0.0
 20
0.0
 30
0.0
210
0.0
220
0.0
230
1.0
  2
SOLID
 70
     1
 71
     0
 91
        1
 92
        1
 93
        3
 72
     1
 10
10.78711784484174
 20
52.04078545732978
 11
10.86721636771435
 21
51.64012058807883
 72
     1
 10
10.86721636771435
 20
51.64012058807883
 11
10.70770834152072
 21
51.64012058807883
 72
     1
 10
10.70770834152072
 20
51.64012058807883
 11
10.78711784484174
 21
52.04078545732978
 97
        0
 75
     2
 76
     1
 98
        0
  0
POLYLINE
  5
D1
330
1F
100
AcDbEntity
  8
\U+30EC\U+30A4\U+30E4\U+30FC 1
 62
     7
370
    18
100
AcDb2dPolyline
 66
     1
 10
0.0
 20
0.0
 30
0.0
  0
VERTEX
  5
D2
330
D1
100
AcDbEntity
  8
\U+30EC\U+30A4\U+30E4\U+30FC 1
 62
     7
370
    18
100
AcDbVertex
100
AcDb2dVertex
 10
10.78711784484174
 20
52.04078545732978
 30
0.0
  0
VERTEX
  5
D3
330
D1
100
AcDbEntity
  8
\U+30EC\U+30A4\U+30E4\U+30FC 1
 62
     7
370
    18
100
AcDbVertex
100
AcDb2dVertex
 10
10.86721636771435
 20
51.64012058807883
 30
0.0
  0
VERTEX
  5
D4
330
D1
100
AcDbEntity
  8
\U+30EC\U+30A4\U+30E4\U+30FC 1
 62
     7
370
    18
100
AcDbVertex
100
AcDb2dVertex
 10
10.70770834152072
 20
51.64012058807883
 30
0.0
  0
VERTEX
  5
D5
330
D1
100
AcDbEntity
  8
\U+30EC\U+30A4\U+30E4\U+30FC 1
 62
     7
370
    18
100
AcDbVertex
100
AcDb2dVertex
 10
10.78711784484174
 20
52.04078545732978
 30
0.0
  0
SEQEND
  5
D6
330
D1
100
AcDbEntity
  8
\U+30EC\U+30A4\U+30E4\U+30FC 1
370
    18
  0
POLYLINE
  5
D7
330
1F
100
AcDbEntity
  8
\U+30EC\U+30A4\U+30E4\U+30FC 1
 62
     7
370
    18
100
AcDb2dPolyline
 66
     1
 10
0.0
 20
0.0
 30
0.0
  0
VERTEX
  5
D8
330
D7
100
AcDbEntity
  8
\U+30EC\U+30A4\U+30E4\U+30FC 1
 62
     7
370
    18
100
AcDbVertex
100
AcDb2dVertex
 10
10.78711784484174
 20
39.83377057154412
 30
0.0
  0
VERTEX
  5
424
330
D7
100
AcDbEntity
  8
0
100
AcDbVertex
100
AcDb2dVertex
 10
10.78711784484174
 20
39.83377057154412
 30
0.0
  0
SEQEND
  5
D9
330
D7
100
AcDbEntity
  8
\U+30EC\U+30A4\U+30E4\U+30FC 1
370
    18
  0
POLYLINE
  5
DA
330
1F
100
AcDbEntity
  8
\U+30EC\U+30A4\U+30E4\U+30FC 1
370
     0
100
AcDb2dPolyline
 66
     1
 10
0.0
 20
0.0
 30
0.0
  0
VERTEX
  5
DB
330
DA
100
AcDbEntity
  8
\U+30EC\U+30A4\U+30E4\U+30FC 1
370
     0
100
AcDbVertex
100
AcDb2dVertex
 10
10.78711784484174
 20
39.83377057154412
 30
0.0
  0
VERTEX
  5
DC
330
DA
100
AcDbEntity
  8
\U+30EC\U+30A4\U+30E4\U+30FC 1
370
     0
100
AcDbVertex
100
AcDb2dVertex
 10
10.70770834152072
 20
40.23443544079507
 30
0.0
  0
VERTEX
  5
DD
330
DA
100
AcDbEntity
  8
\U+30EC\U+30A4\U+30E4\U+30FC 1
370
     0
100
AcDbVertex
100
AcDb2dVertex
 10
10.86721636771435
 20
40.23443544079507
 30
0.0
  0
VERTEX
  5
DE
330
DA
100
AcDbEntity
  8
\U+30EC\U+30A4\U+30E4\U+30FC 1
370
     0
100
AcDbVertex
100
AcDb2dVertex
 10
10.78711784484174
 20
39.83377057154412
 30
0.0
  0
SEQEND
  5
DF
330
DA
100
AcDbEntity
  8
\U+30EC\U+30A4\U+30E4\U+30FC 1
370
     0
  0
HATCH
  5
E0
330
1F
100
AcDbEntity
  8
\U+30EC\U+30A4\U+30E4\U+30FC 1
 62
     7
100
AcDbHatch
 10
0.0
 20
0.0
 30
0.0
210
0.0
220
0.0
230
1.0
  2
SOLID
 70
     1
 71
     0
 91
        1
 92
        1
 93
        3
 72
     1
 10
10.78711784484174
 20
39.83377057154412
 11
10.70770834152072
 21
40.23443544079507
 72
     1
 10
10.70770834152072
 20
40.23443544079507
 11
10.86721636771435
 21
40.23443544079507
 72
     1
 10
10.86721636771435
 20
40.23443544079507
 11
10.78711784484174
 21
39.83377057154412
 97
        0
 75
     2
 76
     1
 98
        0
  0
POLYLINE
  5
E1
330
1F
100
AcDbEntity
  8
\U+30EC\U+30A4\U+30E4\U+30FC 1
 62
     7
370
    18
100
AcDb2dPolyline
 66
     1
 10
0.0
 20
0.0
 30
0.0
  0
VERTEX
  5
E2
330
E1
100
AcDbEntity
  8
\U+30EC\U+30A4\U+30E4\U+30FC 1
 62
     7
370
    18
100
AcDbVertex
100
AcDb2dVertex
 10
10.78711784484174
 20
39.83377057154412
 30
0.0
  0
VERTEX
  5
E3
330
E1
100
AcDbEntity
  8
\U+30EC\U+30A4\U+30E4\U+30FC 1
 62
     7
370
    18
100
AcDbVertex
100
AcDb2dVertex
 10
10.70770834152072
 20
40.23443544079507
 30
0.0
  0
VERTEX
  5
E4
330
E1
100
AcDbEntity
  8
\U+30EC\U+30A4\U+30E4\U+30FC 1
 62
     7
370
    18
100
AcDbVertex
100
AcDb2dVertex
 10
10.86721636771435
 20
40.23443544079507
 30
0.0
  0
VERTEX
  5
E5
330
E1
100
AcDbEntity
  8
\U+30EC\U+30A4\U+30E4\U+30FC 1
 62
     7
370
    18
100
AcDbVertex
100
AcDb2dVertex
 10
10.78711784484174
 20
39.83377057154412
 30
0.0
  0
SEQEND
  5
E6
330
E1
100
AcDbEntity
  8
\U+30EC\U+30A4\U+30E4\U+30FC 1
370
    18
  0
POLYLINE
  5
E7
330
1F
100
AcDbEntity
  8
\U+30EC\U+30A4\U+30E4\U+30FC 1
 62
     7
370
    18
100
AcDb2dPolyline
 66
     1
 10
0.0
 20
0.0
 30
0.0
  0
VERTEX
  5
E8
330
E7
100
AcDbEntity
  8
\U+30EC\U+30A4\U+30E4\U+30FC 1
 62
     7
370
    18
100
AcDbVertex
100
AcDb2dVertex
 10
49.22045617777444
 20
52.04078545732978
 30
0.0
  0
VERTEX
  5
425
330
E7
100
AcDbEntity
  8
0
100
AcDbVertex
100
AcDb2dVertex
 10
49.22045617777444
 20
52.04078545732978
 30
0.0
  0
SEQEND
  5
E9
330
E7
100
AcDbEntity
  8
\U+30EC\U+30A4\U+30E4\U+30FC 1
370
    18
  0
POLYLINE
  5
EA
330
1F
100
AcDbEntity
  8
\U+30EC\U+30A4\U+30E4\U+30FC 1
370
     0
100
AcDb2dPolyline
 66
     1
 10
0.0
 20
0.0
 30
0.0
  0
VERTEX
  5
EB
330
EA
100
AcDbEntity
  8
\U+30EC\U+30A4\U+30E4\U+30FC 1
370
     0
100
AcDbVertex
100
AcDb2dVertex
 10
49.22045617777444
 20
52.04078545732978
 30
0.0
  0
VERTEX
  5
EC
330
EA
100
AcDbEntity
  8
\U+30EC\U+30A4\U+30E4\U+30FC 1
370
     0
100
AcDbVertex
100
AcDb2dVertex
 10
49.29108068181265
 20
51.64012058807883
 30
0.0
  0
VERTEX
  5
ED
330
EA
100
AcDbEntity
  8
\U+30EC\U+30A4\U+30E4\U+30FC 1
370
     0
100
AcDbVertex
100
AcDb2dVertex
 10
49.15052069328782
 20
51.64012058807883
 30
0.0
  0
VERTEX
  5
EE
330
EA
100
AcDbEntity
  8
\U+30EC\U+30A4\U+30E4\U+30FC 1
370
     0
100
AcDbVertex
100
AcDb2dVertex
 10
49.22045617777444
 20
52.04078545732978
 30
0.0
  0
SEQEND
  5
EF
330
EA
100
AcDbEntity
  8
\U+30EC\U+30A4\U+30E4\U+30FC 1
370
     0
  0
HATCH
  5
F0
330
1F
100
AcDbEntity
  8
\U+30EC\U+30A4\U+30E4\U+30FC 1
 62
     7
100
AcDbHatch
 10
0.0
 20
0.0
 30
0.0
210
0.0
220
0.0
230
1.0
  2
SOLID
 70
     1
 71
     0
 91
        1
 92
        1
 93
        3
 72
     1
 10
49.22045617777444
 20
52.04078545732978
 11
49.29108068181265
 21
51.64012058807883
 72
     1
 10
49.29108068181265
 20
51.64012058807883
 11
49.15052069328782
 21
51.64012058807883
 72
     1
 10
49.15052069328782
 20
51.64012058807883
 11
49.22045617777444
 21
52.04078545732978
 97
        0
 75
     2
 76
     1
 98
        0
  0
POLYLINE
  5
F1
330
1F
100
AcDbEntity
  8
\U+30EC\U+30A4\U+30E4\U+30FC 1
 62
     7
370
    18
100
AcDb2dPolyline
 66
     1
 10
0.0
 20
0.0
 30
0.0
  0
VERTEX
  5
F2
330
F1
100
AcDbEntity
  8
\U+30EC\U+30A4\U+30E4\U+30FC 1
 62
     7
370
    18
100
AcDbVertex
100
AcDb2dVertex
 10
49.22045617777444
 20
52.04078545732978
 30
0.0
  0
VERTEX
  5
F3
330
F1
100
AcDbEntity
  8
\U+30EC\U+30A4\U+30E4\U+30FC 1
 62
     7
370
    18
100
AcDbVertex
100
AcDb2dVertex
 10
49.29108068181265
 20
51.64012058807883
 30
0.0
  0
VERTEX
  5
F4
330
F1
100
AcDbEntity
  8
\U+30EC\U+30A4\U+30E4\U+30FC 1
 62
     7
370
    18
100
AcDbVertex
100
AcDb2dVertex
 10
49.15052069328782
 20
51.64012058807883
 30
0.0
  0
VERTEX
  5
F5
330
F1
100
AcDbEntity
  8
\U+30EC\U+30A4\U+30E4\U+30FC 1
 62
     7
370
    18
100
AcDbVertex
100
AcDb2dVertex
 10
49.22045617777444
 20
52.04078545732978
 30
0.0
  0
SEQEND
  5
F6
330
F1
100
AcDbEntity
  8
\U+30EC\U+30A4\U+30E4\U+30FC 1
370
    18
  0
POLYLINE
  5
F7
330
1F
100
AcDbEntity
  8
\U+30EC\U+30A4\U+30E4\U+30FC 1
 62
     7
370
    18
100
AcDb2dPolyline
 66
     1
 10
0.0
 20
0.0
 30
0.0
  0
VERTEX
  5
F8
330
F7
100
AcDbEntity
  8
\U+30EC\U+30A4\U+30E4\U+30FC 1
 62
     7
370
    18
100
AcDbVertex
100
AcDb2dVertex
 10
49.22045617777444
 20
41.22886290863071
 30
0.0
  0
VERTEX
  5
426
330
F7
100
AcDbEntity
  8
0
100
AcDbVertex
100
AcDb2dVertex
 10
49.22045617777444
 20
41.22886290863071
 30
0.0
  0
SEQEND
  5
F9
330
F7
100
AcDbEntity
  8
\U+30EC\U+30A4\U+30E4\U+30FC 1
370
    18
  0
POLYLINE
  5
FA
330
1F
100
AcDbEntity
  8
\U+30EC\U+30A4\U+30E4\U+30FC 1
370
     0
100
AcDb2dPolyline
 66
     1
 10
0.0
 20
0.0
 30
0.0
  0
VERTEX
  5
FB
330
FA
100
AcDbEntity
  8
\U+30EC\U+30A4\U+30E4\U+30FC 1
370
     0
100
AcDbVertex
100
AcDb2dVertex
 10
49.22045617777444
 20
41.22886290863071
 30
0.0
  0
VERTEX
  5
FC
330
FA
100
AcDbEntity
  8
\U+30EC\U+30A4\U+30E4\U+30FC 1
370
     0
100
AcDbVertex
100
AcDb2dVertex
 10
49.15052069328782
 20
41.62918326810586
 30
0.0
  0
VERTEX
  5
FD
330
FA
100
AcDbEntity
  8
\U+30EC\U+30A4\U+30E4\U+30FC 1
370
     0
100
AcDbVertex
100
AcDb2dVertex
 10
49.29108068181265
 20
41.62918326810586
 30
0.0
  0
VERTEX
  5
FE
330
FA
100
AcDbEntity
  8
\U+30EC\U+30A4\U+30E4\U+30FC 1
370
     0
100
AcDbVertex
100
AcDb2dVertex
 10
49.22045617777444
 20
41.22886290863071
 30
0.0
  0
SEQEND
  5
FF
330
FA
100
AcDbEntity
  8
\U+30EC\U+30A4\U+30E4\U+30FC 1
370
     0
  0
HATCH
  5
100
330
1F
100
AcDbEntity
  8
\U+30EC\U+30A4\U+30E4\U+30FC 1
 62
     7
100
AcDbHatch
 10
0.0
 20
0.0
 30
0.0
210
0.0
220
0.0
230
1.0
  2
SOLID
 70
     1
 71
     0
 91
        1
 92
        1
 93
        3
 72
     1
 10
49.22045617777444
 20
41.22886290863071
 11
49.15052069328782
 21
41.62918326810586
 72
     1
 10
49.15052069328782
 20
41.62918326810586
 11
49.29108068181265
 21
41.62918326810586
 72
     1
 10
49.29108068181265
 20
41.62918326810586
 11
49.22045617777444
 21
41.22886290863071
 97
        0
 75
     2
 76
     1
 98
        0
  0
POLYLINE
  5
101
330
1F
100
AcDbEntity
  8
\U+30EC\U+30A4\U+30E4\U+30FC 1
 62
     7
370
    18
100
AcDb2dPolyline
 66
     1
 10
0.0
 20
0.0
 30
0.0
  0
VERTEX
  5
102
330
101
100
AcDbEntity
  8
\U+30EC\U+30A4\U+30E4\U+30FC 1
 62
     7
370
    18
100
AcDbVertex
100
AcDb2dVertex
 10
49.22045617777444
 20
41.22886290863071
 30
0.0
  0
VERTEX
  5
103
330
101
100
AcDbEntity
  8
\U+30EC\U+30A4\U+30E4\U+30FC 1
 62
     7
370
    18
100
AcDbVertex
100
AcDb2dVertex
 10
49.15052069328782
 20
41.62918326810586
 30
0.0
  0
VERTEX
  5
104
330
101
100
AcDbEntity
  8
\U+30EC\U+30A4\U+30E4\U+30FC 1
 62
     7
370
    18
100
AcDbVertex
100
AcDb2dVertex
 10
49.29108068181265
 20
41.62918326810586
 30
0.0
  0
VERTEX
  5
105
330
101
100
AcDbEntity
  8
\U+30EC\U+30A4\U+30E4\U+30FC 1
 62
     7
370
    18
100
AcDbVertex
100
AcDb2dVertex
 10
49.22045617777444
 20
41.22886290863071
 30
0.0
  0
SEQEND
  5
106
330
101
100
AcDbEntity
  8
\U+30EC\U+30A4\U+30E4\U+30FC 1
370
    18
  0
POLYLINE
  5
107
330
1F
100
AcDbEntity
  8
\U+30EC\U+30A4\U+30E4\U+30FC 1
 62
     7
370
    18
100
AcDb2dPolyline
 66
     1
 10
0.0
 20
0.0
 30
0.0
  0
VERTEX
  5
108
330
107
100
AcDbEntity
  8
\U+30EC\U+30A4\U+30E4\U+30FC 1
 62
     7
370
    18
100
AcDbVertex
100
AcDb2dVertex
 10
29.29986741191257
 20
39.88975341011101
 30
0.0
  0
VERTEX
  5
109
330
107
100
AcDbEntity
  8
\U+30EC\U+30A4\U+30E4\U+30FC 1
 62
     7
370
    18
100
AcDbVertex
100
AcDb2dVertex
 10
33.26930904863602
 20
39.88975341011101
 30
0.0
  0
SEQEND
  5
10A
330
107
100
AcDbEntity
  8
\U+30EC\U+30A4\U+30E4\U+30FC 1
370
    18
  0
POLYLINE
  5
10B
330
1F
100
AcDbEntity
  8
\U+30EC\U+30A4\U+30E4\U+30FC 1
 62
     7
370
    18
100
AcDb2dPolyline
 66
     1
 10
0.0
 20
0.0
 30
0.0
  0
VERTEX
  5
10C
330
10B
100
AcDbEntity
  8
\U+30EC\U+30A4\U+30E4\U+30FC 1
 62
     7
370
    18
100
AcDbVertex
100
AcDb2dVertex
 10
33.42296040864112
 20
40.05322329872629
 30
0.0
  0
VERTEX
  5
10D
330
10B
100
AcDbEntity
  8
\U+30EC\U+30A4\U+30E4\U+30FC 1
 62
     7
370
    18
100
AcDbVertex
100
AcDb2dVertex
 10
29.14673281657117
 20
40.05322329872629
 30
0.0
  0
SEQEND
  5
10E
330
10B
100
AcDbEntity
  8
\U+30EC\U+30A4\U+30E4\U+30FC 1
370
    18
  0
POLYLINE
  5
10F
330
1F
100
AcDbEntity
  8
\U+30EC\U+30A4\U+30E4\U+30FC 1
 62
     7
370
    18
100
AcDb2dPolyline
 66
     1
 10
0.0
 20
0.0
 30
0.0
  0
VERTEX
  5
110
330
10F
100
AcDbEntity
  8
\U+30EC\U+30A4\U+30E4\U+30FC 1
 62
     7
370
    18
100
AcDbVertex
100
AcDb2dVertex
 10
18.07005450517275
 20
45.51628706841403
 30
0.0
  0
VERTEX
  5
111
330
10F
100
AcDbEntity
  8
\U+30EC\U+30A4\U+30E4\U+30FC 1
 62
     7
370
    18
100
AcDbVertex
100
AcDb2dVertex
 10
44.49929421026374
 20
45.51628706841403
 30
0.0
  0
SEQEND
  5
112
330
10F
100
AcDbEntity
  8
\U+30EC\U+30A4\U+30E4\U+30FC 1
370
    18
  0
POLYLINE
  5
113
330
1F
100
AcDbEntity
  8
\U+30EC\U+30A4\U+30E4\U+30FC 1
 62
     7
370
    18
100
AcDb2dPolyline
 66
     1
 10
0.0
 20
0.0
 30
0.0
  0
VERTEX
  5
114
330
113
100
AcDbEntity
  8
\U+30EC\U+30A4\U+30E4\U+30FC 1
 62
     7
370
    18
100
AcDbVertex
100
AcDb2dVertex
 10
18.07005450517275
 20
51.97446732548902
 30
0.0
  0
VERTEX
  5
115
330
113
100
AcDbEntity
  8
\U+30EC\U+30A4\U+30E4\U+30FC 1
 62
     7
370
    18
100
AcDbVertex
100
AcDb2dVertex
 10
44.49929421026374
 20
51.97446732548902
 30
0.0
  0
SEQEND
  5
116
330
113
100
AcDbEntity
  8
\U+30EC\U+30A4\U+30E4\U+30FC 1
370
    18
  0
SPLINE
  5
117
330
1F
100
AcDbEntity
  8
\U+30EC\U+30A4\U+30E4\U+30FC 1
 62
     7
370
    18
100
AcDbSpline
210
0.0
220
0.0
230
1.0
 70
    11
 71
     3
 72
    20
 73
    16
 74
     0
 42
0.0000000001
 43
0.0000000001
 40
0.0
 40
0.0
 40
0.0
 40
0.0
 40
1.0
 40
1.0
 40
1.0
 40
2.0
 40
2.0
 40
2.0
 40
3.0
 40
3.0
 40
3.0
 40
4.0
 40
4.0
 40
4.0
 40
5.0
 40
5.0
 40
5.0
 40
5.0
 10
31.28493274005009
 20
5.726786003059715
 30
0.0
 10
31.28493274005009
 20
5.726786003059715
 30
0.0
 10
31.28493274005009
 20
5.726786003059715
 30
0.0
 10
31.28493274005009
 20
5.726786003059715
 30
0.0
 10
38.53410744235308
 20
5.726786003059715
 30
0.0
 10
44.41798990317584
 20
11.61066846388248
 30
0.0
 10
44.41798990317584
 20
18.86018767596126
 30
0.0
 10
44.41798990317584
 20
26.11005139781584
 30
0.0
 10
38.53410744235308
 20
31.99376160375071
 30
0.0
 10
31.28493274005009
 20
31.99376160375071
 30
0.0
 10
24.03472450841972
 20
31.99376160375071
 30
0.0
 10
18.15118655737275
 20
26.11005139781584
 30
0.0
 10
18.15118655737275
 20
18.86018767596126
 30
0.0
 10
18.15118655737275
 20
11.61066846388248
 30
0.0
 10
24.03472450841972
 20
5.726786003059715
 30
0.0
 10
31.28493274005009
 20
5.726786003059715
 30
0.0
  0
SPLINE
  5
118
330
1F
100
AcDbEntity
  8
\U+30EC\U+30A4\U+30E4\U+30FC 1
 62
     7
370
    18
100
AcDbSpline
210
0.0
220
0.0
230
1.0
 70
    11
 71
     3
 72
    20
 73
    16
 74
     0
 42
0.0000000001
 43
0.0000000001
 40
0.0
 40
0.0
 40
0.0
 40
0.0
 40
1.0
 40
1.0
 40
1.0
 40
2.0
 40
2.0
 40
2.0
 40
3.0
 40
3.0
 40
3.0
 40
4.0
 40
4.0
 40
4.0
 40
5.0
 40
5.0
 40
5.0
 40
5.0
 10
31.28493274005009
 20
11.39190475625191
 30
0.0
 10
31.28493274005009
 20
11.39190475625191
 30
0.0
 10
31.28493274005009
 20
11.39190475625191
 30
0.0
 10
31.28493274005009
 20
11.39190475625191
 30
0.0
 10
35.40699220745125
 20
11.39190475625191
 30
0.0
 10
38.75252664020785
 20
14.7381282085601
 30
0.0
 10
38.75252664020785
 20
18.86018767596126
 30
0.0
 10
38.75252664020785
 20
22.98328067268981
 30
0.0
 10
35.40699220745125
 20
26.32881510544641
 30
0.0
 10
31.28493274005009
 20
26.32881510544641
 30
0.0
 10
27.16149523354575
 20
26.32881510544641
 30
0.0
 10
23.81613305567705
 20
22.98328067268981
 30
0.0
 10
23.81613305567705
 20
18.86018767596126
 30
0.0
 10
23.81613305567705
 20
14.7381282085601
 30
0.0
 10
27.16149523354575
 20
11.39190475625191
 30
0.0
 10
31.28493274005009
 20
11.39190475625191
 30
0.0
  0
SPLINE
  5
119
330
1F
100
AcDbEntity
  8
\U+30EC\U+30A4\U+30E4\U+30FC 1
 62
     7
370
    18
100
AcDbSpline
210
0.0
220
0.0
230
1.0
 70
    11
 71
     3
 72
    20
 73
    16
 74
     0
 42
0.0000000001
 43
0.0000000001
 40
0.0
 40
0.0
 40
0.0
 40
0.0
 40
1.0
 40
1.0
 40
1.0
 40
2.0
 40
2.0
 40
2.0
 40
3.0
 40
3.0
 40
3.0
 40
4.0
 40
4.0
 40
4.0
 40
5.0
 40
5.0
 40
5.0
 40
5.0
 10
31.28493274005009
 20
16.48065865453713
 30
0.0
 10
31.28493274005009
 20
16.48065865453713
 30
0.0
 10
31.28493274005009
 20
16.48065865453713
 30
0.0
 10
31.28493274005009
 20
16.48065865453713
 30
0.0
 10
32.59820400538509
 20
16.48065865453713
 30
0.0
 10
33.66446176147423
 20
17.54657190085047
 30
0.0
 10
33.66446176147423
 20
18.86018767596126
 30
0.0
 10
33.66446176147423
 20
20.17414796084785
 30
0.0
 10
32.59820400538509
 20
21.24040571693699
 30
0.0
 10
31.28493274005009
 20
21.24040571693699
 30
0.0
 10
29.97080020027561
 20
21.24040571693699
 30
0.0
 10
28.90437018929856
 20
20.17414796084785
 30
0.0
 10
28.90437018929856
 20
18.86018767596126
 30
0.0
 10
28.90437018929856
 20
17.54657190085047
 30
0.0
 10
29.97080020027561
 20
16.48065865453713
 30
0.0
 10
31.28493274005009
 20
16.48065865453713
 30
0.0
  0
SPLINE
  5
11A
330
1F
100
AcDbEntity
  8
\U+30EC\U+30A4\U+30E4\U+30FC 1
 62
     7
370
    18
100
AcDbSpline
210
0.0
220
0.0
230
1.0
 70
    11
 71
     3
 72
    20
 73
    16
 74
     0
 42
0.0000000001
 43
0.0000000001
 40
0.0
 40
0.0
 40
0.0
 40
0.0
 40
1.0
 40
1.0
 40
1.0
 40
2.0
 40
2.0
 40
2.0
 40
3.0
 40
3.0
 40
3.0
 40
4.0
 40
4.0
 40
4.0
 40
5.0
 40
5.0
 40
5.0
 40
5.0
 10
31.28493274005009
 20
16.60261511516897
 30
0.0
 10
31.28493274005009
 20
16.60261511516897
 30
0.0
 10
31.28493274005009
 20
16.60261511516897
 30
0.0
 10
31.28493274005009
 20
16.60261511516897
 30
0.0
 10
32.53102459910484
 20
16.60261511516897
 30
0.0
 10
33.54250530084239
 20
17.61375130713072
 30
0.0
 10
33.54250530084239
 20
18.86018767596126
 30
0.0
 10
33.54250530084239
 20
20.1066240447918
 30
0.0
 10
32.53102459910484
 20
21.11879376608095
 30
0.0
 10
31.28493274005009
 20
21.11879376608095
 30
0.0
 10
30.03815186144376
 20
21.11879376608095
 30
0.0
 10
29.02667115970621
 20
20.1066240447918
 30
0.0
 10
29.02667115970621
 20
18.86018767596126
 30
0.0
 10
29.02667115970621
 20
17.61375130713072
 30
0.0
 10
30.03815186144376
 20
16.60261511516897
 30
0.0
 10
31.28493274005009
 20
16.60261511516897
 30
0.0
  0
SPLINE
  5
11B
330
1F
100
AcDbEntity
  8
\U+30EC\U+30A4\U+30E4\U+30FC 1
 62
     7
370
    18
100
AcDbSpline
210
0.0
220
0.0
230
1.0
 70
    11
 71
     3
 72
    20
 73
    16
 74
     0
 42
0.0000000001
 43
0.0000000001
 40
0.0
 40
0.0
 40
0.0
 40
0.0
 40
1.0
 40
1.0
 40
1.0
 40
2.0
 40
2.0
 40
2.0
 40
3.0
 40
3.0
 40
3.0
 40
4.0
 40
4.0
 40
4.0
 40
5.0
 40
5.0
 40
5.0
 40
5.0
 10
31.28493274005009
 20
17.22273271160207
 30
0.0
 10
31.28493274005009
 20
17.22273271160207
 30
0.0
 10
31.28493274005009
 20
17.22273271160207
 30
0.0
 10
31.28493274005009
 20
17.22273271160207
 30
0.0
 10
32.18858188196344
 20
17.22273271160207
 30
0.0
 10
32.92204319463349
 20
17.95653853404791
 30
0.0
 10
32.92204319463349
 20
18.86018767596126
 30
0.0
 10
32.92204319463349
 20
19.76452583742621
 30
0.0
 10
32.18858188196344
 20
20.49764264032045
 30
0.0
 10
31.28493274005009
 20
20.49764264032045
 30
0.0
 10
30.38025006880935
 20
20.49764264032045
 30
0.0
 10
29.64696101102721
 20
19.76452583742621
 30
0.0
 10
29.64696101102721
 20
18.86018767596126
 30
0.0
 10
29.64696101102721
 20
17.95653853404791
 30
0.0
 10
30.38025006880935
 20
17.22273271160207
 30
0.0
 10
31.28493274005009
 20
17.22273271160207
 30
0.0
  0
POLYLINE
  5
11C
330
1F
100
AcDbEntity
  8
\U+30EC\U+30A4\U+30E4\U+30FC 1
  6
AI-Linetype-1
 62
     7
370
    18
100
AcDb2dPolyline
 66
     1
 10
0.0
 20
0.0
 30
0.0
  0
VERTEX
  5
11D
330
11C
100
AcDbEntity
  8
\U+30EC\U+30A4\U+30E4\U+30FC 1
  6
AI-Linetype-1
 62
     7
370
    18
100
AcDbVertex
100
AcDb2dVertex
 10
18.73065200026191
 20
46.17671230861529
 30
0.0
  0
VERTEX
  5
11E
330
11C
100
AcDbEntity
  8
\U+30EC\U+30A4\U+30E4\U+30FC 1
  6
AI-Linetype-1
 62
     7
370
    18
100
AcDbVertex
100
AcDb2dVertex
 10
18.73065200026191
 20
50.8511932015056
 30
0.0
  0
SEQEND
  5
11F
330
11C
100
AcDbEntity
  8
\U+30EC\U+30A4\U+30E4\U+30FC 1
  6
AI-Linetype-1
370
    18
  0
POLYLINE
  5
121
330
1F
100
AcDbEntity
  8
\U+30EC\U+30A4\U+30E4\U+30FC 1
  6
AI-Linetype-2
 62
     7
370
    18
100
AcDb2dPolyline
 66
     1
 10
0.0
 20
0.0
 30
0.0
  0
VERTEX
  5
122
330
121
100
AcDbEntity
  8
\U+30EC\U+30A4\U+30E4\U+30FC 1
  6
AI-Linetype-2
 62
     7
370
    18
100
AcDbVertex
100
AcDb2dVertex
 10
19.72180662522748
 20
46.04476506448535
 30
0.0
  0
VERTEX
  5
123
330
121
100
AcDbEntity
  8
\U+30EC\U+30A4\U+30E4\U+30FC 1
  6
AI-Linetype-2
 62
     7
370
    18
100
AcDbVertex
100
AcDb2dVertex
 10
19.72180662522748
 20
45.51628706841403
 30
0.0
  0
SEQEND
  5
124
330
121
100
AcDbEntity
  8
\U+30EC\U+30A4\U+30E4\U+30FC 1
  6
AI-Linetype-2
370
    18
  0
POLYLINE
  5
126
330
1F
100
AcDbEntity
  8
\U+30EC\U+30A4\U+30E4\U+30FC 1
  6
AI-Linetype-3
 62
     7
370
    18
100
AcDb2dPolyline
 66
     1
 10
0.0
 20
0.0
 30
0.0
  0
VERTEX
  5
127
330
126
100
AcDbEntity
  8
\U+30EC\U+30A4\U+30E4\U+30FC 1
  6
AI-Linetype-3
 62
     7
370
    18
100
AcDbVertex
100
AcDb2dVertex
 10
32.80456536108699
 20
39.89991644849699
 30
0.0
  0
VERTEX
  5
128
330
126
100
AcDbEntity
  8
\U+30EC\U+30A4\U+30E4\U+30FC 1
  6
AI-Linetype-3
 62
     7
370
    18
100
AcDbVertex
100
AcDb2dVertex
 10
29.76512786412529
 20
39.89991644849699
 30
0.0
  0
SEQEND
  5
129
330
126
100
AcDbEntity
  8
\U+30EC\U+30A4\U+30E4\U+30FC 1
  6
AI-Linetype-3
370
    18
  0
POLYLINE
  5
12B
330
1F
100
AcDbEntity
  8
\U+30EC\U+30A4\U+30E4\U+30FC 1
  6
AI-Linetype-4
 62
     7
370
    18
100
AcDb2dPolyline
 66
     1
 10
0.0
 20
0.0
 30
0.0
  0
VERTEX
  5
12C
330
12B
100
AcDbEntity
  8
\U+30EC\U+30A4\U+30E4\U+30FC 1
  6
AI-Linetype-4
 62
     7
370
    18
100
AcDbVertex
100
AcDb2dVertex
 10
32.80456536108699
 20
40.39032611434283
 30
0.0
  0
VERTEX
  5
12D
330
12B
100
AcDbEntity
  8
\U+30EC\U+30A4\U+30E4\U+30FC 1
  6
AI-Linetype-4
 62
     7
370
    18
100
AcDbVertex
100
AcDb2dVertex
 10
29.76512786412529
 20
40.39032611434283
 30
0.0
  0
SEQEND
  5
12E
330
12B
100
AcDbEntity
  8
\U+30EC\U+30A4\U+30E4\U+30FC 1
  6
AI-Linetype-4
370
    18
  0
POLYLINE
  5
130
330
1F
100
AcDbEntity
  8
\U+30EC\U+30A4\U+30E4\U+30FC 1
  6
AI-Linetype-5
 62
     7
370
    18
100
AcDb2dPolyline
 66
     1
 10
0.0
 20
0.0
 30
0.0
  0
VERTEX
  5
131
330
130
100
AcDbEntity
  8
\U+30EC\U+30A4\U+30E4\U+30FC 1
  6
AI-Linetype-5
 62
     7
370
    18
100
AcDbVertex
100
AcDb2dVertex
 10
32.92204319463349
 20
40.64371305444092
 30
0.0
  0
VERTEX
  5
132
330
130
100
AcDbEntity
  8
\U+30EC\U+30A4\U+30E4\U+30FC 1
  6
AI-Linetype-5
 62
     7
370
    18
100
AcDbVertex
100
AcDb2dVertex
 10
29.64696101102721
 20
40.64371305444092
 30
0.0
  0
VERTEX
  5
133
330
130
100
AcDbEntity
  8
\U+30EC\U+30A4\U+30E4\U+30FC 1
  6
AI-Linetype-5
 62
     7
370
    18
100
AcDbVertex
100
AcDb2dVertex
 10
29.02667115970621
 20
41.16392281589313
 30
0.0
  0
SEQEND
  5
134
330
130
100
AcDbEntity
  8
\U+30EC\U+30A4\U+30E4\U+30FC 1
  6
AI-Linetype-5
370
    18
  0
POLYLINE
  5
136
330
1F
100
AcDbEntity
  8
\U+30EC\U+30A4\U+30E4\U+30FC 1
  6
AI-Linetype-6
 62
     7
370
    18
100
AcDb2dPolyline
 66
     1
 10
0.0
 20
0.0
 30
0.0
  0
VERTEX
  5
137
330
136
100
AcDbEntity
  8
\U+30EC\U+30A4\U+30E4\U+30FC 1
  6
AI-Linetype-6
 62
     7
370
    18
100
AcDbVertex
100
AcDb2dVertex
 10
33.54250530084239
 20
41.16392281589313
 30
0.0
  0
VERTEX
  5
138
330
136
100
AcDbEntity
  8
\U+30EC\U+30A4\U+30E4\U+30FC 1
  6
AI-Linetype-6
 62
     7
370
    18
100
AcDbVertex
100
AcDb2dVertex
 10
29.02667115970621
 20
41.16392281589313
 30
0.0
  0
SEQEND
  5
139
330
136
100
AcDbEntity
  8
\U+30EC\U+30A4\U+30E4\U+30FC 1
  6
AI-Linetype-6
370
    18
  0
POLYLINE
  5
13B
330
1F
100
AcDbEntity
  8
\U+30EC\U+30A4\U+30E4\U+30FC 1
  6
AI-Linetype-7
 62
     7
370
    18
100
AcDb2dPolyline
 66
     1
 10
0.0
 20
0.0
 30
0.0
  0
VERTEX
  5
13C
330
13B
100
AcDbEntity
  8
\U+30EC\U+30A4\U+30E4\U+30FC 1
  6
AI-Linetype-7
 62
     7
370
    18
100
AcDbVertex
100
AcDb2dVertex
 10
33.66446176147423
 20
41.22886290863071
 30
0.0
  0
VERTEX
  5
13D
330
13B
100
AcDbEntity
  8
\U+30EC\U+30A4\U+30E4\U+30FC 1
  6
AI-Linetype-7
 62
     7
370
    18
100
AcDbVertex
100
AcDb2dVertex
 10
28.90437018929856
 20
41.22886290863071
 30
0.0
  0
SEQEND
  5
13E
330
13B
100
AcDbEntity
  8
\U+30EC\U+30A4\U+30E4\U+30FC 1
  6
AI-Linetype-7
370
    18
  0
POLYLINE
  5
140
330
1F
100
AcDbEntity
  8
\U+30EC\U+30A4\U+30E4\U+30FC 1
  6
AI-Linetype-8
 62
     7
370
    18
100
AcDb2dPolyline
 66
     1
 10
0.0
 20
0.0
 30
0.0
  0
VERTEX
  5
141
330
140
100
AcDbEntity
  8
\U+30EC\U+30A4\U+30E4\U+30FC 1
  6
AI-Linetype-8
 62
     7
370
    18
100
AcDbVertex
100
AcDb2dVertex
 10
29.7644388445737
 20
39.89991644849699
 30
0.0
  0
VERTEX
  5
142
330
140
100
AcDbEntity
  8
\U+30EC\U+30A4\U+30E4\U+30FC 1
  6
AI-Linetype-8
 62
     7
370
    18
100
AcDbVertex
100
AcDb2dVertex
 10
29.7644388445737
 20
40.39032611434283
 30
0.0
  0
SEQEND
  5
143
330
140
100
AcDbEntity
  8
\U+30EC\U+30A4\U+30E4\U+30FC 1
  6
AI-Linetype-8
370
    18
  0
POLYLINE
  5
145
330
1F
100
AcDbEntity
  8
\U+30EC\U+30A4\U+30E4\U+30FC 1
  6
AI-Linetype-9
 62
     7
370
    18
100
AcDb2dPolyline
 66
     1
 10
0.0
 20
0.0
 30
0.0
  0
VERTEX
  5
146
330
145
100
AcDbEntity
  8
\U+30EC\U+30A4\U+30E4\U+30FC 1
  6
AI-Linetype-9
 62
     7
370
    18
100
AcDbVertex
100
AcDb2dVertex
 10
42.84771434509691
 20
46.04476506448535
 30
0.0
  0
VERTEX
  5
147
330
145
100
AcDbEntity
  8
\U+30EC\U+30A4\U+30E4\U+30FC 1
  6
AI-Linetype-9
 62
     7
370
    18
100
AcDbVertex
100
AcDb2dVertex
 10
19.72180662522748
 20
46.04476506448535
 30
0.0
  0
SEQEND
  5
148
330
145
100
AcDbEntity
  8
\U+30EC\U+30A4\U+30E4\U+30FC 1
  6
AI-Linetype-9
370
    18
  0
POLYLINE
  5
14A
330
1F
100
AcDbEntity
  8
\U+30EC\U+30A4\U+30E4\U+30FC 1
  6
AI-Linetype-10
 62
     7
370
    18
100
AcDb2dPolyline
 66
     1
 10
0.0
 20
0.0
 30
0.0
  0
VERTEX
  5
14B
330
14A
100
AcDbEntity
  8
\U+30EC\U+30A4\U+30E4\U+30FC 1
  6
AI-Linetype-10
 62
     7
370
    18
100
AcDbVertex
100
AcDb2dVertex
 10
43.77237858333383
 20
46.11039417677453
 30
0.0
  0
VERTEX
  5
14C
330
14A
100
AcDbEntity
  8
\U+30EC\U+30A4\U+30E4\U+30FC 1
  6
AI-Linetype-10
 62
     7
370
    18
100
AcDbVertex
100
AcDb2dVertex
 10
18.79697013210266
 20
46.11039417677453
 30
0.0
  0
SEQEND
  5
14D
330
14A
100
AcDbEntity
  8
\U+30EC\U+30A4\U+30E4\U+30FC 1
  6
AI-Linetype-10
370
    18
  0
POLYLINE
  5
14F
330
1F
100
AcDbEntity
  8
\U+30EC\U+30A4\U+30E4\U+30FC 1
  6
AI-Linetype-11
 62
     7
370
    18
100
AcDb2dPolyline
 66
     1
 10
0.0
 20
0.0
 30
0.0
  0
VERTEX
  5
150
330
14F
100
AcDbEntity
  8
\U+30EC\U+30A4\U+30E4\U+30FC 1
  6
AI-Linetype-11
 62
     7
370
    18
100
AcDbVertex
100
AcDb2dVertex
 10
43.83852446028669
 20
46.17671230861529
 30
0.0
  0
VERTEX
  5
151
330
14F
100
AcDbEntity
  8
\U+30EC\U+30A4\U+30E4\U+30FC 1
  6
AI-Linetype-11
 62
     7
370
    18
100
AcDbVertex
100
AcDb2dVertex
 10
18.73065200026191
 20
46.17671230861529
 30
0.0
  0
SEQEND
  5
152
330
14F
100
AcDbEntity
  8
\U+30EC\U+30A4\U+30E4\U+30FC 1
  6
AI-Linetype-11
370
    18
  0
POLYLINE
  5
154
330
1F
100
AcDbEntity
  8
\U+30EC\U+30A4\U+30E4\U+30FC 1
  6
AI-Linetype-12
 62
     7
370
    18
100
AcDb2dPolyline
 66
     1
 10
0.0
 20
0.0
 30
0.0
  0
VERTEX
  5
155
330
154
100
AcDbEntity
  8
\U+30EC\U+30A4\U+30E4\U+30FC 1
  6
AI-Linetype-12
 62
     7
370
    18
100
AcDbVertex
100
AcDb2dVertex
 10
32.80456536108699
 20
39.89974419360909
 30
0.0
  0
VERTEX
  5
156
330
154
100
AcDbEntity
  8
\U+30EC\U+30A4\U+30E4\U+30FC 1
  6
AI-Linetype-12
 62
     7
370
    18
100
AcDbVertex
100
AcDb2dVertex
 10
32.80456536108699
 20
40.39032611434283
 30
0.0
  0
SEQEND
  5
157
330
154
100
AcDbEntity
  8
\U+30EC\U+30A4\U+30E4\U+30FC 1
  6
AI-Linetype-12
370
    18
  0
POLYLINE
  5
159
330
1F
100
AcDbEntity
  8
\U+30EC\U+30A4\U+30E4\U+30FC 1
  6
AI-Linetype-13
 62
     7
370
    18
100
AcDb2dPolyline
 66
     1
 10
0.0
 20
0.0
 30
0.0
  0
VERTEX
  5
15A
330
159
100
AcDbEntity
  8
\U+30EC\U+30A4\U+30E4\U+30FC 1
  6
AI-Linetype-13
 62
     7
370
    18
100
AcDbVertex
100
AcDb2dVertex
 10
32.92204319463349
 20
40.64371305444092
 30
0.0
  0
VERTEX
  5
15B
330
159
100
AcDbEntity
  8
\U+30EC\U+30A4\U+30E4\U+30FC 1
  6
AI-Linetype-13
 62
     7
370
    18
100
AcDbVertex
100
AcDb2dVertex
 10
33.54250530084239
 20
41.16392281589313
 30
0.0
  0
SEQEND
  5
15C
330
159
100
AcDbEntity
  8
\U+30EC\U+30A4\U+30E4\U+30FC 1
  6
AI-Linetype-13
370
    18
  0
POLYLINE
  5
15E
330
1F
100
AcDbEntity
  8
\U+30EC\U+30A4\U+30E4\U+30FC 1
  6
AI-Linetype-14
 62
     7
370
    18
100
AcDb2dPolyline
 66
     1
 10
0.0
 20
0.0
 30
0.0
  0
VERTEX
  5
15F
330
15E
100
AcDbEntity
  8
\U+30EC\U+30A4\U+30E4\U+30FC 1
  6
AI-Linetype-14
 62
     7
370
    18
100
AcDbVertex
100
AcDb2dVertex
 10
43.83852446028669
 20
50.85084869172981
 30
0.0
  0
VERTEX
  5
160
330
15E
100
AcDbEntity
  8
\U+30EC\U+30A4\U+30E4\U+30FC 1
  6
AI-Linetype-14
 62
     7
370
    18
100
AcDbVertex
100
AcDb2dVertex
 10
18.73065200026191
 20
50.85084869172981
 30
0.0
  0
SEQEND
  5
161
330
15E
100
AcDbEntity
  8
\U+30EC\U+30A4\U+30E4\U+30FC 1
  6
AI-Linetype-14
370
    18
  0
POLYLINE
  5
163
330
1F
100
AcDbEntity
  8
\U+30EC\U+30A4\U+30E4\U+30FC 1
  6
AI-Linetype-15
 62
     7
370
    18
100
AcDb2dPolyline
 66
     1
 10
0.0
 20
0.0
 30
0.0
  0
VERTEX
  5
164
330
163
100
AcDbEntity
  8
\U+30EC\U+30A4\U+30E4\U+30FC 1
  6
AI-Linetype-15
 62
     7
370
    18
100
AcDbVertex
100
AcDb2dVertex
 10
43.29178744609817
 20
51.10027376940624
 30
0.0
  0
VERTEX
  5
165
330
163
100
AcDbEntity
  8
\U+30EC\U+30A4\U+30E4\U+30FC 1
  6
AI-Linetype-15
 62
     7
370
    18
100
AcDbVertex
100
AcDb2dVertex
 10
19.27773352422622
 20
51.10027376940624
 30
0.0
  0
SEQEND
  5
166
330
163
100
AcDbEntity
  8
\U+30EC\U+30A4\U+30E4\U+30FC 1
  6
AI-Linetype-15
370
    18
  0
POLYLINE
  5
168
330
1F
100
AcDbEntity
  8
\U+30EC\U+30A4\U+30E4\U+30FC 1
  6
AI-Linetype-16
 62
     7
370
    18
100
AcDb2dPolyline
 66
     1
 10
0.0
 20
0.0
 30
0.0
  0
VERTEX
  5
169
330
168
100
AcDbEntity
  8
\U+30EC\U+30A4\U+30E4\U+30FC 1
  6
AI-Linetype-16
 62
     7
370
    18
100
AcDbVertex
100
AcDb2dVertex
 10
43.50882860484975
 20
51.18123356671833
 30
0.0
  0
VERTEX
  5
16A
330
168
100
AcDbEntity
  8
\U+30EC\U+30A4\U+30E4\U+30FC 1
  6
AI-Linetype-16
 62
     7
370
    18
100
AcDbVertex
100
AcDb2dVertex
 10
19.06086462036253
 20
51.18123356671833
 30
0.0
  0
SEQEND
  5
16B
330
168
100
AcDbEntity
  8
\U+30EC\U+30A4\U+30E4\U+30FC 1
  6
AI-Linetype-16
370
    18
  0
POLYLINE
  5
16D
330
1F
100
AcDbEntity
  8
\U+30EC\U+30A4\U+30E4\U+30FC 1
  6
AI-Linetype-17
 62
     7
370
    18
100
AcDb2dPolyline
 66
     1
 10
0.0
 20
0.0
 30
0.0
  0
VERTEX
  5
16E
330
16D
100
AcDbEntity
  8
\U+30EC\U+30A4\U+30E4\U+30FC 1
  6
AI-Linetype-17
 62
     7
370
    18
100
AcDbVertex
100
AcDb2dVertex
 10
42.84771434509691
 20
46.04442055470956
 30
0.0
  0
VERTEX
  5
16F
330
16D
100
AcDbEntity
  8
\U+30EC\U+30A4\U+30E4\U+30FC 1
  6
AI-Linetype-17
 62
     7
370
    18
100
AcDbVertex
100
AcDb2dVertex
 10
42.84771434509691
 20
45.51577030375034
 30
0.0
  0
SEQEND
  5
170
330
16D
100
AcDbEntity
  8
\U+30EC\U+30A4\U+30E4\U+30FC 1
  6
AI-Linetype-17
370
    18
  0
POLYLINE
  5
172
330
1F
100
AcDbEntity
  8
\U+30EC\U+30A4\U+30E4\U+30FC 1
  6
AI-Linetype-18
 62
     7
370
    18
100
AcDb2dPolyline
 66
     1
 10
0.0
 20
0.0
 30
0.0
  0
VERTEX
  5
173
330
172
100
AcDbEntity
  8
\U+30EC\U+30A4\U+30E4\U+30FC 1
  6
AI-Linetype-18
 62
     7
370
    18
100
AcDbVertex
100
AcDb2dVertex
 10
43.83852446028669
 20
46.17671230861529
 30
0.0
  0
VERTEX
  5
174
330
172
100
AcDbEntity
  8
\U+30EC\U+30A4\U+30E4\U+30FC 1
  6
AI-Linetype-18
 62
     7
370
    18
100
AcDbVertex
100
AcDb2dVertex
 10
43.83852446028669
 20
50.85084869172981
 30
0.0
  0
SEQEND
  5
175
330
172
100
AcDbEntity
  8
\U+30EC\U+30A4\U+30E4\U+30FC 1
  6
AI-Linetype-18
370
    18
  0
SPLINE
  5
177
330
1F
100
AcDbEntity
  8
\U+30EC\U+30A4\U+30E4\U+30FC 1
  6
AI-Linetype-19
 62
     7
370
    18
100
AcDbSpline
210
0.0
220
0.0
230
1.0
 70
     8
 71
     3
 72
    11
 73
     7
 74
     0
 42
0.0000000001
 43
0.0000000001
 40
0.0
 40
0.0
 40
0.0
 40
0.0
 40
1.0
 40
1.0
 40
1.0
 40
2.0
 40
2.0
 40
2.0
 40
2.0
 10
29.7644388445737
 20
40.39032611434283
 30
0.0
 10
29.7644388445737
 20
40.39032611434283
 30
0.0
 10
29.7644388445737
 20
40.39032611434283
 30
0.0
 10
29.7644388445737
 20
40.39032611434283
 30
0.0
 10
29.7644388445737
 20
40.48833914555684
 30
0.0
 10
29.72120286771128
 20
40.58101227524602
 30
0.0
 10
29.64644424636352
 20
40.64371305444092
 30
0.0
  0
SPLINE
  5
179
330
1F
100
AcDbEntity
  8
\U+30EC\U+30A4\U+30E4\U+30FC 1
  6
AI-Linetype-20
 62
     7
370
    18
100
AcDbSpline
210
0.0
220
0.0
230
1.0
 70
     8
 71
     3
 72
    11
 73
     7
 74
     0
 42
0.0000000001
 43
0.0000000001
 40
0.0
 40
0.0
 40
0.0
 40
0.0
 40
1.0
 40
1.0
 40
1.0
 40
2.0
 40
2.0
 40
2.0
 40
2.0
 10
29.02667115970621
 20
41.16392281589313
 30
0.0
 10
29.02667115970621
 20
41.16392281589313
 30
0.0
 10
29.02667115970621
 20
41.16392281589313
 30
0.0
 10
29.02667115970621
 20
41.16392281589313
 30
0.0
 10
28.9908421430234
 20
41.1938951663874
 30
0.0
 10
28.94898420526417
 20
41.21611604692625
 30
0.0
 10
28.90437018929856
 20
41.22886290863071
 30
0.0
  0
SPLINE
  5
17B
330
1F
100
AcDbEntity
  8
\U+30EC\U+30A4\U+30E4\U+30FC 1
  6
AI-Linetype-21
 62
     7
370
    18
100
AcDbSpline
210
0.0
220
0.0
230
1.0
 70
     8
 71
     3
 72
    11
 73
     7
 74
     0
 42
0.0000000001
 43
0.0000000001
 40
0.0
 40
0.0
 40
0.0
 40
0.0
 40
1.0
 40
1.0
 40
1.0
 40
2.0
 40
2.0
 40
2.0
 40
2.0
 10
19.65566074827462
 20
45.44962442679747
 30
0.0
 10
19.65566074827462
 20
45.44962442679747
 30
0.0
 10
19.65566074827462
 20
45.44962442679747
 30
0.0
 10
19.65566074827462
 20
45.44962442679747
 30
0.0
 10
19.69183427473321
 20
45.44962442679747
 30
0.0
 10
19.72180662522748
 20
45.47942452240384
 30
0.0
 10
19.72180662522748
 20
45.51577030375034
 30
0.0
  0
SPLINE
  5
17D
330
1F
100
AcDbEntity
  8
\U+30EC\U+30A4\U+30E4\U+30FC 1
  6
AI-Linetype-22
 62
     7
370
    18
100
AcDbSpline
210
0.0
220
0.0
230
1.0
 70
     8
 71
     3
 72
    11
 73
     7
 74
     0
 42
0.0000000001
 43
0.0000000001
 40
0.0
 40
0.0
 40
0.0
 40
0.0
 40
1.0
 40
1.0
 40
1.0
 40
2.0
 40
2.0
 40
2.0
 40
2.0
 10
29.69898198717243
 20
39.83359831665623
 30
0.0
 10
29.69898198717243
 20
39.83359831665623
 30
0.0
 10
29.69898198717243
 20
39.83359831665623
 30
0.0
 10
29.69898198717243
 20
39.83359831665623
 30
0.0
 10
29.73532776851892
 20
39.83359831665623
 30
0.0
 10
29.7644388445737
 20
39.8632261573747
 30
0.0
 10
29.7644388445737
 20
39.89974419360909
 30
0.0
  0
SPLINE
  5
17F
330
1F
100
AcDbEntity
  8
\U+30EC\U+30A4\U+30E4\U+30FC 1
  6
AI-Linetype-23
 62
     7
370
    18
100
AcDbSpline
210
0.0
220
0.0
230
1.0
 70
     8
 71
     3
 72
    14
 73
    10
 74
     0
 42
0.0000000001
 43
0.0000000001
 40
0.0
 40
0.0
 40
0.0
 40
0.0
 40
1.0
 40
1.0
 40
1.0
 40
2.0
 40
2.0
 40
2.0
 40
3.0
 40
3.0
 40
3.0
 40
3.0
 10
19.27773352422622
 20
51.10027376940624
 30
0.0
 10
19.27773352422622
 20
51.10027376940624
 30
0.0
 10
19.27773352422622
 20
51.10027376940624
 30
0.0
 10
19.27773352422622
 20
51.10027376940624
 30
0.0
 10
19.21761656834979
 20
51.15229474555146
 30
0.0
 10
19.14044637857145
 20
51.18123356671833
 30
0.0
 10
19.06086462036253
 20
51.18123356671833
 30
0.0
 10
18.87844669407846
 20
51.18123356671833
 30
0.0
 10
18.73065200026191
 20
51.03309436312598
 30
0.0
 10
18.73065200026191
 20
50.85084869172981
 30
0.0
  0
SPLINE
  5
181
330
1F
100
AcDbEntity
  8
\U+30EC\U+30A4\U+30E4\U+30FC 1
  6
AI-Linetype-24
 62
     7
370
    18
100
AcDbSpline
210
0.0
220
0.0
230
1.0
 70
     8
 71
     3
 72
    11
 73
     7
 74
     0
 42
0.0000000001
 43
0.0000000001
 40
0.0
 40
0.0
 40
0.0
 40
0.0
 40
1.0
 40
1.0
 40
1.0
 40
2.0
 40
2.0
 40
2.0
 40
2.0
 10
19.72180662522748
 20
46.04442055470956
 30
0.0
 10
19.72180662522748
 20
46.04442055470956
 30
0.0
 10
19.72180662522748
 20
46.04442055470956
 30
0.0
 10
19.72180662522748
 20
46.04442055470956
 30
0.0
 10
19.72180662522748
 20
46.08093859094395
 30
0.0
 10
19.69183427473321
 20
46.11039417677453
 30
0.0
 10
19.65566074827462
 20
46.11039417677453
 30
0.0
  0
SPLINE
  5
183
330
1F
100
AcDbEntity
  8
\U+30EC\U+30A4\U+30E4\U+30FC 1
  6
AI-Linetype-25
 62
     7
370
    18
100
AcDbSpline
210
0.0
220
0.0
230
1.0
 70
     8
 71
     3
 72
    11
 73
     7
 74
     0
 42
0.0000000001
 43
0.0000000001
 40
0.0
 40
0.0
 40
0.0
 40
0.0
 40
1.0
 40
1.0
 40
1.0
 40
2.0
 40
2.0
 40
2.0
 40
2.0
 10
18.73065200026191
 20
46.17671230861529
 30
0.0
 10
18.73065200026191
 20
46.17671230861529
 30
0.0
 10
18.73065200026191
 20
46.17671230861529
 30
0.0
 10
18.73065200026191
 20
46.17671230861529
 30
0.0
 10
18.73065200026191
 20
46.14036652726879
 30
0.0
 10
18.76027984098037
 20
46.11039417677453
 30
0.0
 10
18.79697013210266
 20
46.11039417677453
 30
0.0
  0
SPLINE
  5
185
330
1F
100
AcDbEntity
  8
\U+30EC\U+30A4\U+30E4\U+30FC 1
  6
AI-Linetype-26
 62
     7
370
    18
100
AcDbSpline
210
0.0
220
0.0
230
1.0
 70
     8
 71
     3
 72
    11
 73
     7
 74
     0
 42
0.0000000001
 43
0.0000000001
 40
0.0
 40
0.0
 40
0.0
 40
0.0
 40
1.0
 40
1.0
 40
1.0
 40
2.0
 40
2.0
 40
2.0
 40
2.0
 10
18.15118655737275
 20
52.0383738888992
 30
0.0
 10
18.15118655737275
 20
52.0383738888992
 30
0.0
 10
18.15118655737275
 20
52.0383738888992
 30
0.0
 10
18.15118655737275
 20
52.0383738888992
 30
0.0
 10
18.1461911656237
 20
52.03992418289028
 30
0.0
 10
18.14119577387466
 20
52.04026869266608
 30
0.0
 10
18.13602812723772
 20
52.04026869266608
 30
0.0
  0
SPLINE
  5
187
330
1F
100
AcDbEntity
  8
\U+30EC\U+30A4\U+30E4\U+30FC 1
  6
AI-Linetype-27
 62
     7
370
    18
100
AcDbSpline
210
0.0
220
0.0
230
1.0
 70
     8
 71
     3
 72
    11
 73
     7
 74
     0
 42
0.0000000001
 43
0.0000000001
 40
0.0
 40
0.0
 40
0.0
 40
0.0
 40
1.0
 40
1.0
 40
1.0
 40
2.0
 40
2.0
 40
2.0
 40
2.0
 10
32.92204319463349
 20
40.64371305444092
 30
0.0
 10
32.92204319463349
 20
40.64371305444092
 30
0.0
 10
32.92204319463349
 20
40.64371305444092
 30
0.0
 10
32.92204319463349
 20
40.64371305444092
 30
0.0
 10
32.84728457328572
 20
40.58101227524602
 30
0.0
 10
32.80456536108699
 20
40.48833914555684
 30
0.0
 10
32.80456536108699
 20
40.39032611434283
 30
0.0
  0
SPLINE
  5
189
330
1F
100
AcDbEntity
  8
\U+30EC\U+30A4\U+30E4\U+30FC 1
  6
AI-Linetype-28
 62
     7
370
    18
100
AcDbSpline
210
0.0
220
0.0
230
1.0
 70
     8
 71
     3
 72
    11
 73
     7
 74
     0
 42
0.0000000001
 43
0.0000000001
 40
0.0
 40
0.0
 40
0.0
 40
0.0
 40
1.0
 40
1.0
 40
1.0
 40
2.0
 40
2.0
 40
2.0
 40
2.0
 10
33.66480627125003
 20
41.22886290863071
 30
0.0
 10
33.66480627125003
 20
41.22886290863071
 30
0.0
 10
33.66446176147423
 20
41.22886290863071
 30
0.0
 10
33.66446176147423
 20
41.22886290863071
 30
0.0
 10
33.62002000039652
 20
41.21611604692625
 30
0.0
 10
33.57833431752519
 20
41.1938951663874
 30
0.0
 10
33.54250530084239
 20
41.16392281589313
 30
0.0
  0
SPLINE
  5
18B
330
1F
100
AcDbEntity
  8
\U+30EC\U+30A4\U+30E4\U+30FC 1
  6
AI-Linetype-29
 62
     7
370
    18
100
AcDbSpline
210
0.0
220
0.0
230
1.0
 70
     8
 71
     3
 72
    11
 73
     7
 74
     0
 42
0.0000000001
 43
0.0000000001
 40
0.0
 40
0.0
 40
0.0
 40
0.0
 40
1.0
 40
1.0
 40
1.0
 40
2.0
 40
2.0
 40
2.0
 40
2.0
 10
42.84771434509691
 20
45.51577030375034
 30
0.0
 10
42.84771434509691
 20
45.51577030375034
 30
0.0
 10
42.84771434509691
 20
45.51577030375034
 30
0.0
 10
42.84771434509691
 20
45.51577030375034
 30
0.0
 10
42.84771434509691
 20
45.47942452240384
 30
0.0
 10
42.87699767603958
 20
45.44979668168537
 30
0.0
 10
42.91351571227398
 20
45.44979668168537
 30
0.0
  0
SPLINE
  5
18D
330
1F
100
AcDbEntity
  8
\U+30EC\U+30A4\U+30E4\U+30FC 1
  6
AI-Linetype-30
 62
     7
370
    18
100
AcDbSpline
210
0.0
220
0.0
230
1.0
 70
     8
 71
     3
 72
    11
 73
     7
 74
     0
 42
0.0000000001
 43
0.0000000001
 40
0.0
 40
0.0
 40
0.0
 40
0.0
 40
1.0
 40
1.0
 40
1.0
 40
2.0
 40
2.0
 40
2.0
 40
2.0
 10
32.80456536108699
 20
39.89974419360909
 30
0.0
 10
32.80456536108699
 20
39.89974419360909
 30
0.0
 10
32.80456536108699
 20
39.89974419360909
 30
0.0
 10
32.80456536108699
 20
39.89974419360909
 30
0.0
 10
32.80456536108699
 20
39.8632261573747
 30
0.0
 10
32.83384869202967
 20
39.83377057154412
 30
0.0
 10
32.87036672826406
 20
39.83377057154412
 30
0.0
  0
SPLINE
  5
18F
330
1F
100
AcDbEntity
  8
\U+30EC\U+30A4\U+30E4\U+30FC 1
  6
AI-Linetype-31
 62
     7
370
    18
100
AcDbSpline
210
0.0
220
0.0
230
1.0
 70
     8
 71
     3
 72
    11
 73
     7
 74
     0
 42
0.0000000001
 43
0.0000000001
 40
0.0
 40
0.0
 40
0.0
 40
0.0
 40
1.0
 40
1.0
 40
1.0
 40
2.0
 40
2.0
 40
2.0
 40
2.0
 10
33.66480627125003
 20
41.22886290863071
 30
0.0
 10
33.66480627125003
 20
41.22886290863071
 30
0.0
 10
33.66446176147423
 20
41.22886290863071
 30
0.0
 10
33.66446176147423
 20
41.22886290863071
 30
0.0
 10
35.79318766611876
 20
41.8329608004893
 30
0.0
 10
37.61254379209833
 20
43.22391902026632
 30
0.0
 10
38.75252664020785
 20
45.11941180669685
 30
0.0
  0
SPLINE
  5
191
330
1F
100
AcDbEntity
  8
\U+30EC\U+30A4\U+30E4\U+30FC 1
  6
AI-Linetype-32
 62
     7
370
    18
100
AcDbSpline
210
0.0
220
0.0
230
1.0
 70
     8
 71
     3
 72
    11
 73
     7
 74
     0
 42
0.0000000001
 43
0.0000000001
 40
0.0
 40
0.0
 40
0.0
 40
0.0
 40
1.0
 40
1.0
 40
1.0
 40
2.0
 40
2.0
 40
2.0
 40
2.0
 10
23.81613305567705
 20
45.11941180669685
 30
0.0
 10
23.81613305567705
 20
45.11941180669685
 30
0.0
 10
23.81613305567705
 20
45.11941180669685
 30
0.0
 10
23.81613305567705
 20
45.11941180669685
 30
0.0
 10
24.95697717822607
 20
43.22391902026632
 30
0.0
 10
26.77581653954194
 20
41.8329608004893
 30
0.0
 10
28.90437018929856
 20
41.22886290863071
 30
0.0
  0
SPLINE
  5
193
330
1F
100
AcDbEntity
  8
\U+30EC\U+30A4\U+30E4\U+30FC 1
  6
AI-Linetype-33
 62
     7
370
    18
100
AcDbSpline
210
0.0
220
0.0
230
1.0
 70
     8
 71
     3
 72
    14
 73
    10
 74
     0
 42
0.0000000001
 43
0.0000000001
 40
0.0
 40
0.0
 40
0.0
 40
0.0
 40
1.0
 40
1.0
 40
1.0
 40
2.0
 40
2.0
 40
2.0
 40
3.0
 40
3.0
 40
3.0
 40
3.0
 10
43.83852446028669
 20
50.85084869172981
 30
0.0
 10
43.83852446028669
 20
50.85084869172981
 30
0.0
 10
43.83852446028669
 20
50.85084869172981
 30
0.0
 10
43.83852446028669
 20
50.85084869172981
 30
0.0
 10
43.83852446028669
 20
51.03309436312598
 30
0.0
 10
43.69072976647013
 20
51.18123356671833
 30
0.0
 10
43.50882860484975
 20
51.18123356671833
 30
0.0
 10
43.42821331731345
 20
51.18123356671833
 30
0.0
 10
43.3517321470867
 20
51.15229474555146
 30
0.0
 10
43.29178744609817
 20
51.10027376940624
 30
0.0
  0
SPLINE
  5
195
330
1F
100
AcDbEntity
  8
\U+30EC\U+30A4\U+30E4\U+30FC 1
  6
AI-Linetype-34
 62
     7
370
    18
100
AcDbSpline
210
0.0
220
0.0
230
1.0
 70
     8
 71
     3
 72
    11
 73
     7
 74
     0
 42
0.0000000001
 43
0.0000000001
 40
0.0
 40
0.0
 40
0.0
 40
0.0
 40
1.0
 40
1.0
 40
1.0
 40
2.0
 40
2.0
 40
2.0
 40
2.0
 10
42.91351571227398
 20
46.11039417677453
 30
0.0
 10
42.91351571227398
 20
46.11039417677453
 30
0.0
 10
42.91351571227398
 20
46.11039417677453
 30
0.0
 10
42.91351571227398
 20
46.11039417677453
 30
0.0
 10
42.87699767603958
 20
46.11039417677453
 30
0.0
 10
42.84771434509691
 20
46.08093859094395
 30
0.0
 10
42.84771434509691
 20
46.04442055470956
 30
0.0
  0
SPLINE
  5
197
330
1F
100
AcDbEntity
  8
\U+30EC\U+30A4\U+30E4\U+30FC 1
  6
AI-Linetype-35
 62
     7
370
    18
100
AcDbSpline
210
0.0
220
0.0
230
1.0
 70
     8
 71
     3
 72
    11
 73
     7
 74
     0
 42
0.0000000001
 43
0.0000000001
 40
0.0
 40
0.0
 40
0.0
 40
0.0
 40
1.0
 40
1.0
 40
1.0
 40
2.0
 40
2.0
 40
2.0
 40
2.0
 10
43.77237858333383
 20
46.11039417677453
 30
0.0
 10
43.77237858333383
 20
46.11039417677453
 30
0.0
 10
43.77237858333383
 20
46.11039417677453
 30
0.0
 10
43.77237858333383
 20
46.11039417677453
 30
0.0
 10
43.80924112934402
 20
46.11039417677453
 30
0.0
 10
43.83852446028669
 20
46.140022017493
 30
0.0
 10
43.83852446028669
 20
46.17671230861529
 30
0.0
  0
SPLINE
  5
199
330
1F
100
AcDbEntity
  8
\U+30EC\U+30A4\U+30E4\U+30FC 1
  6
AI-Linetype-36
 62
     7
370
    18
100
AcDbSpline
210
0.0
220
0.0
230
1.0
 70
     8
 71
     3
 72
    11
 73
     7
 74
     0
 42
0.0000000001
 43
0.0000000001
 40
0.0
 40
0.0
 40
0.0
 40
0.0
 40
1.0
 40
1.0
 40
1.0
 40
2.0
 40
2.0
 40
2.0
 40
2.0
 10
44.43314833331087
 20
52.04026869266608
 30
0.0
 10
44.43314833331087
 20
52.04026869266608
 30
0.0
 10
44.43314833331087
 20
52.04026869266608
 30
0.0
 10
44.43314833331087
 20
52.04026869266608
 30
0.0
 10
44.42798068667393
 20
52.04026869266608
 30
0.0
 10
44.42281304003699
 20
52.03992418289028
 30
0.0
 10
44.41798990317584
 20
52.0383738888992
 30
0.0
  0
POLYLINE
  5
19B
330
1F
100
AcDbEntity
  8
\U+30EC\U+30A4\U+30E4\U+30FC 1
 62
     7
370
    18
100
AcDb2dPolyline
 66
     1
 10
0.0
 20
0.0
 30
0.0
  0
VERTEX
  5
19C
330
19B
100
AcDbEntity
  8
\U+30EC\U+30A4\U+30E4\U+30FC 1
 62
     7
370
    18
100
AcDbVertex
100
AcDb2dVertex
 10
15.46418256105053
 20
45.29545630212868
 30
0.0
  0
VERTEX
  5
19D
330
19B
100
AcDbEntity
  8
\U+30EC\U+30A4\U+30E4\U+30FC 1
 62
     7
370
    18
100
AcDbVertex
100
AcDb2dVertex
 10
15.56874127800467
 20
45.40001501908282
 30
0.0
  0
SEQEND
  5
19E
330
19B
100
AcDbEntity
  8
\U+30EC\U+30A4\U+30E4\U+30FC 1
370
    18
  0
POLYLINE
  5
19F
330
1F
100
AcDbEntity
  8
\U+30EC\U+30A4\U+30E4\U+30FC 1
 62
     7
370
     9
100
AcDb2dPolyline
 66
     1
 10
0.0
 20
0.0
 30
0.0
  0
VERTEX
  5
1A0
330
19F
100
AcDbEntity
  8
\U+30EC\U+30A4\U+30E4\U+30FC 1
 62
     7
370
     9
100
AcDbVertex
100
AcDb2dVertex
 10
15.41784599620594
 20
45.01192475664844
 30
0.0
  0
VERTEX
  5
1A1
330
19F
100
AcDbEntity
  8
\U+30EC\U+30A4\U+30E4\U+30FC 1
 62
     7
370
     9
100
AcDbVertex
100
AcDb2dVertex
 10
15.80576400375243
 20
45.40001501908282
 30
0.0
  0
SEQEND
  5
1A2
330
19F
100
AcDbEntity
  8
\U+30EC\U+30A4\U+30E4\U+30FC 1
370
     9
  0
POLYLINE
  5
1A3
330
1F
100
AcDbEntity
  8
\U+30EC\U+30A4\U+30E4\U+30FC 1
 62
     7
370
     9
100
AcDb2dPolyline
 66
     1
 10
0.0
 20
0.0
 30
0.0
  0
VERTEX
  5
1A4
330
1A3
100
AcDbEntity
  8
\U+30EC\U+30A4\U+30E4\U+30FC 1
 62
     7
370
     9
100
AcDbVertex
100
AcDb2dVertex
 10
15.40113727207983
 20
44.75819330677457
 30
0.0
  0
VERTEX
  5
1A5
330
1A3
100
AcDbEntity
  8
\U+30EC\U+30A4\U+30E4\U+30FC 1
 62
     7
370
     9
100
AcDbVertex
100
AcDb2dVertex
 10
16.04382025882758
 20
45.40001501908282
 30
0.0
  0
SEQEND
  5
1A6
330
1A3
100
AcDbEntity
  8
\U+30EC\U+30A4\U+30E4\U+30FC 1
370
     9
  0
POLYLINE
  5
1A7
330
1F
100
AcDbEntity
  8
\U+30EC\U+30A4\U+30E4\U+30FC 1
 62
     7
370
     9
100
AcDb2dPolyline
 66
     1
 10
0.0
 20
0.0
 30
0.0
  0
VERTEX
  5
1A8
330
1A7
100
AcDbEntity
  8
\U+30EC\U+30A4\U+30E4\U+30FC 1
 62
     7
370
     9
100
AcDbVertex
100
AcDb2dVertex
 10
15.40441011494989
 20
44.52409891412107
 30
0.0
  0
VERTEX
  5
1A9
330
1A7
100
AcDbEntity
  8
\U+30EC\U+30A4\U+30E4\U+30FC 1
 62
     7
370
     9
100
AcDbVertex
100
AcDb2dVertex
 10
16.28067072968745
 20
45.40070403863442
 30
0.0
  0
SEQEND
  5
1AA
330
1A7
100
AcDbEntity
  8
\U+30EC\U+30A4\U+30E4\U+30FC 1
370
     9
  0
POLYLINE
  5
1AB
330
1F
100
AcDbEntity
  8
\U+30EC\U+30A4\U+30E4\U+30FC 1
 62
     7
370
     9
100
AcDb2dPolyline
 66
     1
 10
0.0
 20
0.0
 30
0.0
  0
VERTEX
  5
1AC
330
1AB
100
AcDbEntity
  8
\U+30EC\U+30A4\U+30E4\U+30FC 1
 62
     7
370
     9
100
AcDbVertex
100
AcDb2dVertex
 10
15.42421942705817
 20
44.30619648092999
 30
0.0
  0
VERTEX
  5
1AD
330
1AB
100
AcDbEntity
  8
\U+30EC\U+30A4\U+30E4\U+30FC 1
 62
     7
370
     9
100
AcDbVertex
100
AcDb2dVertex
 10
16.5185547298747
 20
45.40070403863442
 30
0.0
  0
SEQEND
  5
1AE
330
1AB
100
AcDbEntity
  8
\U+30EC\U+30A4\U+30E4\U+30FC 1
370
     9
  0
POLYLINE
  5
1AF
330
1F
100
AcDbEntity
  8
\U+30EC\U+30A4\U+30E4\U+30FC 1
 62
     7
370
     9
100
AcDb2dPolyline
 66
     1
 10
0.0
 20
0.0
 30
0.0
  0
VERTEX
  5
1B0
330
1AF
100
AcDbEntity
  8
\U+30EC\U+30A4\U+30E4\U+30FC 1
 62
     7
370
     9
100
AcDbVertex
100
AcDb2dVertex
 10
15.45832589486199
 20
44.10345247787394
 30
0.0
  0
VERTEX
  5
1B1
330
1AF
100
AcDbEntity
  8
\U+30EC\U+30A4\U+30E4\U+30FC 1
 62
     7
370
     9
100
AcDbVertex
100
AcDb2dVertex
 10
16.75540520073457
 20
45.40070403863442
 30
0.0
  0
SEQEND
  5
1B2
330
1AF
100
AcDbEntity
  8
\U+30EC\U+30A4\U+30E4\U+30FC 1
370
     9
  0
POLYLINE
  5
1B3
330
1F
100
AcDbEntity
  8
\U+30EC\U+30A4\U+30E4\U+30FC 1
 62
     7
370
     9
100
AcDb2dPolyline
 66
     1
 10
0.0
 20
0.0
 30
0.0
  0
VERTEX
  5
1B4
330
1B3
100
AcDbEntity
  8
\U+30EC\U+30A4\U+30E4\U+30FC 1
 62
     7
370
     9
100
AcDbVertex
100
AcDb2dVertex
 10
15.50345667549129
 20
43.91121602297968
 30
0.0
  0
VERTEX
  5
1B5
330
1B3
100
AcDbEntity
  8
\U+30EC\U+30A4\U+30E4\U+30FC 1
 62
     7
370
     9
100
AcDbVertex
100
AcDb2dVertex
 10
16.99277243625813
 20
45.40070403863442
 30
0.0
  0
SEQEND
  5
1B6
330
1B3
100
AcDbEntity
  8
\U+30EC\U+30A4\U+30E4\U+30FC 1
370
     9
  0
POLYLINE
  5
1B7
330
1F
100
AcDbEntity
  8
\U+30EC\U+30A4\U+30E4\U+30FC 1
 62
     7
370
     9
100
AcDb2dPolyline
 66
     1
 10
0.0
 20
0.0
 30
0.0
  0
VERTEX
  5
1B8
330
1B7
100
AcDbEntity
  8
\U+30EC\U+30A4\U+30E4\U+30FC 1
 62
     7
370
     9
100
AcDbVertex
100
AcDb2dVertex
 10
15.55806147495499
 20
43.72845358691981
 30
0.0
  0
VERTEX
  5
1B9
330
1B7
100
AcDbEntity
  8
\U+30EC\U+30A4\U+30E4\U+30FC 1
 62
     7
370
     9
100
AcDbVertex
100
AcDb2dVertex
 10
17.22996741689379
 20
45.40070403863442
 30
0.0
  0
SEQEND
  5
1BA
330
1B7
100
AcDbEntity
  8
\U+30EC\U+30A4\U+30E4\U+30FC 1
370
     9
  0
POLYLINE
  5
1BB
330
1F
100
AcDbEntity
  8
\U+30EC\U+30A4\U+30E4\U+30FC 1
 62
     7
370
     9
100
AcDb2dPolyline
 66
     1
 10
0.0
 20
0.0
 30
0.0
  0
VERTEX
  5
1BC
330
1BB
100
AcDbEntity
  8
\U+30EC\U+30A4\U+30E4\U+30FC 1
 62
     7
370
     9
100
AcDbVertex
100
AcDb2dVertex
 10
15.67123293630403
 20
43.60494683229689
 30
0.0
  0
VERTEX
  5
1BD
330
1BB
100
AcDbEntity
  8
\U+30EC\U+30A4\U+30E4\U+30FC 1
 62
     7
370
     9
100
AcDbVertex
100
AcDb2dVertex
 10
17.46733465241735
 20
45.40070403863442
 30
0.0
  0
SEQEND
  5
1BE
330
1BB
100
AcDbEntity
  8
\U+30EC\U+30A4\U+30E4\U+30FC 1
370
     9
  0
POLYLINE
  5
1BF
330
1F
100
AcDbEntity
  8
\U+30EC\U+30A4\U+30E4\U+30FC 1
 62
     7
370
     9
100
AcDb2dPolyline
 66
     1
 10
0.0
 20
0.0
 30
0.0
  0
VERTEX
  5
1C0
330
1BF
100
AcDbEntity
  8
\U+30EC\U+30A4\U+30E4\U+30FC 1
 62
     7
370
     9
100
AcDbVertex
100
AcDb2dVertex
 10
15.90911693649128
 20
43.60494683229689
 30
0.0
  0
VERTEX
  5
1C1
330
1BF
100
AcDbEntity
  8
\U+30EC\U+30A4\U+30E4\U+30FC 1
 62
     7
370
     9
100
AcDbVertex
100
AcDb2dVertex
 10
17.70452963305301
 20
45.40070403863442
 30
0.0
  0
SEQEND
  5
1C2
330
1BF
100
AcDbEntity
  8
\U+30EC\U+30A4\U+30E4\U+30FC 1
370
     9
  0
POLYLINE
  5
1C3
330
1F
100
AcDbEntity
  8
\U+30EC\U+30A4\U+30E4\U+30FC 1
 62
     7
370
     9
100
AcDb2dPolyline
 66
     1
 10
0.0
 20
0.0
 30
0.0
  0
VERTEX
  5
1C4
330
1C3
100
AcDbEntity
  8
\U+30EC\U+30A4\U+30E4\U+30FC 1
 62
     7
370
     9
100
AcDbVertex
100
AcDb2dVertex
 10
16.14648417201484
 20
43.60494683229689
 30
0.0
  0
VERTEX
  5
1C5
330
1C3
100
AcDbEntity
  8
\U+30EC\U+30A4\U+30E4\U+30FC 1
 62
     7
370
     9
100
AcDbVertex
100
AcDb2dVertex
 10
17.94206912346447
 20
45.40070403863442
 30
0.0
  0
SEQEND
  5
1C6
330
1C3
100
AcDbEntity
  8
\U+30EC\U+30A4\U+30E4\U+30FC 1
370
     9
  0
POLYLINE
  5
1C7
330
1F
100
AcDbEntity
  8
\U+30EC\U+30A4\U+30E4\U+30FC 1
 62
     7
370
     9
100
AcDb2dPolyline
 66
     1
 10
0.0
 20
0.0
 30
0.0
  0
VERTEX
  5
1C8
330
1C7
100
AcDbEntity
  8
\U+30EC\U+30A4\U+30E4\U+30FC 1
 62
     7
370
     9
100
AcDbVertex
100
AcDb2dVertex
 10
16.3838514075384
 20
43.60494683229689
 30
0.0
  0
VERTEX
  5
1C9
330
1C7
100
AcDbEntity
  8
\U+30EC\U+30A4\U+30E4\U+30FC 1
 62
     7
370
     9
100
AcDbVertex
100
AcDb2dVertex
 10
18.17926410410013
 20
45.40070403863442
 30
0.0
  0
SEQEND
  5
1CA
330
1C7
100
AcDbEntity
  8
\U+30EC\U+30A4\U+30E4\U+30FC 1
370
     9
  0
POLYLINE
  5
1CB
330
1F
100
AcDbEntity
  8
\U+30EC\U+30A4\U+30E4\U+30FC 1
 62
     7
370
     9
100
AcDb2dPolyline
 66
     1
 10
0.0
 20
0.0
 30
0.0
  0
VERTEX
  5
1CC
330
1CB
100
AcDbEntity
  8
\U+30EC\U+30A4\U+30E4\U+30FC 1
 62
     7
370
     9
100
AcDbVertex
100
AcDb2dVertex
 10
16.62121864306196
 20
43.60494683229689
 30
0.0
  0
VERTEX
  5
1CD
330
1CB
100
AcDbEntity
  8
\U+30EC\U+30A4\U+30E4\U+30FC 1
 62
     7
370
     9
100
AcDbVertex
100
AcDb2dVertex
 10
18.4168035945116
 20
45.40070403863442
 30
0.0
  0
SEQEND
  5
1CE
330
1CB
100
AcDbEntity
  8
\U+30EC\U+30A4\U+30E4\U+30FC 1
370
     9
  0
POLYLINE
  5
1CF
330
1F
100
AcDbEntity
  8
\U+30EC\U+30A4\U+30E4\U+30FC 1
 62
     7
370
     9
100
AcDb2dPolyline
 66
     1
 10
0.0
 20
0.0
 30
0.0
  0
VERTEX
  5
1D0
330
1CF
100
AcDbEntity
  8
\U+30EC\U+30A4\U+30E4\U+30FC 1
 62
     7
370
     9
100
AcDbVertex
100
AcDb2dVertex
 10
16.85841362369763
 20
43.60494683229689
 30
0.0
  0
VERTEX
  5
1D1
330
1CF
100
AcDbEntity
  8
\U+30EC\U+30A4\U+30E4\U+30FC 1
 62
     7
370
     9
100
AcDbVertex
100
AcDb2dVertex
 10
18.65399857514726
 20
45.40070403863442
 30
0.0
  0
SEQEND
  5
1D2
330
1CF
100
AcDbEntity
  8
\U+30EC\U+30A4\U+30E4\U+30FC 1
370
     9
  0
POLYLINE
  5
1D3
330
1F
100
AcDbEntity
  8
\U+30EC\U+30A4\U+30E4\U+30FC 1
 62
     7
370
     9
100
AcDb2dPolyline
 66
     1
 10
0.0
 20
0.0
 30
0.0
  0
VERTEX
  5
1D4
330
1D3
100
AcDbEntity
  8
\U+30EC\U+30A4\U+30E4\U+30FC 1
 62
     7
370
     9
100
AcDbVertex
100
AcDb2dVertex
 10
17.09578085922119
 20
43.60494683229689
 30
0.0
  0
VERTEX
  5
1D5
330
1D3
100
AcDbEntity
  8
\U+30EC\U+30A4\U+30E4\U+30FC 1
 62
     7
370
     9
100
AcDbVertex
100
AcDb2dVertex
 10
18.89153806555872
 20
45.40070403863442
 30
0.0
  0
SEQEND
  5
1D6
330
1D3
100
AcDbEntity
  8
\U+30EC\U+30A4\U+30E4\U+30FC 1
370
     9
  0
POLYLINE
  5
1D7
330
1F
100
AcDbEntity
  8
\U+30EC\U+30A4\U+30E4\U+30FC 1
 62
     7
370
     9
100
AcDb2dPolyline
 66
     1
 10
0.0
 20
0.0
 30
0.0
  0
VERTEX
  5
1D8
330
1D7
100
AcDbEntity
  8
\U+30EC\U+30A4\U+30E4\U+30FC 1
 62
     7
370
     9
100
AcDbVertex
100
AcDb2dVertex
 10
17.33263133008105
 20
43.60494683229689
 30
0.0
  0
VERTEX
  5
1D9
330
1D7
100
AcDbEntity
  8
\U+30EC\U+30A4\U+30E4\U+30FC 1
 62
     7
370
     9
100
AcDbVertex
100
AcDb2dVertex
 10
19.12838853641858
 20
45.40070403863442
 30
0.0
  0
SEQEND
  5
1DA
330
1D7
100
AcDbEntity
  8
\U+30EC\U+30A4\U+30E4\U+30FC 1
370
     9
  0
POLYLINE
  5
1DB
330
1F
100
AcDbEntity
  8
\U+30EC\U+30A4\U+30E4\U+30FC 1
 62
     7
370
     9
100
AcDb2dPolyline
 66
     1
 10
0.0
 20
0.0
 30
0.0
  0
VERTEX
  5
1DC
330
1DB
100
AcDbEntity
  8
\U+30EC\U+30A4\U+30E4\U+30FC 1
 62
     7
370
     9
100
AcDbVertex
100
AcDb2dVertex
 10
17.57034307538041
 20
43.60494683229689
 30
0.0
  0
VERTEX
  5
1DD
330
1DB
100
AcDbEntity
  8
\U+30EC\U+30A4\U+30E4\U+30FC 1
 62
     7
370
     9
100
AcDbVertex
100
AcDb2dVertex
 10
19.36610028171794
 20
45.40070403863442
 30
0.0
  0
SEQEND
  5
1DE
330
1DB
100
AcDbEntity
  8
\U+30EC\U+30A4\U+30E4\U+30FC 1
370
     9
  0
POLYLINE
  5
1DF
330
1F
100
AcDbEntity
  8
\U+30EC\U+30A4\U+30E4\U+30FC 1
 62
     7
370
     9
100
AcDb2dPolyline
 66
     1
 10
0.0
 20
0.0
 30
0.0
  0
VERTEX
  5
1E0
330
1DF
100
AcDbEntity
  8
\U+30EC\U+30A4\U+30E4\U+30FC 1
 62
     7
370
     9
100
AcDbVertex
100
AcDb2dVertex
 10
17.80771031090397
 20
43.60494683229689
 30
0.0
  0
VERTEX
  5
1E1
330
1DF
100
AcDbEntity
  8
\U+30EC\U+30A4\U+30E4\U+30FC 1
 62
     7
370
     9
100
AcDbVertex
100
AcDb2dVertex
 10
19.6032952623536
 20
45.40070403863442
 30
0.0
  0
SEQEND
  5
1E2
330
1DF
100
AcDbEntity
  8
\U+30EC\U+30A4\U+30E4\U+30FC 1
370
     9
  0
POLYLINE
  5
1E3
330
1F
100
AcDbEntity
  8
\U+30EC\U+30A4\U+30E4\U+30FC 1
 62
     7
370
     9
100
AcDb2dPolyline
 66
     1
 10
0.0
 20
0.0
 30
0.0
  0
VERTEX
  5
1E4
330
1E3
100
AcDbEntity
  8
\U+30EC\U+30A4\U+30E4\U+30FC 1
 62
     7
370
     9
100
AcDbVertex
100
AcDb2dVertex
 10
18.04507754642753
 20
43.60494683229689
 30
0.0
  0
VERTEX
  5
1E5
330
1E3
100
AcDbEntity
  8
\U+30EC\U+30A4\U+30E4\U+30FC 1
 62
     7
370
     9
100
AcDbVertex
100
AcDb2dVertex
 10
19.84066249787716
 20
45.40070403863442
 30
0.0
  0
SEQEND
  5
1E6
330
1E3
100
AcDbEntity
  8
\U+30EC\U+30A4\U+30E4\U+30FC 1
370
     9
  0
POLYLINE
  5
1E7
330
1F
100
AcDbEntity
  8
\U+30EC\U+30A4\U+30E4\U+30FC 1
 62
     7
370
     9
100
AcDb2dPolyline
 66
     1
 10
0.0
 20
0.0
 30
0.0
  0
VERTEX
  5
1E8
330
1E7
100
AcDbEntity
  8
\U+30EC\U+30A4\U+30E4\U+30FC 1
 62
     7
370
     9
100
AcDbVertex
100
AcDb2dVertex
 10
18.28210027217529
 20
43.60494683229689
 30
0.0
  0
VERTEX
  5
1E9
330
1E7
100
AcDbEntity
  8
\U+30EC\U+30A4\U+30E4\U+30FC 1
 62
     7
370
     9
100
AcDbVertex
100
AcDb2dVertex
 10
20.07820198828862
 20
45.40070403863442
 30
0.0
  0
SEQEND
  5
1EA
330
1E7
100
AcDbEntity
  8
\U+30EC\U+30A4\U+30E4\U+30FC 1
370
     9
  0
POLYLINE
  5
1EB
330
1F
100
AcDbEntity
  8
\U+30EC\U+30A4\U+30E4\U+30FC 1
 62
     7
370
     9
100
AcDb2dPolyline
 66
     1
 10
0.0
 20
0.0
 30
0.0
  0
VERTEX
  5
1EC
330
1EB
100
AcDbEntity
  8
\U+30EC\U+30A4\U+30E4\U+30FC 1
 62
     7
370
     9
100
AcDbVertex
100
AcDb2dVertex
 10
18.51998427236255
 20
43.60494683229689
 30
0.0
  0
VERTEX
  5
1ED
330
1EB
100
AcDbEntity
  8
\U+30EC\U+30A4\U+30E4\U+30FC 1
 62
     7
370
     9
100
AcDbVertex
100
AcDb2dVertex
 10
20.31522471403638
 20
45.40070403863442
 30
0.0
  0
SEQEND
  5
1EE
330
1EB
100
AcDbEntity
  8
\U+30EC\U+30A4\U+30E4\U+30FC 1
370
     9
  0
POLYLINE
  5
1EF
330
1F
100
AcDbEntity
  8
\U+30EC\U+30A4\U+30E4\U+30FC 1
 62
     7
370
     9
100
AcDb2dPolyline
 66
     1
 10
0.0
 20
0.0
 30
0.0
  0
VERTEX
  5
1F0
330
1EF
100
AcDbEntity
  8
\U+30EC\U+30A4\U+30E4\U+30FC 1
 62
     7
370
     9
100
AcDbVertex
100
AcDb2dVertex
 10
18.75700699811031
 20
43.60494683229689
 30
0.0
  0
VERTEX
  5
1F1
330
1EF
100
AcDbEntity
  8
\U+30EC\U+30A4\U+30E4\U+30FC 1
 62
     7
370
     9
100
AcDbVertex
100
AcDb2dVertex
 10
20.55276420444784
 20
45.40070403863442
 30
0.0
  0
SEQEND
  5
1F2
330
1EF
100
AcDbEntity
  8
\U+30EC\U+30A4\U+30E4\U+30FC 1
370
     9
  0
POLYLINE
  5
1F3
330
1F
100
AcDbEntity
  8
\U+30EC\U+30A4\U+30E4\U+30FC 1
 62
     7
370
     9
100
AcDb2dPolyline
 66
     1
 10
0.0
 20
0.0
 30
0.0
  0
VERTEX
  5
1F4
330
1F3
100
AcDbEntity
  8
\U+30EC\U+30A4\U+30E4\U+30FC 1
 62
     7
370
     9
100
AcDbVertex
100
AcDb2dVertex
 10
18.99385746897018
 20
43.60494683229689
 30
0.0
  0
VERTEX
  5
1F5
330
1F3
100
AcDbEntity
  8
\U+30EC\U+30A4\U+30E4\U+30FC 1
 62
     7
370
     9
100
AcDbVertex
100
AcDb2dVertex
 10
20.7901314399714
 20
45.40070403863442
 30
0.0
  0
SEQEND
  5
1F6
330
1F3
100
AcDbEntity
  8
\U+30EC\U+30A4\U+30E4\U+30FC 1
370
     9
  0
POLYLINE
  5
1F7
330
1F
100
AcDbEntity
  8
\U+30EC\U+30A4\U+30E4\U+30FC 1
 62
     7
370
     9
100
AcDb2dPolyline
 66
     1
 10
0.0
 20
0.0
 30
0.0
  0
VERTEX
  5
1F8
330
1F7
100
AcDbEntity
  8
\U+30EC\U+30A4\U+30E4\U+30FC 1
 62
     7
370
     9
100
AcDbVertex
100
AcDb2dVertex
 10
19.23174146915743
 20
43.60494683229689
 30
0.0
  0
VERTEX
  5
1F9
330
1F7
100
AcDbEntity
  8
\U+30EC\U+30A4\U+30E4\U+30FC 1
 62
     7
370
     9
100
AcDbVertex
100
AcDb2dVertex
 10
21.02732642060706
 20
45.40070403863442
 30
0.0
  0
SEQEND
  5
1FA
330
1F7
100
AcDbEntity
  8
\U+30EC\U+30A4\U+30E4\U+30FC 1
370
     9
  0
POLYLINE
  5
1FB
330
1F
100
AcDbEntity
  8
\U+30EC\U+30A4\U+30E4\U+30FC 1
 62
     7
370
     9
100
AcDb2dPolyline
 66
     1
 10
0.0
 20
0.0
 30
0.0
  0
VERTEX
  5
1FC
330
1FB
100
AcDbEntity
  8
\U+30EC\U+30A4\U+30E4\U+30FC 1
 62
     7
370
     9
100
AcDbVertex
100
AcDb2dVertex
 10
19.46910870468099
 20
43.60494683229689
 30
0.0
  0
VERTEX
  5
1FD
330
1FB
100
AcDbEntity
  8
\U+30EC\U+30A4\U+30E4\U+30FC 1
 62
     7
370
     9
100
AcDbVertex
100
AcDb2dVertex
 10
21.26469365613062
 20
45.40070403863442
 30
0.0
  0
SEQEND
  5
1FE
330
1FB
100
AcDbEntity
  8
\U+30EC\U+30A4\U+30E4\U+30FC 1
370
     9
  0
POLYLINE
  5
1FF
330
1F
100
AcDbEntity
  8
\U+30EC\U+30A4\U+30E4\U+30FC 1
 62
     7
370
     9
100
AcDb2dPolyline
 66
     1
 10
0.0
 20
0.0
 30
0.0
  0
VERTEX
  5
200
330
1FF
100
AcDbEntity
  8
\U+30EC\U+30A4\U+30E4\U+30FC 1
 62
     7
370
     9
100
AcDbVertex
100
AcDb2dVertex
 10
19.70647594020455
 20
43.60494683229689
 30
0.0
  0
VERTEX
  5
201
330
1FF
100
AcDbEntity
  8
\U+30EC\U+30A4\U+30E4\U+30FC 1
 62
     7
370
     9
100
AcDbVertex
100
AcDb2dVertex
 10
21.50223314654208
 20
45.40070403863442
 30
0.0
  0
SEQEND
  5
202
330
1FF
100
AcDbEntity
  8
\U+30EC\U+30A4\U+30E4\U+30FC 1
370
     9
  0
POLYLINE
  5
203
330
1F
100
AcDbEntity
  8
\U+30EC\U+30A4\U+30E4\U+30FC 1
 62
     7
370
     9
100
AcDb2dPolyline
 66
     1
 10
0.0
 20
0.0
 30
0.0
  0
VERTEX
  5
204
330
203
100
AcDbEntity
  8
\U+30EC\U+30A4\U+30E4\U+30FC 1
 62
     7
370
     9
100
AcDbVertex
100
AcDb2dVertex
 10
19.94315415617652
 20
43.60494683229689
 30
0.0
  0
VERTEX
  5
205
330
203
100
AcDbEntity
  8
\U+30EC\U+30A4\U+30E4\U+30FC 1
 62
     7
370
     9
100
AcDbVertex
100
AcDb2dVertex
 10
21.73942812717775
 20
45.40070403863442
 30
0.0
  0
SEQEND
  5
206
330
203
100
AcDbEntity
  8
\U+30EC\U+30A4\U+30E4\U+30FC 1
370
     9
  0
POLYLINE
  5
207
330
1F
100
AcDbEntity
  8
\U+30EC\U+30A4\U+30E4\U+30FC 1
 62
     7
370
     9
100
AcDb2dPolyline
 66
     1
 10
0.0
 20
0.0
 30
0.0
  0
VERTEX
  5
208
330
207
100
AcDbEntity
  8
\U+30EC\U+30A4\U+30E4\U+30FC 1
 62
     7
370
     9
100
AcDbVertex
100
AcDb2dVertex
 10
20.18103815636378
 20
43.60494683229689
 30
0.0
  0
VERTEX
  5
209
330
207
100
AcDbEntity
  8
\U+30EC\U+30A4\U+30E4\U+30FC 1
 62
     7
370
     9
100
AcDbVertex
100
AcDb2dVertex
 10
21.97679536270131
 20
45.40070403863442
 30
0.0
  0
SEQEND
  5
20A
330
207
100
AcDbEntity
  8
\U+30EC\U+30A4\U+30E4\U+30FC 1
370
     9
  0
POLYLINE
  5
20B
330
1F
100
AcDbEntity
  8
\U+30EC\U+30A4\U+30E4\U+30FC 1
 62
     7
370
     9
100
AcDb2dPolyline
 66
     1
 10
0.0
 20
0.0
 30
0.0
  0
VERTEX
  5
20C
330
20B
100
AcDbEntity
  8
\U+30EC\U+30A4\U+30E4\U+30FC 1
 62
     7
370
     9
100
AcDbVertex
100
AcDb2dVertex
 10
20.41840539188734
 20
43.60494683229689
 30
0.0
  0
VERTEX
  5
20D
330
20B
100
AcDbEntity
  8
\U+30EC\U+30A4\U+30E4\U+30FC 1
 62
     7
370
     9
100
AcDbVertex
100
AcDb2dVertex
 10
22.21399034333697
 20
45.40070403863442
 30
0.0
  0
SEQEND
  5
20E
330
20B
100
AcDbEntity
  8
\U+30EC\U+30A4\U+30E4\U+30FC 1
370
     9
  0
POLYLINE
  5
20F
330
1F
100
AcDbEntity
  8
\U+30EC\U+30A4\U+30E4\U+30FC 1
 62
     7
370
     9
100
AcDb2dPolyline
 66
     1
 10
0.0
 20
0.0
 30
0.0
  0
VERTEX
  5
210
330
20F
100
AcDbEntity
  8
\U+30EC\U+30A4\U+30E4\U+30FC 1
 62
     7
370
     9
100
AcDbVertex
100
AcDb2dVertex
 10
20.6554281176351
 20
43.60494683229689
 30
0.0
  0
VERTEX
  5
211
330
20F
100
AcDbEntity
  8
\U+30EC\U+30A4\U+30E4\U+30FC 1
 62
     7
370
     9
100
AcDbVertex
100
AcDb2dVertex
 10
22.45101306908473
 20
45.40070403863442
 30
0.0
  0
SEQEND
  5
212
330
20F
100
AcDbEntity
  8
\U+30EC\U+30A4\U+30E4\U+30FC 1
370
     9
  0
POLYLINE
  5
213
330
1F
100
AcDbEntity
  8
\U+30EC\U+30A4\U+30E4\U+30FC 1
 62
     7
370
     9
100
AcDb2dPolyline
 66
     1
 10
0.0
 20
0.0
 30
0.0
  0
VERTEX
  5
214
330
213
100
AcDbEntity
  8
\U+30EC\U+30A4\U+30E4\U+30FC 1
 62
     7
370
     9
100
AcDbVertex
100
AcDb2dVertex
 10
20.89313986293445
 20
43.60494683229689
 30
0.0
  0
VERTEX
  5
215
330
213
100
AcDbEntity
  8
\U+30EC\U+30A4\U+30E4\U+30FC 1
 62
     7
370
     9
100
AcDbVertex
100
AcDb2dVertex
 10
22.68872481438409
 20
45.40070403863442
 30
0.0
  0
SEQEND
  5
216
330
213
100
AcDbEntity
  8
\U+30EC\U+30A4\U+30E4\U+30FC 1
370
     9
  0
POLYLINE
  5
217
330
1F
100
AcDbEntity
  8
\U+30EC\U+30A4\U+30E4\U+30FC 1
 62
     7
370
     9
100
AcDb2dPolyline
 66
     1
 10
0.0
 20
0.0
 30
0.0
  0
VERTEX
  5
218
330
217
100
AcDbEntity
  8
\U+30EC\U+30A4\U+30E4\U+30FC 1
 62
     7
370
     9
100
AcDbVertex
100
AcDb2dVertex
 10
21.12999033379432
 20
43.60494683229689
 30
0.0
  0
VERTEX
  5
219
330
217
100
AcDbEntity
  8
\U+30EC\U+30A4\U+30E4\U+30FC 1
 62
     7
370
     9
100
AcDbVertex
100
AcDb2dVertex
 10
22.78932166891657
 20
45.26393365764334
 30
0.0
  0
SEQEND
  5
21A
330
217
100
AcDbEntity
  8
\U+30EC\U+30A4\U+30E4\U+30FC 1
370
     9
  0
POLYLINE
  5
21B
330
1F
100
AcDbEntity
  8
\U+30EC\U+30A4\U+30E4\U+30FC 1
 62
     7
370
     9
100
AcDb2dPolyline
 66
     1
 10
0.0
 20
0.0
 30
0.0
  0
VERTEX
  5
21C
330
21B
100
AcDbEntity
  8
\U+30EC\U+30A4\U+30E4\U+30FC 1
 62
     7
370
     9
100
AcDbVertex
100
AcDb2dVertex
 10
21.36752982420578
 20
43.60494683229689
 30
0.0
  0
VERTEX
  5
21D
330
21B
100
AcDbEntity
  8
\U+30EC\U+30A4\U+30E4\U+30FC 1
 62
     7
370
     9
100
AcDbVertex
100
AcDb2dVertex
 10
22.78932166891657
 20
45.02656642211978
 30
0.0
  0
SEQEND
  5
21E
330
21B
100
AcDbEntity
  8
\U+30EC\U+30A4\U+30E4\U+30FC 1
370
     9
  0
POLYLINE
  5
21F
330
1F
100
AcDbEntity
  8
\U+30EC\U+30A4\U+30E4\U+30FC 1
 62
     7
370
     9
100
AcDb2dPolyline
 66
     1
 10
0.0
 20
0.0
 30
0.0
  0
VERTEX
  5
220
330
21F
100
AcDbEntity
  8
\U+30EC\U+30A4\U+30E4\U+30FC 1
 62
     7
370
     9
100
AcDbVertex
100
AcDb2dVertex
 10
21.60455254995355
 20
43.60494683229689
 30
0.0
  0
VERTEX
  5
221
330
21F
100
AcDbEntity
  8
\U+30EC\U+30A4\U+30E4\U+30FC 1
 62
     7
370
     9
100
AcDbVertex
100
AcDb2dVertex
 10
22.78932166891657
 20
44.78885467682042
 30
0.0
  0
SEQEND
  5
222
330
21F
100
AcDbEntity
  8
\U+30EC\U+30A4\U+30E4\U+30FC 1
370
     9
  0
POLYLINE
  5
223
330
1F
100
AcDbEntity
  8
\U+30EC\U+30A4\U+30E4\U+30FC 1
 62
     7
370
     9
100
AcDb2dPolyline
 66
     1
 10
0.0
 20
0.0
 30
0.0
  0
VERTEX
  5
224
330
223
100
AcDbEntity
  8
\U+30EC\U+30A4\U+30E4\U+30FC 1
 62
     7
370
     9
100
AcDbVertex
100
AcDb2dVertex
 10
21.8424365501408
 20
43.60494683229689
 30
0.0
  0
VERTEX
  5
225
330
223
100
AcDbEntity
  8
\U+30EC\U+30A4\U+30E4\U+30FC 1
 62
     7
370
     9
100
AcDbVertex
100
AcDb2dVertex
 10
22.78932166891657
 20
44.55200420596056
 30
0.0
  0
SEQEND
  5
226
330
223
100
AcDbEntity
  8
\U+30EC\U+30A4\U+30E4\U+30FC 1
370
     9
  0
POLYLINE
  5
227
330
1F
100
AcDbEntity
  8
\U+30EC\U+30A4\U+30E4\U+30FC 1
 62
     7
370
     9
100
AcDb2dPolyline
 66
     1
 10
0.0
 20
0.0
 30
0.0
  0
VERTEX
  5
228
330
227
100
AcDbEntity
  8
\U+30EC\U+30A4\U+30E4\U+30FC 1
 62
     7
370
     9
100
AcDbVertex
100
AcDb2dVertex
 10
22.07928702100067
 20
43.60494683229689
 30
0.0
  0
VERTEX
  5
229
330
227
100
AcDbEntity
  8
\U+30EC\U+30A4\U+30E4\U+30FC 1
 62
     7
370
     9
100
AcDbVertex
100
AcDb2dVertex
 10
22.78932166891657
 20
44.3142924606612
 30
0.0
  0
SEQEND
  5
22A
330
227
100
AcDbEntity
  8
\U+30EC\U+30A4\U+30E4\U+30FC 1
370
     9
  0
POLYLINE
  5
22B
330
1F
100
AcDbEntity
  8
\U+30EC\U+30A4\U+30E4\U+30FC 1
 62
     7
370
     9
100
AcDb2dPolyline
 66
     1
 10
0.0
 20
0.0
 30
0.0
  0
VERTEX
  5
22C
330
22B
100
AcDbEntity
  8
\U+30EC\U+30A4\U+30E4\U+30FC 1
 62
     7
370
     9
100
AcDbVertex
100
AcDb2dVertex
 10
22.31665425652422
 20
43.60494683229689
 30
0.0
  0
VERTEX
  5
22D
330
22B
100
AcDbEntity
  8
\U+30EC\U+30A4\U+30E4\U+30FC 1
 62
     7
370
     9
100
AcDbVertex
100
AcDb2dVertex
 10
22.78932166891657
 20
44.07726973491344
 30
0.0
  0
SEQEND
  5
22E
330
22B
100
AcDbEntity
  8
\U+30EC\U+30A4\U+30E4\U+30FC 1
370
     9
  0
POLYLINE
  5
22F
330
1F
100
AcDbEntity
  8
\U+30EC\U+30A4\U+30E4\U+30FC 1
 62
     7
370
     9
100
AcDb2dPolyline
 66
     1
 10
0.0
 20
0.0
 30
0.0
  0
VERTEX
  5
230
330
22F
100
AcDbEntity
  8
\U+30EC\U+30A4\U+30E4\U+30FC 1
 62
     7
370
     9
100
AcDbVertex
100
AcDb2dVertex
 10
22.55419374693568
 20
43.60494683229689
 30
0.0
  0
VERTEX
  5
231
330
22F
100
AcDbEntity
  8
\U+30EC\U+30A4\U+30E4\U+30FC 1
 62
     7
370
     9
100
AcDbVertex
100
AcDb2dVertex
 10
22.78932166891657
 20
43.84007475427777
 30
0.0
  0
SEQEND
  5
232
330
22F
100
AcDbEntity
  8
\U+30EC\U+30A4\U+30E4\U+30FC 1
370
     9
  0
POLYLINE
  5
233
330
1F
100
AcDbEntity
  8
\U+30EC\U+30A4\U+30E4\U+30FC 1
 62
     7
370
    18
100
AcDb2dPolyline
 66
     1
 10
0.0
 20
0.0
 30
0.0
  0
VERTEX
  5
234
330
233
100
AcDbEntity
  8
\U+30EC\U+30A4\U+30E4\U+30FC 1
 62
     7
370
    18
100
AcDbVertex
100
AcDb2dVertex
 10
39.87114988221801
 20
45.25893826589429
 30
0.0
  0
VERTEX
  5
235
330
233
100
AcDbEntity
  8
\U+30EC\U+30A4\U+30E4\U+30FC 1
 62
     7
370
    18
100
AcDbVertex
100
AcDb2dVertex
 10
40.01205438051864
 20
45.40001501908282
 30
0.0
  0
SEQEND
  5
236
330
233
100
AcDbEntity
  8
\U+30EC\U+30A4\U+30E4\U+30FC 1
370
    18
  0
POLYLINE
  5
237
330
1F
100
AcDbEntity
  8
\U+30EC\U+30A4\U+30E4\U+30FC 1
 62
     7
370
     9
100
AcDb2dPolyline
 66
     1
 10
0.0
 20
0.0
 30
0.0
  0
VERTEX
  5
238
330
237
100
AcDbEntity
  8
\U+30EC\U+30A4\U+30E4\U+30FC 1
 62
     7
370
     9
100
AcDbVertex
100
AcDb2dVertex
 10
39.87114988221801
 20
45.02191554014653
 30
0.0
  0
VERTEX
  5
239
330
237
100
AcDbEntity
  8
\U+30EC\U+30A4\U+30E4\U+30FC 1
 62
     7
370
     9
100
AcDbVertex
100
AcDb2dVertex
 10
40.25011063559379
 20
45.40001501908282
 30
0.0
  0
SEQEND
  5
23A
330
237
100
AcDbEntity
  8
\U+30EC\U+30A4\U+30E4\U+30FC 1
370
     9
  0
POLYLINE
  5
23B
330
1F
100
AcDbEntity
  8
\U+30EC\U+30A4\U+30E4\U+30FC 1
 62
     7
370
     9
100
AcDb2dPolyline
 66
     1
 10
0.0
 20
0.0
 30
0.0
  0
VERTEX
  5
23C
330
23B
100
AcDbEntity
  8
\U+30EC\U+30A4\U+30E4\U+30FC 1
 62
     7
370
     9
100
AcDbVertex
100
AcDb2dVertex
 10
39.87114988221801
 20
44.78420379484717
 30
0.0
  0
VERTEX
  5
23D
330
23B
100
AcDbEntity
  8
\U+30EC\U+30A4\U+30E4\U+30FC 1
 62
     7
370
     9
100
AcDbVertex
100
AcDb2dVertex
 10
40.48678885156576
 20
45.40001501908282
 30
0.0
  0
SEQEND
  5
23E
330
23B
100
AcDbEntity
  8
\U+30EC\U+30A4\U+30E4\U+30FC 1
370
     9
  0
POLYLINE
  5
23F
330
1F
100
AcDbEntity
  8
\U+30EC\U+30A4\U+30E4\U+30FC 1
 62
     7
370
     9
100
AcDb2dPolyline
 66
     1
 10
0.0
 20
0.0
 30
0.0
  0
VERTEX
  5
240
330
23F
100
AcDbEntity
  8
\U+30EC\U+30A4\U+30E4\U+30FC 1
 62
     7
370
     9
100
AcDbVertex
100
AcDb2dVertex
 10
39.87114988221801
 20
44.54735332398731
 30
0.0
  0
VERTEX
  5
241
330
23F
100
AcDbEntity
  8
\U+30EC\U+30A4\U+30E4\U+30FC 1
 62
     7
370
     9
100
AcDbVertex
100
AcDb2dVertex
 10
40.72415608708933
 20
45.40001501908282
 30
0.0
  0
SEQEND
  5
242
330
23F
100
AcDbEntity
  8
\U+30EC\U+30A4\U+30E4\U+30FC 1
370
     9
  0
POLYLINE
  5
243
330
1F
100
AcDbEntity
  8
\U+30EC\U+30A4\U+30E4\U+30FC 1
 62
     7
370
     9
100
AcDb2dPolyline
 66
     1
 10
0.0
 20
0.0
 30
0.0
  0
VERTEX
  5
244
330
243
100
AcDbEntity
  8
\U+30EC\U+30A4\U+30E4\U+30FC 1
 62
     7
370
     9
100
AcDbVertex
100
AcDb2dVertex
 10
39.87114988221801
 20
44.30964157868795
 30
0.0
  0
VERTEX
  5
245
330
243
100
AcDbEntity
  8
\U+30EC\U+30A4\U+30E4\U+30FC 1
 62
     7
370
     9
100
AcDbVertex
100
AcDb2dVertex
 10
40.96152332261288
 20
45.40001501908282
 30
0.0
  0
SEQEND
  5
246
330
243
100
AcDbEntity
  8
\U+30EC\U+30A4\U+30E4\U+30FC 1
370
     9
  0
POLYLINE
  5
247
330
1F
100
AcDbEntity
  8
\U+30EC\U+30A4\U+30E4\U+30FC 1
 62
     7
370
     9
100
AcDb2dPolyline
 66
     1
 10
0.0
 20
0.0
 30
0.0
  0
VERTEX
  5
248
330
247
100
AcDbEntity
  8
\U+30EC\U+30A4\U+30E4\U+30FC 1
 62
     7
370
     9
100
AcDbVertex
100
AcDb2dVertex
 10
39.87114988221801
 20
44.07261885294019
 30
0.0
  0
VERTEX
  5
249
330
247
100
AcDbEntity
  8
\U+30EC\U+30A4\U+30E4\U+30FC 1
 62
     7
370
     9
100
AcDbVertex
100
AcDb2dVertex
 10
41.19889055813644
 20
45.40001501908282
 30
0.0
  0
SEQEND
  5
24A
330
247
100
AcDbEntity
  8
\U+30EC\U+30A4\U+30E4\U+30FC 1
370
     9
  0
POLYLINE
  5
24B
330
1F
100
AcDbEntity
  8
\U+30EC\U+30A4\U+30E4\U+30FC 1
 62
     7
370
     9
100
AcDb2dPolyline
 66
     1
 10
0.0
 20
0.0
 30
0.0
  0
VERTEX
  5
24C
330
24B
100
AcDbEntity
  8
\U+30EC\U+30A4\U+30E4\U+30FC 1
 62
     7
370
     9
100
AcDbVertex
100
AcDb2dVertex
 10
39.87114988221801
 20
43.83525161741662
 30
0.0
  0
VERTEX
  5
24D
330
24B
100
AcDbEntity
  8
\U+30EC\U+30A4\U+30E4\U+30FC 1
 62
     7
370
     9
100
AcDbVertex
100
AcDb2dVertex
 10
41.43591328388421
 20
45.40001501908282
 30
0.0
  0
SEQEND
  5
24E
330
24B
100
AcDbEntity
  8
\U+30EC\U+30A4\U+30E4\U+30FC 1
370
     9
  0
POLYLINE
  5
24F
330
1F
100
AcDbEntity
  8
\U+30EC\U+30A4\U+30E4\U+30FC 1
 62
     7
370
     9
100
AcDb2dPolyline
 66
     1
 10
0.0
 20
0.0
 30
0.0
  0
VERTEX
  5
250
330
24F
100
AcDbEntity
  8
\U+30EC\U+30A4\U+30E4\U+30FC 1
 62
     7
370
     9
100
AcDbVertex
100
AcDb2dVertex
 10
39.87804007773394
 20
43.6042578127453
 30
0.0
  0
VERTEX
  5
251
330
24F
100
AcDbEntity
  8
\U+30EC\U+30A4\U+30E4\U+30FC 1
 62
     7
370
     9
100
AcDbVertex
100
AcDb2dVertex
 10
41.67328051940777
 20
45.40001501908282
 30
0.0
  0
SEQEND
  5
252
330
24F
100
AcDbEntity
  8
\U+30EC\U+30A4\U+30E4\U+30FC 1
370
     9
  0
POLYLINE
  5
253
330
1F
100
AcDbEntity
  8
\U+30EC\U+30A4\U+30E4\U+30FC 1
 62
     7
370
     9
100
AcDb2dPolyline
 66
     1
 10
0.0
 20
0.0
 30
0.0
  0
VERTEX
  5
254
330
253
100
AcDbEntity
  8
\U+30EC\U+30A4\U+30E4\U+30FC 1
 62
     7
370
     9
100
AcDbVertex
100
AcDb2dVertex
 10
40.1150628034817
 20
43.6042578127453
 30
0.0
  0
VERTEX
  5
255
330
253
100
AcDbEntity
  8
\U+30EC\U+30A4\U+30E4\U+30FC 1
 62
     7
370
     9
100
AcDbVertex
100
AcDb2dVertex
 10
41.91030324515553
 20
45.40001501908282
 30
0.0
  0
SEQEND
  5
256
330
253
100
AcDbEntity
  8
\U+30EC\U+30A4\U+30E4\U+30FC 1
370
     9
  0
POLYLINE
  5
257
330
1F
100
AcDbEntity
  8
\U+30EC\U+30A4\U+30E4\U+30FC 1
 62
     7
370
     9
100
AcDb2dPolyline
 66
     1
 10
0.0
 20
0.0
 30
0.0
  0
VERTEX
  5
258
330
257
100
AcDbEntity
  8
\U+30EC\U+30A4\U+30E4\U+30FC 1
 62
     7
370
     9
100
AcDbVertex
100
AcDb2dVertex
 10
40.35277454878106
 20
43.6042578127453
 30
0.0
  0
VERTEX
  5
259
330
257
100
AcDbEntity
  8
\U+30EC\U+30A4\U+30E4\U+30FC 1
 62
     7
370
     9
100
AcDbVertex
100
AcDb2dVertex
 10
42.14801499045489
 20
45.40001501908282
 30
0.0
  0
SEQEND
  5
25A
330
257
100
AcDbEntity
  8
\U+30EC\U+30A4\U+30E4\U+30FC 1
370
     9
  0
POLYLINE
  5
25B
330
1F
100
AcDbEntity
  8
\U+30EC\U+30A4\U+30E4\U+30FC 1
 62
     7
370
     9
100
AcDb2dPolyline
 66
     1
 10
0.0
 20
0.0
 30
0.0
  0
VERTEX
  5
25C
330
25B
100
AcDbEntity
  8
\U+30EC\U+30A4\U+30E4\U+30FC 1
 62
     7
370
     9
100
AcDbVertex
100
AcDb2dVertex
 10
40.58945276475302
 20
43.6042578127453
 30
0.0
  0
VERTEX
  5
25D
330
25B
100
AcDbEntity
  8
\U+30EC\U+30A4\U+30E4\U+30FC 1
 62
     7
370
     9
100
AcDbVertex
100
AcDb2dVertex
 10
42.38503771620265
 20
45.40001501908282
 30
0.0
  0
SEQEND
  5
25E
330
25B
100
AcDbEntity
  8
\U+30EC\U+30A4\U+30E4\U+30FC 1
370
     9
  0
POLYLINE
  5
25F
330
1F
100
AcDbEntity
  8
\U+30EC\U+30A4\U+30E4\U+30FC 1
 62
     7
370
     9
100
AcDb2dPolyline
 66
     1
 10
0.0
 20
0.0
 30
0.0
  0
VERTEX
  5
260
330
25F
100
AcDbEntity
  8
\U+30EC\U+30A4\U+30E4\U+30FC 1
 62
     7
370
     9
100
AcDbVertex
100
AcDb2dVertex
 10
40.82682000027658
 20
43.6042578127453
 30
0.0
  0
VERTEX
  5
261
330
25F
100
AcDbEntity
  8
\U+30EC\U+30A4\U+30E4\U+30FC 1
 62
     7
370
     9
100
AcDbVertex
100
AcDb2dVertex
 10
42.62240495172621
 20
45.40001501908282
 30
0.0
  0
SEQEND
  5
262
330
25F
100
AcDbEntity
  8
\U+30EC\U+30A4\U+30E4\U+30FC 1
370
     9
  0
POLYLINE
  5
263
330
1F
100
AcDbEntity
  8
\U+30EC\U+30A4\U+30E4\U+30FC 1
 62
     7
370
     9
100
AcDb2dPolyline
 66
     1
 10
0.0
 20
0.0
 30
0.0
  0
VERTEX
  5
264
330
263
100
AcDbEntity
  8
\U+30EC\U+30A4\U+30E4\U+30FC 1
 62
     7
370
     9
100
AcDbVertex
100
AcDb2dVertex
 10
41.06418723580014
 20
43.6042578127453
 30
0.0
  0
VERTEX
  5
265
330
263
100
AcDbEntity
  8
\U+30EC\U+30A4\U+30E4\U+30FC 1
 62
     7
370
     9
100
AcDbVertex
100
AcDb2dVertex
 10
42.86011669702557
 20
45.40001501908282
 30
0.0
  0
SEQEND
  5
266
330
263
100
AcDbEntity
  8
\U+30EC\U+30A4\U+30E4\U+30FC 1
370
     9
  0
POLYLINE
  5
267
330
1F
100
AcDbEntity
  8
\U+30EC\U+30A4\U+30E4\U+30FC 1
 62
     7
370
     9
100
AcDb2dPolyline
 66
     1
 10
0.0
 20
0.0
 30
0.0
  0
VERTEX
  5
268
330
267
100
AcDbEntity
  8
\U+30EC\U+30A4\U+30E4\U+30FC 1
 62
     7
370
     9
100
AcDbVertex
100
AcDb2dVertex
 10
41.3018989810995
 20
43.6042578127453
 30
0.0
  0
VERTEX
  5
269
330
267
100
AcDbEntity
  8
\U+30EC\U+30A4\U+30E4\U+30FC 1
 62
     7
370
     9
100
AcDbVertex
100
AcDb2dVertex
 10
43.09748393254913
 20
45.40001501908282
 30
0.0
  0
SEQEND
  5
26A
330
267
100
AcDbEntity
  8
\U+30EC\U+30A4\U+30E4\U+30FC 1
370
     9
  0
POLYLINE
  5
26B
330
1F
100
AcDbEntity
  8
\U+30EC\U+30A4\U+30E4\U+30FC 1
 62
     7
370
     9
100
AcDb2dPolyline
 66
     1
 10
0.0
 20
0.0
 30
0.0
  0
VERTEX
  5
26C
330
26B
100
AcDbEntity
  8
\U+30EC\U+30A4\U+30E4\U+30FC 1
 62
     7
370
     9
100
AcDbVertex
100
AcDb2dVertex
 10
41.53926621662306
 20
43.6042578127453
 30
0.0
  0
VERTEX
  5
26D
330
26B
100
AcDbEntity
  8
\U+30EC\U+30A4\U+30E4\U+30FC 1
 62
     7
370
     9
100
AcDbVertex
100
AcDb2dVertex
 10
43.3341621485211
 20
45.40001501908282
 30
0.0
  0
SEQEND
  5
26E
330
26B
100
AcDbEntity
  8
\U+30EC\U+30A4\U+30E4\U+30FC 1
370
     9
  0
POLYLINE
  5
26F
330
1F
100
AcDbEntity
  8
\U+30EC\U+30A4\U+30E4\U+30FC 1
 62
     7
370
     9
100
AcDb2dPolyline
 66
     1
 10
0.0
 20
0.0
 30
0.0
  0
VERTEX
  5
270
330
26F
100
AcDbEntity
  8
\U+30EC\U+30A4\U+30E4\U+30FC 1
 62
     7
370
     9
100
AcDbVertex
100
AcDb2dVertex
 10
41.77594443259503
 20
43.6042578127453
 30
0.0
  0
VERTEX
  5
271
330
26F
100
AcDbEntity
  8
\U+30EC\U+30A4\U+30E4\U+30FC 1
 62
     7
370
     9
100
AcDbVertex
100
AcDb2dVertex
 10
43.57187389382045
 20
45.40001501908282
 30
0.0
  0
SEQEND
  5
272
330
26F
100
AcDbEntity
  8
\U+30EC\U+30A4\U+30E4\U+30FC 1
370
     9
  0
POLYLINE
  5
273
330
1F
100
AcDbEntity
  8
\U+30EC\U+30A4\U+30E4\U+30FC 1
 62
     7
370
     9
100
AcDb2dPolyline
 66
     1
 10
0.0
 20
0.0
 30
0.0
  0
VERTEX
  5
274
330
273
100
AcDbEntity
  8
\U+30EC\U+30A4\U+30E4\U+30FC 1
 62
     7
370
     9
100
AcDbVertex
100
AcDb2dVertex
 10
42.01365617789438
 20
43.6042578127453
 30
0.0
  0
VERTEX
  5
275
330
273
100
AcDbEntity
  8
\U+30EC\U+30A4\U+30E4\U+30FC 1
 62
     7
370
     9
100
AcDbVertex
100
AcDb2dVertex
 10
43.80958563911981
 20
45.40001501908282
 30
0.0
  0
SEQEND
  5
276
330
273
100
AcDbEntity
  8
\U+30EC\U+30A4\U+30E4\U+30FC 1
370
     9
  0
POLYLINE
  5
277
330
1F
100
AcDbEntity
  8
\U+30EC\U+30A4\U+30E4\U+30FC 1
 62
     7
370
     9
100
AcDb2dPolyline
 66
     1
 10
0.0
 20
0.0
 30
0.0
  0
VERTEX
  5
278
330
277
100
AcDbEntity
  8
\U+30EC\U+30A4\U+30E4\U+30FC 1
 62
     7
370
     9
100
AcDbVertex
100
AcDb2dVertex
 10
42.25067890364215
 20
43.6042578127453
 30
0.0
  0
VERTEX
  5
279
330
277
100
AcDbEntity
  8
\U+30EC\U+30A4\U+30E4\U+30FC 1
 62
     7
370
     9
100
AcDbVertex
100
AcDb2dVertex
 10
44.04660836486757
 20
45.40001501908282
 30
0.0
  0
SEQEND
  5
27A
330
277
100
AcDbEntity
  8
\U+30EC\U+30A4\U+30E4\U+30FC 1
370
     9
  0
POLYLINE
  5
27B
330
1F
100
AcDbEntity
  8
\U+30EC\U+30A4\U+30E4\U+30FC 1
 62
     7
370
     9
100
AcDb2dPolyline
 66
     1
 10
0.0
 20
0.0
 30
0.0
  0
VERTEX
  5
27C
330
27B
100
AcDbEntity
  8
\U+30EC\U+30A4\U+30E4\U+30FC 1
 62
     7
370
     9
100
AcDbVertex
100
AcDb2dVertex
 10
42.48804613916571
 20
43.6042578127453
 30
0.0
  0
VERTEX
  5
27D
330
27B
100
AcDbEntity
  8
\U+30EC\U+30A4\U+30E4\U+30FC 1
 62
     7
370
     9
100
AcDbVertex
100
AcDb2dVertex
 10
44.28363109061534
 20
45.40001501908282
 30
0.0
  0
SEQEND
  5
27E
330
27B
100
AcDbEntity
  8
\U+30EC\U+30A4\U+30E4\U+30FC 1
370
     9
  0
POLYLINE
  5
27F
330
1F
100
AcDbEntity
  8
\U+30EC\U+30A4\U+30E4\U+30FC 1
 62
     7
370
     9
100
AcDb2dPolyline
 66
     1
 10
0.0
 20
0.0
 30
0.0
  0
VERTEX
  5
280
330
27F
100
AcDbEntity
  8
\U+30EC\U+30A4\U+30E4\U+30FC 1
 62
     7
370
     9
100
AcDbVertex
100
AcDb2dVertex
 10
42.72506886491347
 20
43.6042578127453
 30
0.0
  0
VERTEX
  5
281
330
27F
100
AcDbEntity
  8
\U+30EC\U+30A4\U+30E4\U+30FC 1
 62
     7
370
     9
100
AcDbVertex
100
AcDb2dVertex
 10
44.52168734569049
 20
45.40001501908282
 30
0.0
  0
SEQEND
  5
282
330
27F
100
AcDbEntity
  8
\U+30EC\U+30A4\U+30E4\U+30FC 1
370
     9
  0
POLYLINE
  5
283
330
1F
100
AcDbEntity
  8
\U+30EC\U+30A4\U+30E4\U+30FC 1
 62
     7
370
     9
100
AcDb2dPolyline
 66
     1
 10
0.0
 20
0.0
 30
0.0
  0
VERTEX
  5
284
330
283
100
AcDbEntity
  8
\U+30EC\U+30A4\U+30E4\U+30FC 1
 62
     7
370
     9
100
AcDbVertex
100
AcDb2dVertex
 10
42.96243610043703
 20
43.6042578127453
 30
0.0
  0
VERTEX
  5
285
330
283
100
AcDbEntity
  8
\U+30EC\U+30A4\U+30E4\U+30FC 1
 62
     7
370
     9
100
AcDbVertex
100
AcDb2dVertex
 10
44.75836556166246
 20
45.40001501908282
 30
0.0
  0
SEQEND
  5
286
330
283
100
AcDbEntity
  8
\U+30EC\U+30A4\U+30E4\U+30FC 1
370
     9
  0
POLYLINE
  5
287
330
1F
100
AcDbEntity
  8
\U+30EC\U+30A4\U+30E4\U+30FC 1
 62
     7
370
     9
100
AcDb2dPolyline
 66
     1
 10
0.0
 20
0.0
 30
0.0
  0
VERTEX
  5
288
330
287
100
AcDbEntity
  8
\U+30EC\U+30A4\U+30E4\U+30FC 1
 62
     7
370
     9
100
AcDbVertex
100
AcDb2dVertex
 10
43.1998033359606
 20
43.6042578127453
 30
0.0
  0
VERTEX
  5
289
330
287
100
AcDbEntity
  8
\U+30EC\U+30A4\U+30E4\U+30FC 1
 62
     7
370
     9
100
AcDbVertex
100
AcDb2dVertex
 10
44.99607730696182
 20
45.40001501908282
 30
0.0
  0
SEQEND
  5
28A
330
287
100
AcDbEntity
  8
\U+30EC\U+30A4\U+30E4\U+30FC 1
370
     9
  0
POLYLINE
  5
28B
330
1F
100
AcDbEntity
  8
\U+30EC\U+30A4\U+30E4\U+30FC 1
 62
     7
370
     9
100
AcDb2dPolyline
 66
     1
 10
0.0
 20
0.0
 30
0.0
  0
VERTEX
  5
28C
330
28B
100
AcDbEntity
  8
\U+30EC\U+30A4\U+30E4\U+30FC 1
 62
     7
370
     9
100
AcDbVertex
100
AcDb2dVertex
 10
43.43751508125995
 20
43.6042578127453
 30
0.0
  0
VERTEX
  5
28D
330
28B
100
AcDbEntity
  8
\U+30EC\U+30A4\U+30E4\U+30FC 1
 62
     7
370
     9
100
AcDbVertex
100
AcDb2dVertex
 10
45.23310003270958
 20
45.40001501908282
 30
0.0
  0
SEQEND
  5
28E
330
28B
100
AcDbEntity
  8
\U+30EC\U+30A4\U+30E4\U+30FC 1
370
     9
  0
POLYLINE
  5
28F
330
1F
100
AcDbEntity
  8
\U+30EC\U+30A4\U+30E4\U+30FC 1
 62
     7
370
     9
100
AcDb2dPolyline
 66
     1
 10
0.0
 20
0.0
 30
0.0
  0
VERTEX
  5
290
330
28F
100
AcDbEntity
  8
\U+30EC\U+30A4\U+30E4\U+30FC 1
 62
     7
370
     9
100
AcDbVertex
100
AcDb2dVertex
 10
43.67453780700772
 20
43.6042578127453
 30
0.0
  0
VERTEX
  5
291
330
28F
100
AcDbEntity
  8
\U+30EC\U+30A4\U+30E4\U+30FC 1
 62
     7
370
     9
100
AcDbVertex
100
AcDb2dVertex
 10
45.47046726823314
 20
45.40001501908282
 30
0.0
  0
SEQEND
  5
292
330
28F
100
AcDbEntity
  8
\U+30EC\U+30A4\U+30E4\U+30FC 1
370
     9
  0
POLYLINE
  5
293
330
1F
100
AcDbEntity
  8
\U+30EC\U+30A4\U+30E4\U+30FC 1
 62
     7
370
     9
100
AcDb2dPolyline
 66
     1
 10
0.0
 20
0.0
 30
0.0
  0
VERTEX
  5
294
330
293
100
AcDbEntity
  8
\U+30EC\U+30A4\U+30E4\U+30FC 1
 62
     7
370
     9
100
AcDbVertex
100
AcDb2dVertex
 10
43.91259406208287
 20
43.6042578127453
 30
0.0
  0
VERTEX
  5
295
330
293
100
AcDbEntity
  8
\U+30EC\U+30A4\U+30E4\U+30FC 1
 62
     7
370
     9
100
AcDbVertex
100
AcDb2dVertex
 10
45.70748999398091
 20
45.40001501908282
 30
0.0
  0
SEQEND
  5
296
330
293
100
AcDbEntity
  8
\U+30EC\U+30A4\U+30E4\U+30FC 1
370
     9
  0
POLYLINE
  5
297
330
1F
100
AcDbEntity
  8
\U+30EC\U+30A4\U+30E4\U+30FC 1
 62
     7
370
     9
100
AcDb2dPolyline
 66
     1
 10
0.0
 20
0.0
 30
0.0
  0
VERTEX
  5
298
330
297
100
AcDbEntity
  8
\U+30EC\U+30A4\U+30E4\U+30FC 1
 62
     7
370
     9
100
AcDbVertex
100
AcDb2dVertex
 10
44.14892776827904
 20
43.6042578127453
 30
0.0
  0
VERTEX
  5
299
330
297
100
AcDbEntity
  8
\U+30EC\U+30A4\U+30E4\U+30FC 1
 62
     7
370
     9
100
AcDbVertex
100
AcDb2dVertex
 10
45.94520173928026
 20
45.40001501908282
 30
0.0
  0
SEQEND
  5
29A
330
297
100
AcDbEntity
  8
\U+30EC\U+30A4\U+30E4\U+30FC 1
370
     9
  0
POLYLINE
  5
29B
330
1F
100
AcDbEntity
  8
\U+30EC\U+30A4\U+30E4\U+30FC 1
 62
     7
370
     9
100
AcDb2dPolyline
 66
     1
 10
0.0
 20
0.0
 30
0.0
  0
VERTEX
  5
29C
330
29B
100
AcDbEntity
  8
\U+30EC\U+30A4\U+30E4\U+30FC 1
 62
     7
370
     9
100
AcDbVertex
100
AcDb2dVertex
 10
44.3862950038026
 20
43.6042578127453
 30
0.0
  0
VERTEX
  5
29D
330
29B
100
AcDbEntity
  8
\U+30EC\U+30A4\U+30E4\U+30FC 1
 62
     7
370
     9
100
AcDbVertex
100
AcDb2dVertex
 10
46.18222446502803
 20
45.40001501908282
 30
0.0
  0
SEQEND
  5
29E
330
29B
100
AcDbEntity
  8
\U+30EC\U+30A4\U+30E4\U+30FC 1
370
     9
  0
POLYLINE
  5
29F
330
1F
100
AcDbEntity
  8
\U+30EC\U+30A4\U+30E4\U+30FC 1
 62
     7
370
     9
100
AcDb2dPolyline
 66
     1
 10
0.0
 20
0.0
 30
0.0
  0
VERTEX
  5
2A0
330
29F
100
AcDbEntity
  8
\U+30EC\U+30A4\U+30E4\U+30FC 1
 62
     7
370
     9
100
AcDbVertex
100
AcDb2dVertex
 10
44.62400674910195
 20
43.6042578127453
 30
0.0
  0
VERTEX
  5
2A1
330
29F
100
AcDbEntity
  8
\U+30EC\U+30A4\U+30E4\U+30FC 1
 62
     7
370
     9
100
AcDbVertex
100
AcDb2dVertex
 10
46.22391014789936
 20
45.2041612115427
 30
0.0
  0
SEQEND
  5
2A2
330
29F
100
AcDbEntity
  8
\U+30EC\U+30A4\U+30E4\U+30FC 1
370
     9
  0
POLYLINE
  5
2A3
330
1F
100
AcDbEntity
  8
\U+30EC\U+30A4\U+30E4\U+30FC 1
 62
     7
370
     9
100
AcDb2dPolyline
 66
     1
 10
0.0
 20
0.0
 30
0.0
  0
VERTEX
  5
2A4
330
2A3
100
AcDbEntity
  8
\U+30EC\U+30A4\U+30E4\U+30FC 1
 62
     7
370
     9
100
AcDbVertex
100
AcDb2dVertex
 10
44.86137398462552
 20
43.6042578127453
 30
0.0
  0
VERTEX
  5
2A5
330
2A3
100
AcDbEntity
  8
\U+30EC\U+30A4\U+30E4\U+30FC 1
 62
     7
370
     9
100
AcDbVertex
100
AcDb2dVertex
 10
46.24458073444713
 20
44.98798132723061
 30
0.0
  0
SEQEND
  5
2A6
330
2A3
100
AcDbEntity
  8
\U+30EC\U+30A4\U+30E4\U+30FC 1
370
     9
  0
POLYLINE
  5
2A7
330
1F
100
AcDbEntity
  8
\U+30EC\U+30A4\U+30E4\U+30FC 1
 62
     7
370
     9
100
AcDb2dPolyline
 66
     1
 10
0.0
 20
0.0
 30
0.0
  0
VERTEX
  5
2A8
330
2A7
100
AcDbEntity
  8
\U+30EC\U+30A4\U+30E4\U+30FC 1
 62
     7
370
     9
100
AcDbVertex
100
AcDb2dVertex
 10
45.09805220059749
 20
43.6042578127453
 30
0.0
  0
VERTEX
  5
2A9
330
2A7
100
AcDbEntity
  8
\U+30EC\U+30A4\U+30E4\U+30FC 1
 62
     7
370
     9
100
AcDbVertex
100
AcDb2dVertex
 10
46.29487916171338
 20
44.80142928363698
 30
0.0
  0
SEQEND
  5
2AA
330
2A7
100
AcDbEntity
  8
\U+30EC\U+30A4\U+30E4\U+30FC 1
370
     9
  0
POLYLINE
  5
2AB
330
1F
100
AcDbEntity
  8
\U+30EC\U+30A4\U+30E4\U+30FC 1
 62
     7
370
     9
100
AcDb2dPolyline
 66
     1
 10
0.0
 20
0.0
 30
0.0
  0
VERTEX
  5
2AC
330
2AB
100
AcDbEntity
  8
\U+30EC\U+30A4\U+30E4\U+30FC 1
 62
     7
370
     9
100
AcDbVertex
100
AcDb2dVertex
 10
45.33541943612104
 20
43.6042578127453
 30
0.0
  0
VERTEX
  5
2AD
330
2AB
100
AcDbEntity
  8
\U+30EC\U+30A4\U+30E4\U+30FC 1
 62
     7
370
     9
100
AcDbVertex
100
AcDb2dVertex
 10
46.36068052889044
 20
44.62951890551469
 30
0.0
  0
SEQEND
  5
2AE
330
2AB
100
AcDbEntity
  8
\U+30EC\U+30A4\U+30E4\U+30FC 1
370
     9
  0
POLYLINE
  5
2AF
330
1F
100
AcDbEntity
  8
\U+30EC\U+30A4\U+30E4\U+30FC 1
 62
     7
370
     9
100
AcDb2dPolyline
 66
     1
 10
0.0
 20
0.0
 30
0.0
  0
VERTEX
  5
2B0
330
2AF
100
AcDbEntity
  8
\U+30EC\U+30A4\U+30E4\U+30FC 1
 62
     7
370
     9
100
AcDbVertex
100
AcDb2dVertex
 10
45.5731311814204
 20
43.6042578127453
 30
0.0
  0
VERTEX
  5
2B1
330
2AF
100
AcDbEntity
  8
\U+30EC\U+30A4\U+30E4\U+30FC 1
 62
     7
370
     9
100
AcDbVertex
100
AcDb2dVertex
 10
46.43302758180764
 20
44.46467097779622
 30
0.0
  0
SEQEND
  5
2B2
330
2AF
100
AcDbEntity
  8
\U+30EC\U+30A4\U+30E4\U+30FC 1
370
     9
  0
POLYLINE
  5
2B3
330
1F
100
AcDbEntity
  8
\U+30EC\U+30A4\U+30E4\U+30FC 1
 62
     7
370
     9
100
AcDb2dPolyline
 66
     1
 10
0.0
 20
0.0
 30
0.0
  0
VERTEX
  5
2B4
330
2B3
100
AcDbEntity
  8
\U+30EC\U+30A4\U+30E4\U+30FC 1
 62
     7
370
     9
100
AcDbVertex
100
AcDb2dVertex
 10
45.81049841694396
 20
43.6042578127453
 30
0.0
  0
VERTEX
  5
2B5
330
2B3
100
AcDbEntity
  8
\U+30EC\U+30A4\U+30E4\U+30FC 1
 62
     7
370
     9
100
AcDbVertex
100
AcDb2dVertex
 10
46.50813071293121
 20
44.30223461850833
 30
0.0
  0
SEQEND
  5
2B6
330
2B3
100
AcDbEntity
  8
\U+30EC\U+30A4\U+30E4\U+30FC 1
370
     9
  0
POLYLINE
  5
2B7
330
1F
100
AcDbEntity
  8
\U+30EC\U+30A4\U+30E4\U+30FC 1
 62
     7
370
     9
100
AcDb2dPolyline
 66
     1
 10
0.0
 20
0.0
 30
0.0
  0
VERTEX
  5
2B8
330
2B7
100
AcDbEntity
  8
\U+30EC\U+30A4\U+30E4\U+30FC 1
 62
     7
370
     9
100
AcDbVertex
100
AcDb2dVertex
 10
46.04752114269172
 20
43.6042578127453
 30
0.0
  0
VERTEX
  5
2B9
330
2B7
100
AcDbEntity
  8
\U+30EC\U+30A4\U+30E4\U+30FC 1
 62
     7
370
     9
100
AcDbVertex
100
AcDb2dVertex
 10
46.58151129517579
 20
44.13807571034146
 30
0.0
  0
SEQEND
  5
2BA
330
2B7
100
AcDbEntity
  8
\U+30EC\U+30A4\U+30E4\U+30FC 1
370
     9
  0
POLYLINE
  5
2BB
330
1F
100
AcDbEntity
  8
\U+30EC\U+30A4\U+30E4\U+30FC 1
 62
     7
370
     9
100
AcDb2dPolyline
 66
     1
 10
0.0
 20
0.0
 30
0.0
  0
VERTEX
  5
2BC
330
2BB
100
AcDbEntity
  8
\U+30EC\U+30A4\U+30E4\U+30FC 1
 62
     7
370
     9
100
AcDbVertex
100
AcDb2dVertex
 10
46.28488837821529
 20
43.6042578127453
 30
0.0
  0
VERTEX
  5
2BD
330
2BB
100
AcDbEntity
  8
\U+30EC\U+30A4\U+30E4\U+30FC 1
 62
     7
370
     9
100
AcDbVertex
100
AcDb2dVertex
 10
46.64834619168024
 20
43.96737111643446
 30
0.0
  0
SEQEND
  5
2BE
330
2BB
100
AcDbEntity
  8
\U+30EC\U+30A4\U+30E4\U+30FC 1
370
     9
  0
POLYLINE
  5
2BF
330
1F
100
AcDbEntity
  8
\U+30EC\U+30A4\U+30E4\U+30FC 1
 62
     7
370
     9
100
AcDb2dPolyline
 66
     1
 10
0.0
 20
0.0
 30
0.0
  0
VERTEX
  5
2C0
330
2BF
100
AcDbEntity
  8
\U+30EC\U+30A4\U+30E4\U+30FC 1
 62
     7
370
     9
100
AcDbVertex
100
AcDb2dVertex
 10
46.52225561373884
 20
43.6042578127453
 30
0.0
  0
VERTEX
  5
2C1
330
2BF
100
AcDbEntity
  8
\U+30EC\U+30A4\U+30E4\U+30FC 1
 62
     7
370
     9
100
AcDbVertex
100
AcDb2dVertex
 10
46.70174520692865
 20
43.7837474059351
 30
0.0
  0
SEQEND
  5
2C2
330
2BF
100
AcDbEntity
  8
\U+30EC\U+30A4\U+30E4\U+30FC 1
370
     9
  0
POLYLINE
  5
2C3
330
1F
100
AcDbEntity
  8
\U+30EC\U+30A4\U+30E4\U+30FC 1
 62
     7
370
     9
100
AcDb2dPolyline
 66
     1
 10
0.0
 20
0.0
 30
0.0
  0
VERTEX
  5
2C4
330
2C3
100
AcDbEntity
  8
\U+30EC\U+30A4\U+30E4\U+30FC 1
 62
     7
370
     9
100
AcDbVertex
100
AcDb2dVertex
 10
39.87114988221801
 20
43.6042578127453
 30
0.0
  0
VERTEX
  5
2C5
330
2C3
100
AcDbEntity
  8
\U+30EC\U+30A4\U+30E4\U+30FC 1
 62
     7
370
     9
100
AcDbVertex
100
AcDb2dVertex
 10
46.72896147921654
 20
43.6042578127453
 30
0.0
  0
SEQEND
  5
2C6
330
2C3
100
AcDbEntity
  8
\U+30EC\U+30A4\U+30E4\U+30FC 1
370
     9
  0
POLYLINE
  5
2C7
330
1F
100
AcDbEntity
  8
\U+30EC\U+30A4\U+30E4\U+30FC 1
 62
     7
370
     9
100
AcDb2dPolyline
 66
     1
 10
0.0
 20
0.0
 30
0.0
  0
VERTEX
  5
2C8
330
2C7
100
AcDbEntity
  8
\U+30EC\U+30A4\U+30E4\U+30FC 1
 62
     7
370
     9
100
AcDbVertex
100
AcDb2dVertex
 10
15.60078068715371
 20
43.60494683229689
 30
0.0
  0
VERTEX
  5
2C9
330
2C7
100
AcDbEntity
  8
\U+30EC\U+30A4\U+30E4\U+30FC 1
 62
     7
370
     9
100
AcDbVertex
100
AcDb2dVertex
 10
22.78932166891657
 20
43.60494683229689
 30
0.0
  0
VERTEX
  5
2CA
330
2C7
100
AcDbEntity
  8
\U+30EC\U+30A4\U+30E4\U+30FC 1
 62
     7
370
     9
100
AcDbVertex
100
AcDb2dVertex
 10
22.78932166891657
 20
45.40070403863442
 30
0.0
  0
VERTEX
  5
2CB
330
2C7
100
AcDbEntity
  8
\U+30EC\U+30A4\U+30E4\U+30FC 1
 62
     7
370
     9
100
AcDbVertex
100
AcDb2dVertex
 10
15.48657569647728
 20
45.40070403863442
 30
0.0
  0
SEQEND
  5
2CC
330
2C7
100
AcDbEntity
  8
\U+30EC\U+30A4\U+30E4\U+30FC 1
370
     9
  0
POLYLINE
  5
2CD
330
1F
100
AcDbEntity
  8
\U+30EC\U+30A4\U+30E4\U+30FC 1
 62
     7
370
     9
100
AcDb2dPolyline
 66
     1
 10
0.0
 20
0.0
 30
0.0
  0
VERTEX
  5
2CE
330
2CD
100
AcDbEntity
  8
\U+30EC\U+30A4\U+30E4\U+30FC 1
 62
     7
370
     9
100
AcDbVertex
100
AcDb2dVertex
 10
46.25043740063567
 20
45.40001501908282
 30
0.0
  0
VERTEX
  5
2CF
330
2CD
100
AcDbEntity
  8
\U+30EC\U+30A4\U+30E4\U+30FC 1
 62
     7
370
     9
100
AcDbVertex
100
AcDb2dVertex
 10
39.87114988221801
 20
45.40001501908282
 30
0.0
  0
SEQEND
  5
2D0
330
2CD
100
AcDbEntity
  8
\U+30EC\U+30A4\U+30E4\U+30FC 1
370
     9
  0
POLYLINE
  5
2D1
330
1F
100
AcDbEntity
  8
\U+30EC\U+30A4\U+30E4\U+30FC 1
 62
     7
370
    18
100
AcDb2dPolyline
 66
     1
 10
0.0
 20
0.0
 30
0.0
  0
VERTEX
  5
2D2
330
2D1
100
AcDbEntity
  8
\U+30EC\U+30A4\U+30E4\U+30FC 1
 62
     7
370
    18
100
AcDbVertex
100
AcDb2dVertex
 10
10.78780686439333
 20
39.83377057154412
 30
0.0
  0
VERTEX
  5
2D3
330
2D1
100
AcDbEntity
  8
\U+30EC\U+30A4\U+30E4\U+30FC 1
 62
     7
370
    18
100
AcDbVertex
100
AcDb2dVertex
 10
10.78780686439333
 20
52.04078545732978
 30
0.0
  0
SEQEND
  5
2D4
330
2D1
100
AcDbEntity
  8
\U+30EC\U+30A4\U+30E4\U+30FC 1
370
    18
  0
POLYLINE
  5
2D5
330
1F
100
AcDbEntity
  8
\U+30EC\U+30A4\U+30E4\U+30FC 1
 62
     7
370
    18
100
AcDb2dPolyline
 66
     1
 10
0.0
 20
0.0
 30
0.0
  0
VERTEX
  5
2D6
330
2D5
100
AcDbEntity
  8
\U+30EC\U+30A4\U+30E4\U+30FC 1
 62
     7
370
    18
100
AcDbVertex
100
AcDb2dVertex
 10
14.57362479061743
 20
45.45031344634906
 30
0.0
  0
VERTEX
  5
2D7
330
2D5
100
AcDbEntity
  8
\U+30EC\U+30A4\U+30E4\U+30FC 1
 62
     7
370
    18
100
AcDbVertex
100
AcDb2dVertex
 10
14.57362479061743
 20
52.04078545732978
 30
0.0
  0
SEQEND
  5
2D8
330
2D5
100
AcDbEntity
  8
\U+30EC\U+30A4\U+30E4\U+30FC 1
370
    18
  0
POLYLINE
  5
2D9
330
1F
100
AcDbEntity
  8
\U+30EC\U+30A4\U+30E4\U+30FC 1
 62
     7
370
    18
100
AcDb2dPolyline
 66
     1
 10
0.0
 20
0.0
 30
0.0
  0
VERTEX
  5
2DA
330
2D9
100
AcDbEntity
  8
\U+30EC\U+30A4\U+30E4\U+30FC 1
 62
     7
370
    18
100
AcDbVertex
100
AcDb2dVertex
 10
18.07005450517275
 20
52.59785776479218
 30
0.0
  0
VERTEX
  5
2DB
330
2D9
100
AcDbEntity
  8
\U+30EC\U+30A4\U+30E4\U+30FC 1
 62
     7
370
    18
100
AcDbVertex
100
AcDb2dVertex
 10
18.07005450517275
 20
55.06592579859593
 30
0.0
  0
SEQEND
  5
2DC
330
2D9
100
AcDbEntity
  8
\U+30EC\U+30A4\U+30E4\U+30FC 1
370
    18
  0
POLYLINE
  5
2DD
330
1F
100
AcDbEntity
  8
\U+30EC\U+30A4\U+30E4\U+30FC 1
 62
     7
370
    18
100
AcDb2dPolyline
 66
     1
 10
0.0
 20
0.0
 30
0.0
  0
VERTEX
  5
2DE
330
2DD
100
AcDbEntity
  8
\U+30EC\U+30A4\U+30E4\U+30FC 1
 62
     7
370
    18
100
AcDbVertex
100
AcDb2dVertex
 10
22.78932166891657
 20
43.5046944875402
 30
0.0
  0
VERTEX
  5
2DF
330
2DD
100
AcDbEntity
  8
\U+30EC\U+30A4\U+30E4\U+30FC 1
 62
     7
370
    18
100
AcDbVertex
100
AcDb2dVertex
 10
22.78932166891657
 20
35.07764086179012
 30
0.0
  0
SEQEND
  5
2E0
330
2DD
100
AcDbEntity
  8
\U+30EC\U+30A4\U+30E4\U+30FC 1
370
    18
  0
POLYLINE
  5
2E1
330
1F
100
AcDbEntity
  8
\U+30EC\U+30A4\U+30E4\U+30FC 1
 62
     7
370
    18
100
AcDb2dPolyline
 66
     1
 10
0.0
 20
0.0
 30
0.0
  0
VERTEX
  5
2E2
330
2E1
100
AcDbEntity
  8
\U+30EC\U+30A4\U+30E4\U+30FC 1
 62
     7
370
    18
100
AcDbVertex
100
AcDb2dVertex
 10
22.82583970515096
 20
35.3578995644003
 30
0.0
  0
VERTEX
  5
2E3
330
2E1
100
AcDbEntity
  8
\U+30EC\U+30A4\U+30E4\U+30FC 1
 62
     7
370
    18
100
AcDbVertex
100
AcDb2dVertex
 10
39.9076679184524
 20
35.3578995644003
 30
0.0
  0
SEQEND
  5
2E4
330
2E1
100
AcDbEntity
  8
\U+30EC\U+30A4\U+30E4\U+30FC 1
370
    18
  0
POLYLINE
  5
2E5
330
1F
100
AcDbEntity
  8
\U+30EC\U+30A4\U+30E4\U+30FC 1
 62
     7
370
    18
100
AcDb2dPolyline
 66
     1
 10
0.0
 20
0.0
 30
0.0
  0
VERTEX
  5
2E6
330
2E5
100
AcDbEntity
  8
\U+30EC\U+30A4\U+30E4\U+30FC 1
 62
     7
370
    18
100
AcDbVertex
100
AcDb2dVertex
 10
29.26507192455716
 20
39.83394282643202
 30
0.0
  0
VERTEX
  5
2E7
330
2E5
100
AcDbEntity
  8
\U+30EC\U+30A4\U+30E4\U+30FC 1
 62
     7
370
    18
100
AcDbVertex
100
AcDb2dVertex
 10
10.55905237326468
 20
39.83394282643202
 30
0.0
  0
SEQEND
  5
2E8
330
2E5
100
AcDbEntity
  8
\U+30EC\U+30A4\U+30E4\U+30FC 1
370
    18
  0
POLYLINE
  5
2E9
330
1F
100
AcDbEntity
  8
\U+30EC\U+30A4\U+30E4\U+30FC 1
 62
     7
370
    18
100
AcDb2dPolyline
 66
     1
 10
0.0
 20
0.0
 30
0.0
  0
VERTEX
  5
2EA
330
2E9
100
AcDbEntity
  8
\U+30EC\U+30A4\U+30E4\U+30FC 1
 62
     7
370
    18
100
AcDbVertex
100
AcDb2dVertex
 10
33.76471410623092
 20
41.22903516351861
 30
0.0
  0
VERTEX
  5
2EB
330
2E9
100
AcDbEntity
  8
\U+30EC\U+30A4\U+30E4\U+30FC 1
 62
     7
370
    18
100
AcDbVertex
100
AcDb2dVertex
 10
49.42096086728781
 20
41.22903516351861
 30
0.0
  0
SEQEND
  5
2EC
330
2E9
100
AcDbEntity
  8
\U+30EC\U+30A4\U+30E4\U+30FC 1
370
    18
  0
POLYLINE
  5
2ED
330
1F
100
AcDbEntity
  8
\U+30EC\U+30A4\U+30E4\U+30FC 1
 62
     7
370
    18
100
AcDb2dPolyline
 66
     1
 10
0.0
 20
0.0
 30
0.0
  0
VERTEX
  5
2EE
330
2ED
100
AcDbEntity
  8
\U+30EC\U+30A4\U+30E4\U+30FC 1
 62
     7
370
    18
100
AcDbVertex
100
AcDb2dVertex
 10
18.03577578248103
 20
45.45031344634906
 30
0.0
  0
VERTEX
  5
2EF
330
2ED
100
AcDbEntity
  8
\U+30EC\U+30A4\U+30E4\U+30FC 1
 62
     7
370
    18
100
AcDbVertex
100
AcDb2dVertex
 10
14.37329235599196
 20
45.45031344634906
 30
0.0
  0
SEQEND
  5
2F0
330
2ED
100
AcDbEntity
  8
\U+30EC\U+30A4\U+30E4\U+30FC 1
370
    18
  0
POLYLINE
  5
2F1
330
1F
100
AcDbEntity
  8
\U+30EC\U+30A4\U+30E4\U+30FC 1
 62
     7
370
    18
100
AcDb2dPolyline
 66
     1
 10
0.0
 20
0.0
 30
0.0
  0
VERTEX
  5
2F2
330
2F1
100
AcDbEntity
  8
\U+30EC\U+30A4\U+30E4\U+30FC 1
 62
     7
370
    18
100
AcDbVertex
100
AcDb2dVertex
 10
16.4648112048505
 20
52.04078545732978
 30
0.0
  0
VERTEX
  5
2F3
330
2F1
100
AcDbEntity
  8
\U+30EC\U+30A4\U+30E4\U+30FC 1
 62
     7
370
    18
100
AcDbVertex
100
AcDb2dVertex
 10
10.55905237326468
 20
52.04078545732978
 30
0.0
  0
SEQEND
  5
2F4
330
2F1
100
AcDbEntity
  8
\U+30EC\U+30A4\U+30E4\U+30FC 1
370
    18
  0
POLYLINE
  5
2F5
330
1F
100
AcDbEntity
  8
\U+30EC\U+30A4\U+30E4\U+30FC 1
 62
     7
370
    18
100
AcDb2dPolyline
 66
     1
 10
0.0
 20
0.0
 30
0.0
  0
VERTEX
  5
2F6
330
2F5
100
AcDbEntity
  8
\U+30EC\U+30A4\U+30E4\U+30FC 1
 62
     7
370
    18
100
AcDbVertex
100
AcDb2dVertex
 10
45.09357357351213
 20
52.04078545732978
 30
0.0
  0
VERTEX
  5
2F7
330
2F5
100
AcDbEntity
  8
\U+30EC\U+30A4\U+30E4\U+30FC 1
 62
     7
370
    18
100
AcDbVertex
100
AcDb2dVertex
 10
49.42096086728781
 20
52.04078545732978
 30
0.0
  0
SEQEND
  5
2F8
330
2F5
100
AcDbEntity
  8
\U+30EC\U+30A4\U+30E4\U+30FC 1
370
    18
  0
POLYLINE
  5
2F9
330
1F
100
AcDbEntity
  8
\U+30EC\U+30A4\U+30E4\U+30FC 1
 62
     7
370
    18
100
AcDb2dPolyline
 66
     1
 10
0.0
 20
0.0
 30
0.0
  0
VERTEX
  5
2FA
330
2F9
100
AcDbEntity
  8
\U+30EC\U+30A4\U+30E4\U+30FC 1
 62
     7
370
    18
100
AcDbVertex
100
AcDb2dVertex
 10
39.87114988221801
 20
43.50400546798861
 30
0.0
  0
VERTEX
  5
2FB
330
2F9
100
AcDbEntity
  8
\U+30EC\U+30A4\U+30E4\U+30FC 1
 62
     7
370
    18
100
AcDbVertex
100
AcDb2dVertex
 10
39.87114988221801
 20
35.07764086179012
 30
0.0
  0
SEQEND
  5
2FC
330
2F9
100
AcDbEntity
  8
\U+30EC\U+30A4\U+30E4\U+30FC 1
370
    18
  0
POLYLINE
  5
2FD
330
1F
100
AcDbEntity
  8
\U+30EC\U+30A4\U+30E4\U+30FC 1
 62
     7
370
    18
100
AcDb2dPolyline
 66
     1
 10
0.0
 20
0.0
 30
0.0
  0
VERTEX
  5
2FE
330
2FD
100
AcDbEntity
  8
\U+30EC\U+30A4\U+30E4\U+30FC 1
 62
     7
370
    18
100
AcDbVertex
100
AcDb2dVertex
 10
18.07005450517275
 20
54.86542110908256
 30
0.0
  0
VERTEX
  5
2FF
330
2FD
100
AcDbEntity
  8
\U+30EC\U+30A4\U+30E4\U+30FC 1
 62
     7
370
    18
100
AcDbVertex
100
AcDb2dVertex
 10
44.49929421026374
 20
54.86542110908256
 30
0.0
  0
SEQEND
  5
300
330
2FD
100
AcDbEntity
  8
\U+30EC\U+30A4\U+30E4\U+30FC 1
370
    18
  0
POLYLINE
  5
301
330
1F
100
AcDbEntity
  8
\U+30EC\U+30A4\U+30E4\U+30FC 1
 62
     7
370
    18
100
AcDb2dPolyline
 66
     1
 10
0.0
 20
0.0
 30
0.0
  0
VERTEX
  5
302
330
301
100
AcDbEntity
  8
\U+30EC\U+30A4\U+30E4\U+30FC 1
 62
     7
370
    18
100
AcDbVertex
100
AcDb2dVertex
 10
44.49929421026374
 20
52.59785776479218
 30
0.0
  0
VERTEX
  5
303
330
301
100
AcDbEntity
  8
\U+30EC\U+30A4\U+30E4\U+30FC 1
 62
     7
370
    18
100
AcDbVertex
100
AcDb2dVertex
 10
44.49929421026374
 20
55.06592579859593
 30
0.0
  0
SEQEND
  5
304
330
301
100
AcDbEntity
  8
\U+30EC\U+30A4\U+30E4\U+30FC 1
370
    18
  0
POLYLINE
  5
305
330
1F
100
AcDbEntity
  8
\U+30EC\U+30A4\U+30E4\U+30FC 1
 62
     7
370
    18
100
AcDb2dPolyline
 66
     1
 10
0.0
 20
0.0
 30
0.0
  0
VERTEX
  5
306
330
305
100
AcDbEntity
  8
\U+30EC\U+30A4\U+30E4\U+30FC 1
 62
     7
370
    18
100
AcDbVertex
100
AcDb2dVertex
 10
49.22045617777444
 20
41.22903516351861
 30
0.0
  0
VERTEX
  5
307
330
305
100
AcDbEntity
  8
\U+30EC\U+30A4\U+30E4\U+30FC 1
 62
     7
370
    18
100
AcDbVertex
100
AcDb2dVertex
 10
49.22045617777444
 20
52.04078545732978
 30
0.0
  0
SEQEND
  5
308
330
305
100
AcDbEntity
  8
\U+30EC\U+30A4\U+30E4\U+30FC 1
370
    18
  0
POLYLINE
  5
309
330
1F
100
AcDbEntity
  8
\U+30EC\U+30A4\U+30E4\U+30FC 1
 62
     7
370
     9
100
AcDb2dPolyline
 66
     1
 10
0.0
 20
0.0
 30
0.0
  0
VERTEX
  5
30A
330
309
100
AcDbEntity
  8
\U+30EC\U+30A4\U+30E4\U+30FC 1
 62
     7
370
     9
100
AcDbVertex
100
AcDb2dVertex
 10
39.87114988221801
 20
43.6042578127453
 30
0.0
  0
VERTEX
  5
30B
330
309
100
AcDbEntity
  8
\U+30EC\U+30A4\U+30E4\U+30FC 1
 62
     7
370
     9
100
AcDbVertex
100
AcDb2dVertex
 10
39.87114988221801
 20
45.40001501908282
 30
0.0
  0
SEQEND
  5
30C
330
309
100
AcDbEntity
  8
\U+30EC\U+30A4\U+30E4\U+30FC 1
370
     9
  0
POLYLINE
  5
30D
330
1F
100
AcDbEntity
  8
\U+30EC\U+30A4\U+30E4\U+30FC 1
 62
     7
370
    18
100
AcDb2dPolyline
 66
     1
 10
0.0
 20
0.0
 30
0.0
  0
VERTEX
  5
30E
330
30D
100
AcDbEntity
  8
\U+30EC\U+30A4\U+30E4\U+30FC 1
 62
     7
370
    18
100
AcDbVertex
100
AcDb2dVertex
 10
18.07005450517275
 20
51.97446732548902
 30
0.0
  0
VERTEX
  5
30F
330
30D
100
AcDbEntity
  8
\U+30EC\U+30A4\U+30E4\U+30FC 1
 62
     7
370
    18
100
AcDbVertex
100
AcDb2dVertex
 10
18.07005450517275
 20
45.51628706841403
 30
0.0
  0
SEQEND
  5
310
330
30D
100
AcDbEntity
  8
\U+30EC\U+30A4\U+30E4\U+30FC 1
370
    18
  0
POLYLINE
  5
311
330
1F
100
AcDbEntity
  8
\U+30EC\U+30A4\U+30E4\U+30FC 1
 62
     7
370
    18
100
AcDb2dPolyline
 66
     1
 10
0.0
 20
0.0
 30
0.0
  0
VERTEX
  5
312
330
311
100
AcDbEntity
  8
\U+30EC\U+30A4\U+30E4\U+30FC 1
 62
     7
370
    18
100
AcDbVertex
100
AcDb2dVertex
 10
29.36515201442594
 20
39.83377057154412
 30
0.0
  0
VERTEX
  5
313
330
311
100
AcDbEntity
  8
\U+30EC\U+30A4\U+30E4\U+30FC 1
 62
     7
370
    18
100
AcDbVertex
100
AcDb2dVertex
 10
33.20385219123475
 20
39.83377057154412
 30
0.0
  0
SEQEND
  5
314
330
311
100
AcDbEntity
  8
\U+30EC\U+30A4\U+30E4\U+30FC 1
370
    18
  0
POLYLINE
  5
315
330
1F
100
AcDbEntity
  8
\U+30EC\U+30A4\U+30E4\U+30FC 1
 62
     7
370
    18
100
AcDb2dPolyline
 66
     1
 10
0.0
 20
0.0
 30
0.0
  0
VERTEX
  5
316
330
315
100
AcDbEntity
  8
\U+30EC\U+30A4\U+30E4\U+30FC 1
 62
     7
370
    18
100
AcDbVertex
100
AcDb2dVertex
 10
18.13602812723772
 20
45.44979668168537
 30
0.0
  0
VERTEX
  5
317
330
315
100
AcDbEntity
  8
\U+30EC\U+30A4\U+30E4\U+30FC 1
 62
     7
370
    18
100
AcDbVertex
100
AcDb2dVertex
 10
44.43314833331087
 20
45.44979668168537
 30
0.0
  0
SEQEND
  5
318
330
315
100
AcDbEntity
  8
\U+30EC\U+30A4\U+30E4\U+30FC 1
370
    18
  0
POLYLINE
  5
319
330
1F
100
AcDbEntity
  8
\U+30EC\U+30A4\U+30E4\U+30FC 1
 62
     7
370
    18
100
AcDb2dPolyline
 66
     1
 10
0.0
 20
0.0
 30
0.0
  0
VERTEX
  5
31A
330
319
100
AcDbEntity
  8
\U+30EC\U+30A4\U+30E4\U+30FC 1
 62
     7
370
    18
100
AcDbVertex
100
AcDb2dVertex
 10
18.13602812723772
 20
52.04078545732978
 30
0.0
  0
VERTEX
  5
31B
330
319
100
AcDbEntity
  8
\U+30EC\U+30A4\U+30E4\U+30FC 1
 62
     7
370
    18
100
AcDbVertex
100
AcDb2dVertex
 10
44.43314833331087
 20
52.04078545732978
 30
0.0
  0
SEQEND
  5
31C
330
319
100
AcDbEntity
  8
\U+30EC\U+30A4\U+30E4\U+30FC 1
370
    18
  0
POLYLINE
  5
31D
330
1F
100
AcDbEntity
  8
\U+30EC\U+30A4\U+30E4\U+30FC 1
 62
     7
370
    18
100
AcDb2dPolyline
 66
     1
 10
0.0
 20
0.0
 30
0.0
  0
VERTEX
  5
31E
330
31D
100
AcDbEntity
  8
\U+30EC\U+30A4\U+30E4\U+30FC 1
 62
     7
370
    18
100
AcDbVertex
100
AcDb2dVertex
 10
44.49929421026374
 20
51.97446732548902
 30
0.0
  0
VERTEX
  5
31F
330
31D
100
AcDbEntity
  8
\U+30EC\U+30A4\U+30E4\U+30FC 1
 62
     7
370
    18
100
AcDbVertex
100
AcDb2dVertex
 10
44.49929421026374
 20
45.51628706841403
 30
0.0
  0
SEQEND
  5
320
330
31D
100
AcDbEntity
  8
\U+30EC\U+30A4\U+30E4\U+30FC 1
370
    18
  0
SPLINE
  5
321
330
1F
100
AcDbEntity
  8
\U+30EC\U+30A4\U+30E4\U+30FC 1
 62
     7
370
    18
100
AcDbSpline
210
0.0
220
0.0
230
1.0
 70
     8
 71
     3
 72
    11
 73
     7
 74
     0
 42
0.0000000001
 43
0.0000000001
 40
0.0
 40
0.0
 40
0.0
 40
0.0
 40
1.0
 40
1.0
 40
1.0
 40
2.0
 40
2.0
 40
2.0
 40
2.0
 10
29.29986741191257
 20
39.88975341011101
 30
0.0
 10
29.29986741191257
 20
39.88975341011101
 30
0.0
 10
29.29986741191257
 20
39.88975341011101
 30
0.0
 10
29.29986741191257
 20
39.88975341011101
 30
0.0
 10
29.28729280509601
 20
39.970885462311
 30
0.0
 10
29.22665908455588
 20
40.03565330016068
 30
0.0
 10
29.14673281657117
 20
40.05322329872629
 30
0.0
  0
SPLINE
  5
322
330
1F
100
AcDbEntity
  8
\U+30EC\U+30A4\U+30E4\U+30FC 1
 62
     7
370
    18
100
AcDbSpline
210
0.0
220
0.0
230
1.0
 70
     8
 71
     3
 72
    11
 73
     7
 74
     0
 42
0.0000000001
 43
0.0000000001
 40
0.0
 40
0.0
 40
0.0
 40
0.0
 40
1.0
 40
1.0
 40
1.0
 40
2.0
 40
2.0
 40
2.0
 40
2.0
 10
18.07005450517275
 20
45.51628706841403
 30
0.0
 10
18.07005450517275
 20
45.51628706841403
 30
0.0
 10
18.07005450517275
 20
45.51628706841403
 30
0.0
 10
18.07005450517275
 20
45.51628706841403
 30
0.0
 10
18.07005450517275
 20
45.47959677729174
 30
0.0
 10
18.09933783611542
 20
45.44979668168537
 30
0.0
 10
18.13602812723772
 20
45.44979668168537
 30
0.0
  0
SPLINE
  5
323
330
1F
100
AcDbEntity
  8
\U+30EC\U+30A4\U+30E4\U+30FC 1
 62
     7
370
    18
100
AcDbSpline
210
0.0
220
0.0
230
1.0
 70
     8
 71
     3
 72
    11
 73
     7
 74
     0
 42
0.0000000001
 43
0.0000000001
 40
0.0
 40
0.0
 40
0.0
 40
0.0
 40
1.0
 40
1.0
 40
1.0
 40
2.0
 40
2.0
 40
2.0
 40
2.0
 10
29.29986741191257
 20
39.88975341011101
 30
0.0
 10
29.29986741191257
 20
39.88975341011101
 30
0.0
 10
29.29986741191257
 20
39.88975341011101
 30
0.0
 10
29.29986741191257
 20
39.88975341011101
 30
0.0
 10
29.30503505854951
 20
39.85754174607406
 30
0.0
 10
29.3331126052769
 20
39.83377057154412
 30
0.0
 10
29.36515201442594
 20
39.83377057154412
 30
0.0
  0
SPLINE
  5
324
330
1F
100
AcDbEntity
  8
\U+30EC\U+30A4\U+30E4\U+30FC 1
 62
     7
370
    18
100
AcDbSpline
210
0.0
220
0.0
230
1.0
 70
     8
 71
     3
 72
    11
 73
     7
 74
     0
 42
0.0000000001
 43
0.0000000001
 40
0.0
 40
0.0
 40
0.0
 40
0.0
 40
1.0
 40
1.0
 40
1.0
 40
2.0
 40
2.0
 40
2.0
 40
2.0
 10
18.13602812723772
 20
52.04078545732978
 30
0.0
 10
18.13602812723772
 20
52.04078545732978
 30
0.0
 10
18.13602812723772
 20
52.04078545732978
 30
0.0
 10
18.13602812723772
 20
52.04078545732978
 30
0.0
 10
18.09933783611542
 20
52.04078545732978
 30
0.0
 10
18.07005450517275
 20
52.01081310683551
 30
0.0
 10
18.07005450517275
 20
51.97446732548902
 30
0.0
  0
SPLINE
  5
325
330
1F
100
AcDbEntity
  8
\U+30EC\U+30A4\U+30E4\U+30FC 1
 62
     7
370
    18
100
AcDbSpline
210
0.0
220
0.0
230
1.0
 70
     8
 71
     3
 72
    11
 73
     7
 74
     0
 42
0.0000000001
 43
0.0000000001
 40
0.0
 40
0.0
 40
0.0
 40
0.0
 40
1.0
 40
1.0
 40
1.0
 40
2.0
 40
2.0
 40
2.0
 40
2.0
 10
33.42296040864112
 20
40.05322329872629
 30
0.0
 10
33.42296040864112
 20
40.05322329872629
 30
0.0
 10
33.42296040864112
 20
40.05322329872629
 30
0.0
 10
33.42296040864112
 20
40.05322329872629
 30
0.0
 10
33.34268963088061
 20
40.03565330016068
 30
0.0
 10
33.28171140056469
 20
39.970885462311
 30
0.0
 10
33.26930904863602
 20
39.88975341011101
 30
0.0
  0
SPLINE
  5
326
330
1F
100
AcDbEntity
  8
\U+30EC\U+30A4\U+30E4\U+30FC 1
 62
     7
370
    18
100
AcDbSpline
210
0.0
220
0.0
230
1.0
 70
     8
 71
     3
 72
    11
 73
     7
 74
     0
 42
0.0000000001
 43
0.0000000001
 40
0.0
 40
0.0
 40
0.0
 40
0.0
 40
1.0
 40
1.0
 40
1.0
 40
2.0
 40
2.0
 40
2.0
 40
2.0
 10
44.43314833331087
 20
45.44979668168537
 30
0.0
 10
44.43314833331087
 20
45.44979668168537
 30
0.0
 10
44.43314833331087
 20
45.44979668168537
 30
0.0
 10
44.43314833331087
 20
45.44979668168537
 30
0.0
 10
44.47001087932107
 20
45.44979668168537
 30
0.0
 10
44.49929421026374
 20
45.47959677729174
 30
0.0
 10
44.49929421026374
 20
45.51628706841403
 30
0.0
  0
SPLINE
  5
327
330
1F
100
AcDbEntity
  8
\U+30EC\U+30A4\U+30E4\U+30FC 1
 62
     7
370
    18
100
AcDbSpline
210
0.0
220
0.0
230
1.0
 70
     8
 71
     3
 72
    11
 73
     7
 74
     0
 42
0.0000000001
 43
0.0000000001
 40
0.0
 40
0.0
 40
0.0
 40
0.0
 40
1.0
 40
1.0
 40
1.0
 40
2.0
 40
2.0
 40
2.0
 40
2.0
 10
33.20385219123475
 20
39.83377057154412
 30
0.0
 10
33.20385219123475
 20
39.83377057154412
 30
0.0
 10
33.20385219123475
 20
39.83377057154412
 30
0.0
 10
33.20385219123475
 20
39.83377057154412
 30
0.0
 10
33.2362361101596
 20
39.83377057154412
 30
0.0
 10
33.26448591177488
 20
39.85754174607406
 30
0.0
 10
33.26930904863602
 20
39.88975341011101
 30
0.0
  0
SPLINE
  5
328
330
1F
100
AcDbEntity
  8
\U+30EC\U+30A4\U+30E4\U+30FC 1
 62
     7
370
    18
100
AcDbSpline
210
0.0
220
0.0
230
1.0
 70
     8
 71
     3
 72
    11
 73
     7
 74
     0
 42
0.0000000001
 43
0.0000000001
 40
0.0
 40
0.0
 40
0.0
 40
0.0
 40
1.0
 40
1.0
 40
1.0
 40
2.0
 40
2.0
 40
2.0
 40
2.0
 10
44.49929421026374
 20
51.97446732548902
 30
0.0
 10
44.49929421026374
 20
51.97446732548902
 30
0.0
 10
44.49929421026374
 20
51.97446732548902
 30
0.0
 10
44.49929421026374
 20
51.97446732548902
 30
0.0
 10
44.49929421026374
 20
52.01081310683551
 30
0.0
 10
44.47001087932107
 20
52.04078545732978
 30
0.0
 10
44.43314833331087
 20
52.04078545732978
 30
0.0
  0
SPLINE
  5
329
330
1F
100
AcDbEntity
  8
\U+30EC\U+30A4\U+30E4\U+30FC 1
 62
     7
370
    18
100
AcDbSpline
210
0.0
220
0.0
230
1.0
 70
     8
 71
     3
 72
    20
 73
    16
 74
     0
 42
0.0000000001
 43
0.0000000001
 40
0.0
 40
0.0
 40
0.0
 40
0.0
 40
1.0
 40
1.0
 40
1.0
 40
2.0
 40
2.0
 40
2.0
 40
3.0
 40
3.0
 40
3.0
 40
4.0
 40
4.0
 40
4.0
 40
5.0
 40
5.0
 40
5.0
 40
5.0
 10
31.28493274005009
 20
5.646170715523411
 30
0.0
 10
31.28493274005009
 20
5.646170715523411
 30
0.0
 10
31.28493274005009
 20
5.645481695971819
 30
0.0
 10
31.28493274005009
 20
5.645481695971819
 30
0.0
 10
38.57923822298238
 20
5.645481695971819
 30
0.0
 10
44.49929421026374
 20
11.56622670280478
 30
0.0
 10
44.49929421026374
 20
18.86018767596126
 30
0.0
 10
44.49929421026374
 20
26.15518217844514
 30
0.0
 10
38.57923822298238
 20
32.0752381657265
 30
0.0
 10
31.28493274005009
 20
32.0752381657265
 30
0.0
 10
23.99028274734201
 20
32.0752381657265
 30
0.0
 10
18.07005450517275
 20
26.15518217844514
 30
0.0
 10
18.07005450517275
 20
18.86018767596126
 30
0.0
 10
18.07005450517275
 20
11.56622670280478
 30
0.0
 10
23.99028274734201
 20
5.645481695971819
 30
0.0
 10
31.28493274005009
 20
5.645481695971819
 30
0.0
  0
SPLINE
  5
32A
330
1F
100
AcDbEntity
  8
\U+30EC\U+30A4\U+30E4\U+30FC 1
 62
     7
370
    18
100
AcDbSpline
210
0.0
220
0.0
230
1.0
 70
    11
 71
     3
 72
    20
 73
    16
 74
     0
 42
0.0000000001
 43
0.0000000001
 40
0.0
 40
0.0
 40
0.0
 40
0.0
 40
1.0
 40
1.0
 40
1.0
 40
2.0
 40
2.0
 40
2.0
 40
3.0
 40
3.0
 40
3.0
 40
4.0
 40
4.0
 40
4.0
 40
5.0
 40
5.0
 40
5.0
 40
5.0
 10
31.28493274005009
 20
17.34021054514857
 30
0.0
 10
31.28493274005009
 20
17.34021054514857
 30
0.0
 10
31.28493274005009
 20
17.34021054514857
 30
0.0
 10
31.28493274005009
 20
17.34021054514857
 30
0.0
 10
32.12346953433797
 20
17.34021054514857
 30
0.0
 10
32.80456536108699
 20
18.02199539144918
 30
0.0
 10
32.80456536108699
 20
18.86018767596126
 30
0.0
 10
32.80456536108699
 20
19.69906898002494
 30
0.0
 10
32.12346953433797
 20
20.37982029699817
 30
0.0
 10
31.28493274005009
 20
20.37982029699817
 30
0.0
 10
30.44570692621063
 20
20.37982029699817
 30
0.0
 10
29.76512786412529
 20
19.69906898002494
 30
0.0
 10
29.76512786412529
 20
18.86018767596126
 30
0.0
 10
29.76512786412529
 20
18.02199539144918
 30
0.0
 10
30.44570692621063
 20
17.34021054514857
 30
0.0
 10
31.28493274005009
 20
17.34021054514857
 30
0.0
  0
SPLINE
  5
32B
330
1F
100
AcDbEntity
  8
\U+30EC\U+30A4\U+30E4\U+30FC 1
 62
     7
370
     9
100
AcDbSpline
210
0.0
220
0.0
230
1.0
 70
     8
 71
     3
 72
    14
 73
    10
 74
     0
 42
0.0000000001
 43
0.0000000001
 40
0.0
 40
0.0
 40
0.0
 40
0.0
 40
1.0
 40
1.0
 40
1.0
 40
2.0
 40
2.0
 40
2.0
 40
3.0
 40
3.0
 40
3.0
 40
3.0
 10
15.48588667692569
 20
45.40001501908282
 30
0.0
 10
15.48588667692569
 20
45.40001501908282
 30
0.0
 10
15.48209706939193
 20
45.38227276562932
 30
0.0
 10
15.48209706939193
 20
45.38227276562932
 30
0.0
 10
15.35376717790786
 20
44.84776584848156
 30
0.0
 10
15.37512678400722
 20
44.30791902980897
 30
0.0
 10
15.5391134372862
 20
43.7837474059351
 30
0.0
 10
15.5391134372862
 20
43.7837474059351
 30
0.0
 10
15.60078068715371
 20
43.60460232252109
 30
0.0
 10
15.60078068715371
 20
43.60460232252109
 30
0.0
  0
SPLINE
  5
32C
330
1F
100
AcDbEntity
  8
\U+30EC\U+30A4\U+30E4\U+30FC 1
 62
     7
370
     9
100
AcDbSpline
210
0.0
220
0.0
230
1.0
 70
     8
 71
     3
 72
    14
 73
    10
 74
     0
 42
0.0000000001
 43
0.0000000001
 40
0.0
 40
0.0
 40
0.0
 40
0.0
 40
1.0
 40
1.0
 40
1.0
 40
2.0
 40
2.0
 40
2.0
 40
3.0
 40
3.0
 40
3.0
 40
3.0
 10
46.25043740063567
 20
45.40001501908282
 30
0.0
 10
46.25043740063567
 20
45.40001501908282
 30
0.0
 10
46.22769975543312
 20
45.27857532311467
 30
0.0
 10
46.22769975543312
 20
45.27857532311467
 30
0.0
 10
46.17705681839109
 20
44.75319791502552
 30
0.0
 10
46.6163067825312
 20
44.24883560325993
 30
0.0
 10
46.71104697087515
 20
43.74223397795166
 30
0.0
 10
46.71104697087515
 20
43.74223397795166
 30
0.0
 10
46.72896147921654
 20
43.6042578127453
 30
0.0
 10
46.72896147921654
 20
43.6042578127453
 30
0.0
  0
POLYLINE
  5
32D
330
1F
100
AcDbEntity
  8
\U+30EC\U+30A4\U+30E4\U+30FC 1
  6
AI-Linetype-37
 62
     7
370
    18
100
AcDb2dPolyline
 66
     1
 10
0.0
 20
0.0
 30
0.0
  0
VERTEX
  5
32E
330
32D
100
AcDbEntity
  8
\U+30EC\U+30A4\U+30E4\U+30FC 1
  6
AI-Linetype-37
 62
     7
370
    18
100
AcDbVertex
100
AcDb2dVertex
 10
18.15118655737275
 20
52.038718398675
 30
0.0
  0
VERTEX
  5
32F
330
32D
100
AcDbEntity
  8
\U+30EC\U+30A4\U+30E4\U+30FC 1
  6
AI-Linetype-37
 62
     7
370
    18
100
AcDbVertex
100
AcDb2dVertex
 10
18.4342013381893
 20
51.96034242468137
 30
0.0
  0
VERTEX
  5
330
330
32D
100
AcDbEntity
  8
\U+30EC\U+30A4\U+30E4\U+30FC 1
  6
AI-Linetype-37
 62
     7
370
    18
100
AcDbVertex
100
AcDb2dVertex
 10
18.70843111972305
 20
51.86387968745844
 30
0.0
  0
VERTEX
  5
331
330
32D
100
AcDbEntity
  8
\U+30EC\U+30A4\U+30E4\U+30FC 1
  6
AI-Linetype-37
 62
     7
370
    18
100
AcDbVertex
100
AcDb2dVertex
 10
18.973875901974
 20
51.74915793211832
 30
0.0
  0
VERTEX
  5
332
330
32D
100
AcDbEntity
  8
\U+30EC\U+30A4\U+30E4\U+30FC 1
  6
AI-Linetype-37
 62
     7
370
    18
100
AcDbVertex
100
AcDb2dVertex
 10
19.23260274359692
 20
51.61531588422151
 30
0.0
  0
VERTEX
  5
333
330
32D
100
AcDbEntity
  8
\U+30EC\U+30A4\U+30E4\U+30FC 1
  6
AI-Linetype-37
 62
     7
370
    18
100
AcDbVertex
100
AcDb2dVertex
 10
19.4861619385829
 20
51.46166452421642
 30
0.0
  0
VERTEX
  5
334
330
32D
100
AcDbEntity
  8
\U+30EC\U+30A4\U+30E4\U+30FC 1
  6
AI-Linetype-37
 62
     7
370
    18
100
AcDbVertex
100
AcDb2dVertex
 10
19.73489799670774
 20
51.28734257766355
 30
0.0
  0
VERTEX
  5
335
330
32D
100
AcDbEntity
  8
\U+30EC\U+30A4\U+30E4\U+30FC 1
  6
AI-Linetype-37
 62
     7
370
    18
100
AcDbVertex
100
AcDb2dVertex
 10
19.9810502315141
 20
51.09079975057184
 30
0.0
  0
VERTEX
  5
336
330
32D
100
AcDbEntity
  8
\U+30EC\U+30A4\U+30E4\U+30FC 1
  6
AI-Linetype-37
 62
     7
370
    18
100
AcDbVertex
100
AcDb2dVertex
 10
20.22547991744148
 20
50.8697967293986
 30
0.0
  0
VERTEX
  5
337
330
32D
100
AcDbEntity
  8
\U+30EC\U+30A4\U+30E4\U+30FC 1
  6
AI-Linetype-37
 62
     7
370
    18
100
AcDbVertex
100
AcDb2dVertex
 10
20.46904832892937
 20
50.62209420060115
 30
0.0
  0
VERTEX
  5
338
330
32D
100
AcDbEntity
  8
\U+30EC\U+30A4\U+30E4\U+30FC 1
  6
AI-Linetype-37
 62
     7
370
    18
100
AcDbVertex
100
AcDb2dVertex
 10
20.71433928929624
 20
50.34476383108524
 30
0.0
  0
VERTEX
  5
339
330
32D
100
AcDbEntity
  8
\U+30EC\U+30A4\U+30E4\U+30FC 1
  6
AI-Linetype-37
 62
     7
370
    18
100
AcDbVertex
100
AcDb2dVertex
 10
20.96376436697267
 20
50.03263797421391
 30
0.0
  0
VERTEX
  5
33A
330
32D
100
AcDbEntity
  8
\U+30EC\U+30A4\U+30E4\U+30FC 1
  6
AI-Linetype-37
 62
     7
370
    18
100
AcDbVertex
100
AcDb2dVertex
 10
21.21939062061343
 20
49.68072123823812
 30
0.0
  0
VERTEX
  5
33B
330
32D
100
AcDbEntity
  8
\U+30EC\U+30A4\U+30E4\U+30FC 1
  6
AI-Linetype-37
 62
     7
370
    18
100
AcDbVertex
100
AcDb2dVertex
 10
21.48621344196756
 20
49.28005636898718
 30
0.0
  0
VERTEX
  5
33C
330
32D
100
AcDbEntity
  8
\U+30EC\U+30A4\U+30E4\U+30FC 1
  6
AI-Linetype-37
 62
     7
370
    18
100
AcDbVertex
100
AcDb2dVertex
 10
21.77112302655099
 20
48.81669072054133
 30
0.0
  0
VERTEX
  5
33D
330
32D
100
AcDbEntity
  8
\U+30EC\U+30A4\U+30E4\U+30FC 1
  6
AI-Linetype-37
 62
     7
370
    18
100
AcDbVertex
100
AcDb2dVertex
 10
22.08841653005926
 20
48.26478605971587
 30
0.0
  0
VERTEX
  5
33E
330
32D
100
AcDbEntity
  8
\U+30EC\U+30A4\U+30E4\U+30FC 1
  6
AI-Linetype-37
 62
     7
370
    18
100
AcDbVertex
100
AcDb2dVertex
 10
22.4715114007446
 20
47.56198611709168
 30
0.0
  0
VERTEX
  5
33F
330
32D
100
AcDbEntity
  8
\U+30EC\U+30A4\U+30E4\U+30FC 1
  6
AI-Linetype-37
 62
     7
370
    18
100
AcDbVertex
100
AcDb2dVertex
 10
22.63532579913568
 20
47.25588918129679
 30
0.0
  0
VERTEX
  5
340
330
32D
100
AcDbEntity
  8
\U+30EC\U+30A4\U+30E4\U+30FC 1
  6
AI-Linetype-37
 62
     7
370
    18
100
AcDbVertex
100
AcDb2dVertex
 10
23.10816546641592
 20
46.37015454772484
 30
0.0
  0
VERTEX
  5
341
330
32D
100
AcDbEntity
  8
\U+30EC\U+30A4\U+30E4\U+30FC 1
  6
AI-Linetype-37
 62
     7
370
    18
100
AcDbVertex
100
AcDb2dVertex
 10
23.48488690624903
 20
45.68750842698473
 30
0.0
  0
VERTEX
  5
342
330
32D
100
AcDbEntity
  8
\U+30EC\U+30A4\U+30E4\U+30FC 1
  6
AI-Linetype-37
 62
     7
370
    18
100
AcDbVertex
100
AcDb2dVertex
 10
23.81613305567705
 20
45.11941180669685
 30
0.0
  0
SEQEND
  5
343
330
32D
100
AcDbEntity
  8
\U+30EC\U+30A4\U+30E4\U+30FC 1
  6
AI-Linetype-37
370
    18
  0
POLYLINE
  5
345
330
1F
100
AcDbEntity
  8
\U+30EC\U+30A4\U+30E4\U+30FC 1
  6
AI-Linetype-38
 62
     7
370
    18
100
AcDb2dPolyline
 66
     1
 10
0.0
 20
0.0
 30
0.0
  0
VERTEX
  5
346
330
345
100
AcDbEntity
  8
\U+30EC\U+30A4\U+30E4\U+30FC 1
  6
AI-Linetype-38
 62
     7
370
    18
100
AcDbVertex
100
AcDb2dVertex
 10
44.41798990317584
 20
52.038718398675
 30
0.0
  0
VERTEX
  5
347
330
345
100
AcDbEntity
  8
\U+30EC\U+30A4\U+30E4\U+30FC 1
  6
AI-Linetype-38
 62
     7
370
    18
100
AcDbVertex
100
AcDb2dVertex
 10
44.13480286747139
 20
51.96034242468137
 30
0.0
  0
VERTEX
  5
348
330
345
100
AcDbEntity
  8
\U+30EC\U+30A4\U+30E4\U+30FC 1
  6
AI-Linetype-38
 62
     7
370
    18
100
AcDbVertex
100
AcDb2dVertex
 10
43.86091759571344
 20
51.86387968745844
 30
0.0
  0
VERTEX
  5
349
330
345
100
AcDbEntity
  8
\U+30EC\U+30A4\U+30E4\U+30FC 1
  6
AI-Linetype-38
 62
     7
370
    18
100
AcDbVertex
100
AcDb2dVertex
 10
43.59530055857459
 20
51.74915793211832
 30
0.0
  0
VERTEX
  5
34A
330
345
100
AcDbEntity
  8
\U+30EC\U+30A4\U+30E4\U+30FC 1
  6
AI-Linetype-38
 62
     7
370
    18
100
AcDbVertex
100
AcDb2dVertex
 10
43.33622920717588
 20
51.61531588422151
 30
0.0
  0
VERTEX
  5
34B
330
345
100
AcDbEntity
  8
\U+30EC\U+30A4\U+30E4\U+30FC 1
  6
AI-Linetype-38
 62
     7
370
    18
100
AcDbVertex
100
AcDb2dVertex
 10
43.08335903174149
 20
51.46166452421642
 30
0.0
  0
VERTEX
  5
34C
330
345
100
AcDbEntity
  8
\U+30EC\U+30A4\U+30E4\U+30FC 1
  6
AI-Linetype-38
 62
     7
370
    18
100
AcDbVertex
100
AcDb2dVertex
 10
42.83393395406506
 20
51.28734257766355
 30
0.0
  0
VERTEX
  5
34D
330
345
100
AcDbEntity
  8
\U+30EC\U+30A4\U+30E4\U+30FC 1
  6
AI-Linetype-38
 62
     7
370
    18
100
AcDbVertex
100
AcDb2dVertex
 10
42.58829848392239
 20
51.09079975057184
 30
0.0
  0
VERTEX
  5
34E
330
345
100
AcDbEntity
  8
\U+30EC\U+30A4\U+30E4\U+30FC 1
  6
AI-Linetype-38
 62
     7
370
    18
100
AcDbVertex
100
AcDb2dVertex
 10
42.34369654310711
 20
50.8697967293986
 30
0.0
  0
VERTEX
  5
34F
330
345
100
AcDbEntity
  8
\U+30EC\U+30A4\U+30E4\U+30FC 1
  6
AI-Linetype-38
 62
     7
370
    18
100
AcDbVertex
100
AcDb2dVertex
 10
42.10012813161922
 20
50.62209420060115
 30
0.0
  0
VERTEX
  5
350
330
345
100
AcDbEntity
  8
\U+30EC\U+30A4\U+30E4\U+30FC 1
  6
AI-Linetype-38
 62
     7
370
    18
100
AcDbVertex
100
AcDb2dVertex
 10
41.85483717125235
 20
50.34476383108524
 30
0.0
  0
VERTEX
  5
351
330
345
100
AcDbEntity
  8
\U+30EC\U+30A4\U+30E4\U+30FC 1
  6
AI-Linetype-38
 62
     7
370
    18
100
AcDbVertex
100
AcDb2dVertex
 10
41.60610111312752
 20
50.03263797421391
 30
0.0
  0
VERTEX
  5
352
330
345
100
AcDbEntity
  8
\U+30EC\U+30A4\U+30E4\U+30FC 1
  6
AI-Linetype-38
 62
     7
370
    18
100
AcDbVertex
100
AcDb2dVertex
 10
41.35013034971096
 20
49.68072123823812
 30
0.0
  0
VERTEX
  5
353
330
345
100
AcDbEntity
  8
\U+30EC\U+30A4\U+30E4\U+30FC 1
  6
AI-Linetype-38
 62
     7
370
    18
100
AcDbVertex
100
AcDb2dVertex
 10
41.08313527346893
 20
49.28005636898718
 30
0.0
  0
VERTEX
  5
354
330
345
100
AcDbEntity
  8
\U+30EC\U+30A4\U+30E4\U+30FC 1
  6
AI-Linetype-38
 62
     7
370
    18
100
AcDbVertex
100
AcDb2dVertex
 10
40.7985701986613
 20
48.81669072054133
 30
0.0
  0
VERTEX
  5
355
330
345
100
AcDbEntity
  8
\U+30EC\U+30A4\U+30E4\U+30FC 1
  6
AI-Linetype-38
 62
     7
370
    18
100
AcDbVertex
100
AcDb2dVertex
 10
40.48024316582563
 20
48.26478605971587
 30
0.0
  0
VERTEX
  5
356
330
345
100
AcDbEntity
  8
\U+30EC\U+30A4\U+30E4\U+30FC 1
  6
AI-Linetype-38
 62
     7
370
    18
100
AcDbVertex
100
AcDb2dVertex
 10
40.09714829514029
 20
47.56198611709168
 30
0.0
  0
VERTEX
  5
357
330
345
100
AcDbEntity
  8
\U+30EC\U+30A4\U+30E4\U+30FC 1
  6
AI-Linetype-38
 62
     7
370
    18
100
AcDbVertex
100
AcDb2dVertex
 10
39.93385066141291
 20
47.25588918129679
 30
0.0
  0
VERTEX
  5
358
330
345
100
AcDbEntity
  8
\U+30EC\U+30A4\U+30E4\U+30FC 1
  6
AI-Linetype-38
 62
     7
370
    18
100
AcDbVertex
100
AcDb2dVertex
 10
39.46118324902057
 20
46.37015454772484
 30
0.0
  0
VERTEX
  5
359
330
345
100
AcDbEntity
  8
\U+30EC\U+30A4\U+30E4\U+30FC 1
  6
AI-Linetype-38
 62
     7
370
    18
100
AcDbVertex
100
AcDb2dVertex
 10
39.08428955429956
 20
45.68750842698473
 30
0.0
  0
VERTEX
  5
35A
330
345
100
AcDbEntity
  8
\U+30EC\U+30A4\U+30E4\U+30FC 1
  6
AI-Linetype-38
 62
     7
370
    18
100
AcDbVertex
100
AcDb2dVertex
 10
38.75252664020785
 20
45.11941180669685
 30
0.0
  0
SEQEND
  5
35B
330
345
100
AcDbEntity
  8
\U+30EC\U+30A4\U+30E4\U+30FC 1
  6
AI-Linetype-38
370
    18
  0
POLYLINE
  5
35D
330
1F
100
AcDbEntity
  8
\U+30EC\U+30A4\U+30E4\U+30FC 1
  6
AI-Linetype-39
 62
     7
370
    18
100
AcDb2dPolyline
 66
     1
 10
0.0
 20
0.0
 30
0.0
  0
VERTEX
  5
35E
330
35D
100
AcDbEntity
  8
\U+30EC\U+30A4\U+30E4\U+30FC 1
  6
AI-Linetype-39
 62
     7
370
    18
100
AcDbVertex
100
AcDb2dVertex
 10
22.86046293761848
 20
45.44979668168537
 30
0.0
  0
VERTEX
  5
35F
330
35D
100
AcDbEntity
  8
\U+30EC\U+30A4\U+30E4\U+30FC 1
  6
AI-Linetype-39
 62
     7
370
    18
100
AcDbVertex
100
AcDb2dVertex
 10
22.82670097959045
 20
45.5100858924497
 30
0.0
  0
VERTEX
  5
360
330
35D
100
AcDbEntity
  8
\U+30EC\U+30A4\U+30E4\U+30FC 1
  6
AI-Linetype-39
 62
     7
370
    18
100
AcDbVertex
100
AcDb2dVertex
 10
22.82325588183249
 20
45.51628706841403
 30
0.0
  0
VERTEX
  5
361
330
35D
100
AcDbEntity
  8
\U+30EC\U+30A4\U+30E4\U+30FC 1
  6
AI-Linetype-39
 62
     7
370
    18
100
AcDbVertex
100
AcDb2dVertex
 10
22.7862210809344
 20
45.5824329453669
 30
0.0
  0
VERTEX
  5
362
330
35D
100
AcDbEntity
  8
\U+30EC\U+30A4\U+30E4\U+30FC 1
  6
AI-Linetype-39
 62
     7
370
    18
100
AcDbVertex
100
AcDb2dVertex
 10
22.74970304470001
 20
45.64857882231976
 30
0.0
  0
VERTEX
  5
363
330
35D
100
AcDbEntity
  8
\U+30EC\U+30A4\U+30E4\U+30FC 1
  6
AI-Linetype-39
 62
     7
370
    18
100
AcDbVertex
100
AcDb2dVertex
 10
22.71318500846562
 20
45.71472469927262
 30
0.0
  0
VERTEX
  5
364
330
35D
100
AcDbEntity
  8
\U+30EC\U+30A4\U+30E4\U+30FC 1
  6
AI-Linetype-39
 62
     7
370
    18
100
AcDbVertex
100
AcDb2dVertex
 10
22.67649471734332
 20
45.78087057622549
 30
0.0
  0
VERTEX
  5
365
330
35D
100
AcDbEntity
  8
\U+30EC\U+30A4\U+30E4\U+30FC 1
  6
AI-Linetype-39
 62
     7
370
    18
100
AcDbVertex
100
AcDb2dVertex
 10
22.64049344577262
 20
45.84701645317836
 30
0.0
  0
VERTEX
  5
366
330
35D
100
AcDbEntity
  8
\U+30EC\U+30A4\U+30E4\U+30FC 1
  6
AI-Linetype-39
 62
     7
370
    18
100
AcDbVertex
100
AcDb2dVertex
 10
22.60431991931403
 20
45.91299007524332
 30
0.0
  0
VERTEX
  5
367
330
35D
100
AcDbEntity
  8
\U+30EC\U+30A4\U+30E4\U+30FC 1
  6
AI-Linetype-39
 62
     7
370
    18
100
AcDbVertex
100
AcDb2dVertex
 10
22.56866315751912
 20
45.97913595219619
 30
0.0
  0
VERTEX
  5
368
330
35D
100
AcDbEntity
  8
\U+30EC\U+30A4\U+30E4\U+30FC 1
  6
AI-Linetype-39
 62
     7
370
    18
100
AcDbVertex
100
AcDb2dVertex
 10
22.53300639572422
 20
46.04493731937325
 30
0.0
  0
VERTEX
  5
369
330
35D
100
AcDbEntity
  8
\U+30EC\U+30A4\U+30E4\U+30FC 1
  6
AI-Linetype-39
 62
     7
370
    18
100
AcDbVertex
100
AcDb2dVertex
 10
22.49717737904142
 20
46.11039417677453
 30
0.0
  0
VERTEX
  5
36A
330
35D
100
AcDbEntity
  8
\U+30EC\U+30A4\U+30E4\U+30FC 1
  6
AI-Linetype-39
 62
     7
370
    18
100
AcDbVertex
100
AcDb2dVertex
 10
22.37108680110002
 20
46.34552209875541
 30
0.0
  0
VERTEX
  5
36B
330
35D
100
AcDbEntity
  8
\U+30EC\U+30A4\U+30E4\U+30FC 1
  6
AI-Linetype-39
 62
     7
370
    18
100
AcDbVertex
100
AcDb2dVertex
 10
22.23879504719429
 20
46.59356913732865
 30
0.0
  0
VERTEX
  5
36C
330
35D
100
AcDbEntity
  8
\U+30EC\U+30A4\U+30E4\U+30FC 1
  6
AI-Linetype-39
 62
     7
370
    18
100
AcDbVertex
100
AcDb2dVertex
 10
22.10770907750385
 20
46.84006588191081
 30
0.0
  0
VERTEX
  5
36D
330
35D
100
AcDbEntity
  8
\U+30EC\U+30A4\U+30E4\U+30FC 1
  6
AI-Linetype-39
 62
     7
370
    18
100
AcDbVertex
100
AcDb2dVertex
 10
21.97782889202869
 20
47.0841510580624
 30
0.0
  0
VERTEX
  5
36E
330
35D
100
AcDbEntity
  8
\U+30EC\U+30A4\U+30E4\U+30FC 1
  6
AI-Linetype-39
 62
     7
370
    18
100
AcDbVertex
100
AcDb2dVertex
 10
21.84898223588092
 20
47.32565241089551
 30
0.0
  0
VERTEX
  5
36F
330
35D
100
AcDbEntity
  8
\U+30EC\U+30A4\U+30E4\U+30FC 1
  6
AI-Linetype-39
 62
     7
370
    18
100
AcDbVertex
100
AcDb2dVertex
 10
21.71996332484526
 20
47.56370866597067
 30
0.0
  0
VERTEX
  5
370
330
35D
100
AcDbEntity
  8
\U+30EC\U+30A4\U+30E4\U+30FC 1
  6
AI-Linetype-39
 62
     7
370
    18
100
AcDbVertex
100
AcDb2dVertex
 10
21.71221185488985
 20
47.578350331442
 30
0.0
  0
VERTEX
  5
371
330
35D
100
AcDbEntity
  8
\U+30EC\U+30A4\U+30E4\U+30FC 1
  6
AI-Linetype-39
 62
     7
370
    18
100
AcDbVertex
100
AcDb2dVertex
 10
21.58370970851788
 20
47.8122724692076
 30
0.0
  0
VERTEX
  5
372
330
35D
100
AcDbEntity
  8
\U+30EC\U+30A4\U+30E4\U+30FC 1
  6
AI-Linetype-39
 62
     7
370
    18
100
AcDbVertex
100
AcDb2dVertex
 10
21.45486305237011
 20
48.04309401899103
 30
0.0
  0
VERTEX
  5
373
330
35D
100
AcDbEntity
  8
\U+30EC\U+30A4\U+30E4\U+30FC 1
  6
AI-Linetype-39
 62
     7
370
    18
100
AcDbVertex
100
AcDb2dVertex
 10
21.32584414133444
 20
48.26926468680121
 30
0.0
  0
VERTEX
  5
374
330
35D
100
AcDbEntity
  8
\U+30EC\U+30A4\U+30E4\U+30FC 1
  6
AI-Linetype-39
 62
     7
370
    18
100
AcDbVertex
100
AcDb2dVertex
 10
21.19665297541088
 20
48.49026770797446
 30
0.0
  0
SEQEND
  5
375
330
35D
100
AcDbEntity
  8
\U+30EC\U+30A4\U+30E4\U+30FC 1
  6
AI-Linetype-39
370
    18
  0
POLYLINE
  5
377
330
1F
100
AcDbEntity
  8
\U+30EC\U+30A4\U+30E4\U+30FC 1
  6
AI-Linetype-40
 62
     7
370
    18
100
AcDb2dPolyline
 66
     1
 10
0.0
 20
0.0
 30
0.0
  0
VERTEX
  5
378
330
377
100
AcDbEntity
  8
\U+30EC\U+30A4\U+30E4\U+30FC 1
  6
AI-Linetype-40
 62
     7
370
    18
100
AcDbVertex
100
AcDb2dVertex
 10
39.70854126804222
 20
45.44979668168537
 30
0.0
  0
VERTEX
  5
379
330
377
100
AcDbEntity
  8
\U+30EC\U+30A4\U+30E4\U+30FC 1
  6
AI-Linetype-40
 62
     7
370
    18
100
AcDbVertex
100
AcDb2dVertex
 10
39.74230322607024
 20
45.5100858924497
 30
0.0
  0
VERTEX
  5
37A
330
377
100
AcDbEntity
  8
\U+30EC\U+30A4\U+30E4\U+30FC 1
  6
AI-Linetype-40
 62
     7
370
    18
100
AcDbVertex
100
AcDb2dVertex
 10
39.7457483238282
 20
45.51628706841403
 30
0.0
  0
VERTEX
  5
37B
330
377
100
AcDbEntity
  8
\U+30EC\U+30A4\U+30E4\U+30FC 1
  6
AI-Linetype-40
 62
     7
370
    18
100
AcDbVertex
100
AcDb2dVertex
 10
39.78295537961419
 20
45.5824329453669
 30
0.0
  0
VERTEX
  5
37C
330
377
100
AcDbEntity
  8
\U+30EC\U+30A4\U+30E4\U+30FC 1
  6
AI-Linetype-40
 62
     7
370
    18
100
AcDbVertex
100
AcDb2dVertex
 10
39.81912890607279
 20
45.64857882231976
 30
0.0
  0
VERTEX
  5
37D
330
377
100
AcDbEntity
  8
\U+30EC\U+30A4\U+30E4\U+30FC 1
  6
AI-Linetype-40
 62
     7
370
    18
100
AcDbVertex
100
AcDb2dVertex
 10
39.85599145208298
 20
45.71472469927262
 30
0.0
  0
VERTEX
  5
37E
330
377
100
AcDbEntity
  8
\U+30EC\U+30A4\U+30E4\U+30FC 1
  6
AI-Linetype-40
 62
     7
370
    18
100
AcDbVertex
100
AcDb2dVertex
 10
39.89250948831737
 20
45.78087057622549
 30
0.0
  0
VERTEX
  5
37F
330
377
100
AcDbEntity
  8
\U+30EC\U+30A4\U+30E4\U+30FC 1
  6
AI-Linetype-40
 62
     7
370
    18
100
AcDbVertex
100
AcDb2dVertex
 10
39.92833850500017
 20
45.84701645317836
 30
0.0
  0
VERTEX
  5
380
330
377
100
AcDbEntity
  8
\U+30EC\U+30A4\U+30E4\U+30FC 1
  6
AI-Linetype-40
 62
     7
370
    18
100
AcDbVertex
100
AcDb2dVertex
 10
39.96520105101036
 20
45.91299007524332
 30
0.0
  0
VERTEX
  5
381
330
377
100
AcDbEntity
  8
\U+30EC\U+30A4\U+30E4\U+30FC 1
  6
AI-Linetype-40
 62
     7
370
    18
100
AcDbVertex
100
AcDb2dVertex
 10
40.00068555791737
 20
45.97913595219619
 30
0.0
  0
VERTEX
  5
382
330
377
100
AcDbEntity
  8
\U+30EC\U+30A4\U+30E4\U+30FC 1
  6
AI-Linetype-40
 62
     7
370
    18
100
AcDbVertex
100
AcDb2dVertex
 10
40.03548104527278
 20
46.04493731937325
 30
0.0
  0
VERTEX
  5
383
330
377
100
AcDbEntity
  8
\U+30EC\U+30A4\U+30E4\U+30FC 1
  6
AI-Linetype-40
 62
     7
370
    18
100
AcDbVertex
100
AcDb2dVertex
 10
40.07165457173138
 20
46.11039417677453
 30
0.0
  0
VERTEX
  5
384
330
377
100
AcDbEntity
  8
\U+30EC\U+30A4\U+30E4\U+30FC 1
  6
AI-Linetype-40
 62
     7
370
    18
100
AcDbVertex
100
AcDb2dVertex
 10
40.19774514967278
 20
46.34552209875541
 30
0.0
  0
VERTEX
  5
385
330
377
100
AcDbEntity
  8
\U+30EC\U+30A4\U+30E4\U+30FC 1
  6
AI-Linetype-40
 62
     7
370
    18
100
AcDbVertex
100
AcDb2dVertex
 10
40.3307259231301
 20
46.59356913732865
 30
0.0
  0
VERTEX
  5
386
330
377
100
AcDbEntity
  8
\U+30EC\U+30A4\U+30E4\U+30FC 1
  6
AI-Linetype-40
 62
     7
370
    18
100
AcDbVertex
100
AcDb2dVertex
 10
40.46095061838105
 20
46.84006588191081
 30
0.0
  0
VERTEX
  5
387
330
377
100
AcDbEntity
  8
\U+30EC\U+30A4\U+30E4\U+30FC 1
  6
AI-Linetype-40
 62
     7
370
    18
100
AcDbVertex
100
AcDb2dVertex
 10
40.5915198234078
 20
47.0841510580624
 30
0.0
  0
VERTEX
  5
388
330
377
100
AcDbEntity
  8
\U+30EC\U+30A4\U+30E4\U+30FC 1
  6
AI-Linetype-40
 62
     7
370
    18
100
AcDbVertex
100
AcDb2dVertex
 10
40.72036647955557
 20
47.32565241089551
 30
0.0
  0
VERTEX
  5
389
330
377
100
AcDbEntity
  8
\U+30EC\U+30A4\U+30E4\U+30FC 1
  6
AI-Linetype-40
 62
     7
370
    18
100
AcDbVertex
100
AcDb2dVertex
 10
40.84886862592754
 20
47.56370866597067
 30
0.0
  0
VERTEX
  5
38A
330
377
100
AcDbEntity
  8
\U+30EC\U+30A4\U+30E4\U+30FC 1
  6
AI-Linetype-40
 62
     7
370
    18
100
AcDbVertex
100
AcDb2dVertex
 10
40.85713686054665
 20
47.578350331442
 30
0.0
  0
VERTEX
  5
38B
330
377
100
AcDbEntity
  8
\U+30EC\U+30A4\U+30E4\U+30FC 1
  6
AI-Linetype-40
 62
     7
370
    18
100
AcDbVertex
100
AcDb2dVertex
 10
40.98563900691862
 20
47.8122724692076
 30
0.0
  0
VERTEX
  5
38C
330
377
100
AcDbEntity
  8
\U+30EC\U+30A4\U+30E4\U+30FC 1
  6
AI-Linetype-40
 62
     7
370
    18
100
AcDbVertex
100
AcDb2dVertex
 10
41.11414115329059
 20
48.04309401899103
 30
0.0
  0
VERTEX
  5
38D
330
377
100
AcDbEntity
  8
\U+30EC\U+30A4\U+30E4\U+30FC 1
  6
AI-Linetype-40
 62
     7
370
    18
100
AcDbVertex
100
AcDb2dVertex
 10
41.24333231921415
 20
48.26926468680121
 30
0.0
  0
VERTEX
  5
38E
330
377
100
AcDbEntity
  8
\U+30EC\U+30A4\U+30E4\U+30FC 1
  6
AI-Linetype-40
 62
     7
370
    18
100
AcDbVertex
100
AcDb2dVertex
 10
41.37286799491351
 20
48.49026770797446
 30
0.0
  0
VERTEX
  5
38F
330
377
100
AcDbEntity
  8
\U+30EC\U+30A4\U+30E4\U+30FC 1
  6
AI-Linetype-40
 62
     7
370
    18
100
AcDbVertex
100
AcDb2dVertex
 10
41.41041956047529
 20
48.55451878116045
 30
0.0
  0
VERTEX
  5
390
330
377
100
AcDbEntity
  8
\U+30EC\U+30A4\U+30E4\U+30FC 1
  6
AI-Linetype-40
 62
     7
370
    18
100
AcDbVertex
100
AcDb2dVertex
 10
41.52410778648802
 20
48.75140611802796
 30
0.0
  0
VERTEX
  5
391
330
377
100
AcDbEntity
  8
\U+30EC\U+30A4\U+30E4\U+30FC 1
  6
AI-Linetype-40
 62
     7
370
    18
100
AcDbVertex
100
AcDb2dVertex
 10
41.65674405016955
 20
48.98067737382031
 30
0.0
  0
VERTEX
  5
392
330
377
100
AcDbEntity
  8
\U+30EC\U+30A4\U+30E4\U+30FC 1
  6
AI-Linetype-40
 62
     7
370
    18
100
AcDbVertex
100
AcDb2dVertex
 10
41.80832835151987
 20
49.23561460790947
 30
0.0
  0
VERTEX
  5
393
330
377
100
AcDbEntity
  8
\U+30EC\U+30A4\U+30E4\U+30FC 1
  6
AI-Linetype-40
 62
     7
370
    18
100
AcDbVertex
100
AcDb2dVertex
 10
41.97920520031477
 20
49.51001664433112
 30
0.0
  0
VERTEX
  5
394
330
377
100
AcDbEntity
  8
\U+30EC\U+30A4\U+30E4\U+30FC 1
  6
AI-Linetype-40
 62
     7
370
    18
100
AcDbVertex
100
AcDb2dVertex
 10
42.16868557700266
 20
49.79699328756933
 30
0.0
  0
VERTEX
  5
395
330
377
100
AcDbEntity
  8
\U+30EC\U+30A4\U+30E4\U+30FC 1
  6
AI-Linetype-40
 62
     7
370
    18
100
AcDbVertex
100
AcDb2dVertex
 10
42.37745850113514
 20
50.08982659699607
 30
0.0
  0
VERTEX
  5
396
330
377
100
AcDbEntity
  8
\U+30EC\U+30A4\U+30E4\U+30FC 1
  6
AI-Linetype-40
 62
     7
370
    18
100
AcDbVertex
100
AcDb2dVertex
 10
42.60414593360902
 20
50.38248765153492
 30
0.0
  0
VERTEX
  5
397
330
377
100
AcDbEntity
  8
\U+30EC\U+30A4\U+30E4\U+30FC 1
  6
AI-Linetype-40
 62
     7
370
    18
100
AcDbVertex
100
AcDb2dVertex
 10
42.83600101271984
 20
50.65189429620752
 30
0.0
  0
VERTEX
  5
398
330
377
100
AcDbEntity
  8
\U+30EC\U+30A4\U+30E4\U+30FC 1
  6
AI-Linetype-40
 62
     7
370
    18
100
AcDbVertex
100
AcDb2dVertex
 10
43.0647555038485
 20
50.89046731594637
 30
0.0
  0
VERTEX
  5
399
330
377
100
AcDbEntity
  8
\U+30EC\U+30A4\U+30E4\U+30FC 1
  6
AI-Linetype-40
 62
     7
370
    18
100
AcDbVertex
100
AcDb2dVertex
 10
43.29178744609817
 20
51.10027376940624
 30
0.0
  0
SEQEND
  5
39A
330
377
100
AcDbEntity
  8
\U+30EC\U+30A4\U+30E4\U+30FC 1
  6
AI-Linetype-40
370
    18
  0
POLYLINE
  5
39C
330
1F
100
AcDbEntity
  8
\U+30EC\U+30A4\U+30E4\U+30FC 1
  6
AI-Linetype-41
 62
     7
370
    18
100
AcDb2dPolyline
 66
     1
 10
0.0
 20
0.0
 30
0.0
  0
VERTEX
  5
39D
330
39C
100
AcDbEntity
  8
\U+30EC\U+30A4\U+30E4\U+30FC 1
  6
AI-Linetype-41
 62
     7
370
    18
100
AcDbVertex
100
AcDb2dVertex
 10
21.19665297541088
 20
48.49026770797446
 30
0.0
  0
VERTEX
  5
39E
330
39C
100
AcDbEntity
  8
\U+30EC\U+30A4\U+30E4\U+30FC 1
  6
AI-Linetype-41
 62
     7
370
    18
100
AcDbVertex
100
AcDb2dVertex
 10
21.15841239029751
 20
48.55451878116045
 30
0.0
  0
VERTEX
  5
39F
330
39C
100
AcDbEntity
  8
\U+30EC\U+30A4\U+30E4\U+30FC 1
  6
AI-Linetype-41
 62
     7
370
    18
100
AcDbVertex
100
AcDb2dVertex
 10
21.04489641917267
 20
48.75140611802796
 30
0.0
  0
VERTEX
  5
3A0
330
39C
100
AcDbEntity
  8
\U+30EC\U+30A4\U+30E4\U+30FC 1
  6
AI-Linetype-41
 62
     7
370
    18
100
AcDbVertex
100
AcDb2dVertex
 10
20.91208790060325
 20
48.98067737382031
 30
0.0
  0
VERTEX
  5
3A1
330
39C
100
AcDbEntity
  8
\U+30EC\U+30A4\U+30E4\U+30FC 1
  6
AI-Linetype-41
 62
     7
370
    18
100
AcDbVertex
100
AcDb2dVertex
 10
20.76067585414083
 20
49.23561460790947
 30
0.0
  0
VERTEX
  5
3A2
330
39C
100
AcDbEntity
  8
\U+30EC\U+30A4\U+30E4\U+30FC 1
  6
AI-Linetype-41
 62
     7
370
    18
100
AcDbVertex
100
AcDb2dVertex
 10
20.58997126023383
 20
49.51001664433112
 30
0.0
  0
VERTEX
  5
3A3
330
39C
100
AcDbEntity
  8
\U+30EC\U+30A4\U+30E4\U+30FC 1
  6
AI-Linetype-41
 62
     7
370
    18
100
AcDbVertex
100
AcDb2dVertex
 10
20.40049088354593
 20
49.79699328756933
 30
0.0
  0
VERTEX
  5
3A4
330
39C
100
AcDbEntity
  8
\U+30EC\U+30A4\U+30E4\U+30FC 1
  6
AI-Linetype-41
 62
     7
370
    18
100
AcDbVertex
100
AcDb2dVertex
 10
20.19189021430135
 20
50.08982659699607
 30
0.0
  0
VERTEX
  5
3A5
330
39C
100
AcDbEntity
  8
\U+30EC\U+30A4\U+30E4\U+30FC 1
  6
AI-Linetype-41
 62
     7
370
    18
100
AcDbVertex
100
AcDb2dVertex
 10
19.96485827205168
 20
50.38248765153492
 30
0.0
  0
VERTEX
  5
3A6
330
39C
100
AcDbEntity
  8
\U+30EC\U+30A4\U+30E4\U+30FC 1
  6
AI-Linetype-41
 62
     7
370
    18
100
AcDbVertex
100
AcDb2dVertex
 10
19.73317544782876
 20
50.65189429620752
 30
0.0
  0
VERTEX
  5
3A7
330
39C
100
AcDbEntity
  8
\U+30EC\U+30A4\U+30E4\U+30FC 1
  6
AI-Linetype-41
 62
     7
370
    18
100
AcDbVertex
100
AcDb2dVertex
 10
19.5044209567001
 20
50.89046731594637
 30
0.0
  0
VERTEX
  5
3A8
330
39C
100
AcDbEntity
  8
\U+30EC\U+30A4\U+30E4\U+30FC 1
  6
AI-Linetype-41
 62
     7
370
    18
100
AcDbVertex
100
AcDb2dVertex
 10
19.27773352422622
 20
51.10027376940624
 30
0.0
  0
SEQEND
  5
3A9
330
39C
100
AcDbEntity
  8
\U+30EC\U+30A4\U+30E4\U+30FC 1
  6
AI-Linetype-41
370
    18
  0
SPLINE
  5
3AB
330
1F
100
AcDbEntity
  8
\U+30EC\U+30A4\U+30E4\U+30FC 1
 62
     7
370
    18
100
AcDbSpline
210
0.0
220
0.0
230
1.0
 70
     8
 71
     3
 72
    14
 73
    10
 74
     0
 42
0.0000000001
 43
0.0000000001
 40
0.0
 40
0.0
 40
0.0
 40
0.0
 40
1.0
 40
1.0
 40
1.0
 40
2.0
 40
2.0
 40
2.0
 40
3.0
 40
3.0
 40
3.0
 40
3.0
 10
29.14673281657117
 20
40.05322329872629
 30
0.0
 10
29.14673281657117
 20
40.05322329872629
 30
0.0
 10
28.74313961422596
 20
40.15175309460399
 30
0.0
 10
28.74313961422596
 20
40.15175309460399
 30
0.0
 10
25.90834092408718
 20
40.92379950216321
 30
0.0
 10
24.26192870555729
 20
42.94297129810455
 30
0.0
 10
22.87958323017516
 20
45.41637923343314
 30
0.0
 10
22.87958323017516
 20
45.41637923343314
 30
0.0
 10
22.86046293761848
 20
45.44979668168537
 30
0.0
 10
22.86046293761848
 20
45.44979668168537
 30
0.0
  0
SPLINE
  5
3AC
330
1F
100
AcDbEntity
  8
\U+30EC\U+30A4\U+30E4\U+30FC 1
 62
     7
370
    18
100
AcDbSpline
210
0.0
220
0.0
230
1.0
 70
     8
 71
     3
 72
    14
 73
    10
 74
     0
 42
0.0000000001
 43
0.0000000001
 40
0.0
 40
0.0
 40
0.0
 40
0.0
 40
1.0
 40
1.0
 40
1.0
 40
2.0
 40
2.0
 40
2.0
 40
3.0
 40
3.0
 40
3.0
 40
3.0
 10
33.42296040864112
 20
40.05322329872629
 30
0.0
 10
33.42296040864112
 20
40.05322329872629
 30
0.0
 10
33.82672586587422
 20
40.15175309460399
 30
0.0
 10
33.82672586587422
 20
40.15175309460399
 30
0.0
 10
36.66066328157351
 20
40.92379950216321
 30
0.0
 10
38.3070755001034
 20
42.94297129810455
 30
0.0
 10
39.68993774014923
 20
45.41637923343314
 30
0.0
 10
39.68993774014923
 20
45.41637923343314
 30
0.0
 10
39.70854126804222
 20
45.44979668168537
 30
0.0
 10
39.70854126804222
 20
45.44979668168537
 30
0.0
  0
INSERT
  5
3AE
330
1F
100
AcDbEntity
  8
\U+30EC\U+30A4\U+30E4\U+30FC 1
100
AcDbBlockReference
  2
block 3
 10
0.0
 20
0.0
 30
0.0
  0
INSERT
  5
3C4
330
1F
100
AcDbEntity
  8
\U+30EC\U+30A4\U+30E4\U+30FC 1
100
AcDbBlockReference
  2
block 4
 10
0.0
 20
0.0
 30
0.0
  0
INSERT
  5
3DA
330
1F
100
AcDbEntity
  8
\U+30EC\U+30A4\U+30E4\U+30FC 1
100
AcDbBlockReference
  2
block 5
 10
0.0
 20
0.0
 30
0.0
  0
INSERT
  5
3F8
330
1F
100
AcDbEntity
  8
\U+30EC\U+30A4\U+30E4\U+30FC 1
100
AcDbBlockReference
  2
block 6
 10
0.0
 20
0.0
 30
0.0
  0
MTEXT
  5
41A
330
1F
100
AcDbEntity
  8
\U+30EC\U+30A4\U+30E4\U+30FC 1
 62
     7
100
AcDbMText
 10
1.652613394494222
 20
58.21026652228757
 30
0.0
 40
1.919112376659107
 41
0.0
 71
     7
 72
     1
  1
\fKozuka Gothic Pro B|b0|i0|c0|p34;\W1;GS-39129
 73
     1
 44
1.0
  0
ENDSEC
  0
SECTION
  2
OBJECTS
  0
DICTIONARY
  5
C
330
0
100
AcDbDictionary
281
     1
  3
ACAD_GROUP
350
D
  3
ACAD_LAYOUT
350
1A
  3
ACAD_MLINESTYLE
350
17
  3
ACAD_PLOTSETTINGS
350
19
  3
ACAD_PLOTSTYLENAME
350
E
  3
ACAD_TABLESTYLE
350
427
  3
ACAD_VISUALSTYLE
350
2A
  0
DICTIONARY
  5
D
102
{ACAD_REACTORS
330
C
102
}
330
C
100
AcDbDictionary
281
     1
  0
DICTIONARY
  5
1A
102
{ACAD_REACTORS
330
C
102
}
330
C
100
AcDbDictionary
281
     1
  3
Layout1
350
1E
  3
Layout2
350
26
  3
Model
350
22
  0
DICTIONARY
  5
17
102
{ACAD_REACTORS
330
C
102
}
330
C
100
AcDbDictionary
281
     1
  3
Standard
350
18
  0
DICTIONARY
  5
19
102
{ACAD_REACTORS
330
C
102
}
330
C
100
AcDbDictionary
281
     1
  0
ACDBDICTIONARYWDFLT
  5
E
102
{ACAD_REACTORS
330
C
102
}
330
C
100
AcDbDictionary
281
     1
  3
Normal
350
F
100
AcDbDictionaryWithDefault
340
F
  0
DICTIONARY
  5
427
102
{ACAD_REACTORS
330
C
102
}
330
C
100
AcDbDictionary
281
     1
  0
DICTIONARY
  5
2A
102
{ACAD_REACTORS
330
C
102
}
330
C
100
AcDbDictionary
281
     1
  3
2dWireframe
350
2F
  3
3D Hidden
350
31
  3
3dWireframe
350
30
  3
Basic
350
32
  3
Brighten
350
36
  3
ColorChange
350
3A
  3
Conceptual
350
34
  3
Dim
350
35
  3
Facepattern
350
39
  3
Flat
350
2B
  3
FlatWithEdges
350
2C
  3
Gouraud
350
2D
  3
GouraudWithEdges
350
2E
  3
Linepattern
350
38
  3
Realistic
350
33
  3
Thicken
350
37
  0
LAYOUT
  5
1E
102
{ACAD_REACTORS
330
1A
102
}
330
1A
100
AcDbPlotSettings
  1

  2
none_device
  4

  6

 40
0.0
 41
0.0
 42
0.0
 43
0.0
 44
0.0
 45
0.0
 46
0.0
 47
0.0
 48
0.0
 49
0.0
140
0.0
141
0.0
142
1.0
143
1.0
 70
   688
 72
     0
 73
     0
 74
     5
  7

 75
    16
 76
     0
 77
     2
 78
   300
147
1.0
148
0.0
149
0.0
100
AcDbLayout
  1
Layout1
 70
     1
 71
     1
 10
0.0
 20
0.0
 11
12.0
 21
9.0
 12
0.0
 22
0.0
 32
0.0
 14
1.000000000000000E+20
 24
1.000000000000000E+20
 34
1.000000000000000E+20
 15
-1.000000000000000E+20
 25
-1.000000000000000E+20
 35
-1.000000000000000E+20
146
0.0
 13
0.0
 23
0.0
 33
0.0
 16
1.0
 26
0.0
 36
0.0
 17
0.0
 27
1.0
 37
0.0
 76
     0
330
1B
  0
LAYOUT
  5
26
102
{ACAD_REACTORS
330
1A
102
}
330
1A
100
AcDbPlotSettings
  1

  2
none_device
  4

  6

 40
0.0
 41
0.0
 42
0.0
 43
0.0
 44
0.0
 45
0.0
 46
0.0
 47
0.0
 48
0.0
 49
0.0
140
0.0
141
0.0
142
1.0
143
1.0
 70
   688
 72
     0
 73
     0
 74
     5
  7

 75
    16
 76
     0
 77
     2
 78
   300
147
1.0
148
0.0
149
0.0
100
AcDbLayout
  1
Layout2
 70
     1
 71
     2
 10
0.0
 20
0.0
 11
0.0
 21
0.0
 12
0.0
 22
0.0
 32
0.0
 14
0.0
 24
0.0
 34
0.0
 15
0.0
 25
0.0
 35
0.0
146
0.0
 13
0.0
 23
0.0
 33
0.0
 16
1.0
 26
0.0
 36
0.0
 17
0.0
 27
1.0
 37
0.0
 76
     0
330
23
  0
LAYOUT
  5
22
102
{ACAD_REACTORS
330
1A
102
}
330
1A
100
AcDbPlotSettings
  1

  2
none_device
  4

  6

 40
0.0
 41
0.0
 42
0.0
 43
0.0
 44
0.0
 45
0.0
 46
0.0
 47
0.0
 48
0.0
 49
0.0
140
0.0
141
0.0
142
1.0
143
1.0
 70
  1712
 72
     0
 73
     0
 74
     0
  7

 75
     0
 76
     0
 77
     2
 78
   300
147
1.0
148
0.0
149
0.0
100
AcDbLayout
  1
Model
 70
     1
 71
     0
 10
0.0
 20
0.0
 11
12.0
 21
9.0
 12
0.0
 22
0.0
 32
0.0
 14
1.000000000000000E+20
 24
1.000000000000000E+20
 34
1.000000000000000E+20
 15
-1.000000000000000E+20
 25
-1.000000000000000E+20
 35
-1.000000000000000E+20
146
0.0
 13
0.0
 23
0.0
 33
0.0
 16
1.0
 26
0.0
 36
0.0
 17
0.0
 27
1.0
 37
0.0
 76
     0
330
1F
331
29
  0
MLINESTYLE
  5
18
102
{ACAD_REACTORS
330
17
102
}
330
17
100
AcDbMlineStyle
  2
Standard
 70
     0
  3

 62
   256
 51
90.0
 52
90.0
 71
     2
 49
0.5
 62
   256
  6
BYLAYER
 49
-0.5
 62
   256
  6
BYLAYER
  0
ACDBPLACEHOLDER
  5
F
102
{ACAD_REACTORS
330
E
102
}
330
E
  0
VISUALSTYLE
  5
2F
102
{ACAD_REACTORS
330
2A
102
}
330
2A
100
AcDbVisualStyle
  2
2dWireframe
 70
     4
 71
     0
 72
     2
 73
     0
 90
        0
 40
-0.6
 41
-30.0
 62
     5
 63
     7
421
 16777215
 74
     1
 91
        4
 64
     7
 65
   257
 75
     1
175
     1
 42
1.0
 92
        0
 66
   257
 43
1.0
 76
     1
 77
     6
 78
     2
 67
     7
 79
     5
170
     0
171
     0
290
     0
174
     0
 93
        1
 44
0.0
173
     0
291
     0
 45
0.0
1001
ACAD
1000
AcDbSavedByObjectVersion
1070
     0
  0
VISUALSTYLE
  5
31
102
{ACAD_REACTORS
330
2A
102
}
330
2A
100
AcDbVisualStyle
  2
3D Hidden
 70
     6
 71
     1
 72
     2
 73
     2
 90
        0
 40
-0.6
 41
-30.0
 62
     5
 63
     7
421
 16777215
 74
     2
 91
        2
 64
     7
 65
   257
 75
     2
175
     1
 42
40.0
 92
        0
 66
   257
 43
1.0
 76
     1
 77
     6
 78
     2
 67
     7
 79
     3
170
     0
171
     0
290
     0
174
     0
 93
        1
 44
0.0
173
     0
291
     0
 45
0.0
1001
ACAD
1000
AcDbSavedByObjectVersion
1070
     0
  0
VISUALSTYLE
  5
30
102
{ACAD_REACTORS
330
2A
102
}
330
2A
100
AcDbVisualStyle
  2
3dWireframe
 70
     5
 71
     0
 72
     2
 73
     0
 90
        0
 40
-0.6
 41
-30.0
 62
     5
 63
     7
421
 16777215
 74
     1
 91
        4
 64
     7
 65
   257
 75
     1
175
     1
 42
1.0
 92
        0
 66
   257
 43
1.0
 76
     1
 77
     6
 78
     2
 67
     7
 79
     5
170
     0
171
     0
290
     0
174
     0
 93
        1
 44
0.0
173
     0
291
     0
 45
0.0
1001
ACAD
1000
AcDbSavedByObjectVersion
1070
     0
  0
VISUALSTYLE
  5
32
102
{ACAD_REACTORS
330
2A
102
}
330
2A
100
AcDbVisualStyle
  2
Basic
 70
     7
 71
     1
 72
     0
 73
     1
 90
        0
 40
-0.6
 41
-30.0
 62
     5
 63
     7
421
 16777215
 74
     0
 91
        4
 64
     7
 65
   257
 75
     1
175
     1
 42
1.0
 92
        8
 66
     7
 43
1.0
 76
     1
 77
     6
 78
     2
 67
     7
 79
     5
170
     0
171
     0
290
     0
174
     0
 93
        1
 44
0.0
173
     0
291
     1
 45
0.0
1001
ACAD
1000
AcDbSavedByObjectVersion
1070
     0
  0
VISUALSTYLE
  5
36
102
{ACAD_REACTORS
330
2A
102
}
330
2A
100
AcDbVisualStyle
  2
Brighten
 70
    12
 71
     2
 72
     2
 73
     0
 90
        0
 40
-0.6
 41
-30.0
 62
     5
 63
     7
421
 16777215
 74
     1
 91
        4
 64
     7
 65
   257
 75
     1
175
     1
 42
1.0
 92
        8
 66
     7
 43
1.0
 76
     1
 77
     6
 78
     2
 67
     7
 79
     5
170
     0
171
     0
290
     0
174
     0
 93
        1
 44
50.0
173
     0
291
     1
 45
0.0
1001
ACAD
1000
AcDbSavedByObjectVersion
1070
     0
  0
VISUALSTYLE
  5
3A
102
{ACAD_REACTORS
330
2A
102
}
330
2A
100
AcDbVisualStyle
  2
ColorChange
 70
    16
 71
     2
 72
     2
 73
     3
 90
        0
 40
-0.6
 41
-30.0
 62
     5
 63
     8
421
  8421504
 74
     1
 91
        4
 64
     7
 65
   257
 75
     1
175
     1
 42
1.0
 92
        8
 66
     8
424
  8421504
 43
1.0
 76
     1
 77
     6
 78
     2
 67
     7
 79
     5
170
     0
171
     0
290
     0
174
     0
 93
        1
 44
0.0
173
     0
291
     1
 45
0.0
1001
ACAD
1000
AcDbSavedByObjectVersion
1070
     0
  0
VISUALSTYLE
  5
34
102
{ACAD_REACTORS
330
2A
102
}
330
2A
100
AcDbVisualStyle
  2
Conceptual
 70
     9
 71
     3
 72
     2
 73
     0
 90
        0
 40
-0.6
 41
-30.0
 62
     5
 63
     7
421
 16777215
 74
     2
 91
        2
 64
     7
 65
   257
 75
     1
175
     1
 42
40.0
 92
        8
 66
     7
 43
1.0
 76
     1
 77
     6
 78
     2
 67
     7
 79
     3
170
     0
171
     0
290
     0
174
     0
 93
        1
 44
0.0
173
     0
291
     0
 45
0.0
1001
ACAD
1000
AcDbSavedByObjectVersion
1070
     0
  0
VISUALSTYLE
  5
35
102
{ACAD_REACTORS
330
2A
102
}
330
2A
100
AcDbVisualStyle
  2
Dim
 70
    11
 71
     2
 72
     2
 73
     0
 90
        0
 40
-0.6
 41
-30.0
 62
     5
 63
     7
421
 16777215
 74
     1
 91
        4
 64
     7
 65
   257
 75
     1
175
     1
 42
1.0
 92
        8
 66
     7
 43
1.0
 76
     1
 77
     6
 78
     2
 67
     7
 79
     5
170
     0
171
     0
290
     0
174
     0
 93
        1
 44
-50.0
173
     0
291
     1
 45
0.0
1001
ACAD
1000
AcDbSavedByObjectVersion
1070
     0
  0
VISUALSTYLE
  5
39
102
{ACAD_REACTORS
330
2A
102
}
330
2A
100
AcDbVisualStyle
  2
Facepattern
 70
    15
 71
     2
 72
     2
 73
     0
 90
        0
 40
-0.6
 41
-30.0
 62
     5
 63
     7
421
 16777215
 74
     1
 91
        4
 64
     7
 65
   257
 75
     1
175
     1
 42
1.0
 92
        8
 66
     7
 43
1.0
 76
     1
 77
     6
 78
     2
 67
     7
 79
     5
170
     0
171
     0
290
     0
174
     0
 93
        1
 44
0.0
173
     0
291
     1
 45
0.0
1001
ACAD
1000
AcDbSavedByObjectVersion
1070
     0
  0
VISUALSTYLE
  5
2B
102
{ACAD_REACTORS
330
2A
102
}
330
2A
100
AcDbVisualStyle
  2
Flat
 70
     0
 71
     2
 72
     1
 73
     1
 90
        2
 40
-0.6
 41
30.0
 62
     5
 63
     7
421
 16777215
 74
     0
 91
        4
 64
     7
 65
   257
 75
     1
175
     1
 42
1.0
 92
        8
 66
     7
 43
1.0
 76
     1
 77
     6
 78
     2
 67
     7
 79
     5
170
     0
171
     0
290
     0
174
     0
 93
       13
 44
0.0
173
     0
291
     1
 45
0.0
1001
ACAD
1000
AcDbSavedByObjectVersion
1070
     0
  0
VISUALSTYLE
  5
2C
102
{ACAD_REACTORS
330
2A
102
}
330
2A
100
AcDbVisualStyle
  2
FlatWithEdges
 70
     1
 71
     2
 72
     1
 73
     1
 90
        2
 40
-0.6
 41
30.0
 62
     5
 63
     7
421
 16777215
 74
     1
 91
        4
 64
     7
 65
   257
 75
     1
175
     1
 42
1.0
 92
        0
 66
   257
 43
1.0
 76
     1
 77
     6
 78
     2
 67
     7
 79
     5
170
     0
171
     0
290
     0
174
     0
 93
       13
 44
0.0
173
     0
291
     1
 45
0.0
1001
ACAD
1000
AcDbSavedByObjectVersion
1070
     0
  0
VISUALSTYLE
  5
2D
102
{ACAD_REACTORS
330
2A
102
}
330
2A
100
AcDbVisualStyle
  2
Gouraud
 70
     2
 71
     2
 72
     2
 73
     1
 90
        2
 40
-0.6
 41
30.0
 62
     5
 63
     7
421
 16777215
 74
     0
 91
        4
 64
     7
 65
   257
 75
     1
175
     1
 42
1.0
 92
        0
 66
     7
 43
1.0
 76
     1
 77
     6
 78
     2
 67
     7
 79
     5
170
     0
171
     0
290
     0
174
     0
 93
       13
 44
0.0
173
     0
291
     1
 45
0.0
1001
ACAD
1000
AcDbSavedByObjectVersion
1070
     0
  0
VISUALSTYLE
  5
2E
102
{ACAD_REACTORS
330
2A
102
}
330
2A
100
AcDbVisualStyle
  2
GouraudWithEdges
 70
     3
 71
     2
 72
     2
 73
     1
 90
        2
 40
-0.6
 41
30.0
 62
     5
 63
     7
421
 16777215
 74
     1
 91
        4
 64
     7
 65
   257
 75
     1
175
     1
 42
1.0
 92
        0
 66
   257
 43
1.0
 76
     1
 77
     6
 78
     2
 67
     7
 79
     5
170
     0
171
     0
290
     0
174
     0
 93
       13
 44
0.0
173
     0
291
     1
 45
0.0
1001
ACAD
1000
AcDbSavedByObjectVersion
1070
     0
  0
VISUALSTYLE
  5
38
102
{ACAD_REACTORS
330
2A
102
}
330
2A
100
AcDbVisualStyle
  2
Linepattern
 70
    14
 71
     2
 72
     2
 73
     0
 90
        0
 40
-0.6
 41
-30.0
 62
     5
 63
     7
421
 16777215
 74
     1
 91
        4
 64
     7
 65
   257
 75
     7
175
     7
 42
1.0
 92
        8
 66
     7
 43
1.0
 76
     1
 77
     6
 78
     2
 67
     7
 79
     5
170
     0
171
     0
290
     0
174
     0
 93
        1
 44
0.0
173
     0
291
     1
 45
0.0
1001
ACAD
1000
AcDbSavedByObjectVersion
1070
     0
  0
VISUALSTYLE
  5
33
102
{ACAD_REACTORS
330
2A
102
}
330
2A
100
AcDbVisualStyle
  2
Realistic
 70
     8
 71
     2
 72
     2
 73
     0
 90
        0
 40
-0.6
 41
-30.0
 62
     5
 63
     7
421
 16777215
 74
     1
 91
        0
 64
     7
 65
   257
 75
     1
175
     1
 42
1.0
 92
        8
 66
     8
424
  7895160
 43
1.0
 76
     1
 77
     6
 78
     2
 67
     7
 79
     5
170
     0
171
     0
290
     0
174
     0
 93
       13
 44
0.0
173
     0
291
     0
 45
0.0
1001
ACAD
1000
AcDbSavedByObjectVersion
1070
     0
  0
VISUALSTYLE
  5
37
102
{ACAD_REACTORS
330
2A
102
}
330
2A
100
AcDbVisualStyle
  2
Thicken
 70
    13
 71
     2
 72
     2
 73
     0
 90
        0
 40
-0.6
 41
-30.0
 62
     5
 63
     7
421
 16777215
 74
     1
 91
        4
 64
     7
 65
   257
 75
     1
175
     1
 42
1.0
 92
       12
 66
     7
 43
1.0
 76
     1
 77
     6
 78
     2
 67
     7
 79
     5
170
     0
171
     0
290
     0
174
     0
 93
        1
 44
0.0
173
     0
291
     1
 45
0.0
1001
ACAD
1000
AcDbSavedByObjectVersion
1070
     0
  0
ENDSEC
  0
EOF
