  0
SECTION
  2
HEADER
  9
$ACADVER
  1
AC1009
  9
$INSBASE
 10
0
 20
0
 30
0
  9
$EXTMIN
 10
0
 20
0
  9
$EXTMAX
 10
420
 20
297
  9
$LIMMIN
 10
0
 20
0
  9
$LIMMAX
 10
420
 20
297
  9
$LTSCALE
 40
1
  0
ENDSEC
  0
SECTION
  2
TABLES
  0
TABLE
  2
LTYPE
 70
     9
  0
LTYPE
  2
CONTINUOUS
 70
    64
  3
実線
 72
    65
 73
     0
 40
0.0
  0
LTYPE
  2
DASHED1
 70
    64
  3
--  --  --  --  --  --  --  --  
 72
    65
 73
     2
 40
2.5
 49
1.25
 49
-1.25
  0
LTYPE
  2
DASHED2
 70
    64
  3
----    ----    ----    ----    
 72
    65
 73
     2
 40
5.0
 49
2.5
 49
-2.5
  0
LTYPE
  2
DASHED3
 70
    64
  3
------  ------  ------  ------  
 72
    65
 73
     2
 40
5.0
 49
3.75
 49
-1.25
  0
LTYPE
  2
CENTER1
 70
    64
  3
----- - ----- - ----- - ----- - 
 72
    65
 73
     4
 40
10.0
 49
6.25
 49
-1.25
 49
1.25
 49
-1.25
  0
LTYPE
  2
CENTER2
 70
    64
  3
----------  --  ----------  --  
 72
    65
 73
     4
 40
20.0
 49
12.5
 49
-2.5
 49
2.5
 49
-2.5
  0
LTYPE
  2
PHANTOM1
 70
    64
  3
--- - - --- - - --- - - --- - - 
 72
    65
 73
     6
 40
10.0
 49
3.25
 49
-1.25
 49
1.25
 49
-1.25
 49
1.25
 49
-1.25
  0
LTYPE
  2
PHANTOM2
 70
    64
  3
--------  -  -  --------  -  -  
 72
    65
 73
     6
 40
20.0
 49
10.0
 49
-2.5
 49
1.25
 49
-2.5
 49
1.25
 49
-2.5
  0
LTYPE
  2
DOT
 70
    64
  3
-   -   -   -   -   -   -   -   
 72
    65
 73
     2
 40
2.5
 49
0.625
 49
-1.875
  0
LTYPE
  2
DUMMY
 70
    64
  3
ダミー
 72
    65
 73
     0
 40
0.0
  0
LTYPE
  2
RAND1
 70
    64
  3
ランダム線1
 72
    65
 73
     4
 40
10.0
 49
1.0
 49
-2.0
 49
3.0
 49
-4.0
  0
LTYPE
  2
RAND2
 70
    64
  3
ランダム線2
 72
    65
 73
     4
 40
14.0
 49
2.0
 49
-3.0
 49
4.0
 49
-5.0
  0
LTYPE
  2
RAND3
 70
    64
  3
ランダム線3
 72
    65
 73
     4
 40
18.0
 49
3.0
 49
-4.0
 49
5.0
 49
-6.0
  0
LTYPE
  2
RAND4
 70
    64
  3
ランダム線4
 72
    65
 73
     4
 40
22.0
 49
4.0
 49
-5.0
 49
6.0
 49
-7.0
  0
LTYPE
  2
RAND5
 70
    64
  3
ランダム線5
 72
    65
 73
     4
 40
26.0
 49
5.0
 49
-6.0
 49
7.0
 49
-8.0
  0
LTYPE
  2
LONG1
 70
    64
  3
----------  --  ----------  --  
 72
    65
 73
     4
 40
40.0
 49
32.5
 49
-2.5
 49
2.5
 49
-2.5
  0
LTYPE
  2
LONG2
 70
    64
  3
--------  -  -  --------  -  -  
 72
    65
 73
     6
 40
40.0
 49
30.0
 49
-2.5
 49
1.25
 49
-2.5
 49
1.25
 49
-2.5
  0
LTYPE
  2
LONG3
 70
    64
  3
+++++++++++++++..+++++++++++++++
 72
    65
 73
     2
 40
40.0
 49
37.5
 49
-2.5
  0
LTYPE
  2
LONG4
 70
    64
  3
+++++++++++++++..+++++++++++++++
 72
    65
 73
     2
 40
80.0
 49
75.0
 49
-5.0
  0
LTYPE
  2
LONG5
 70
    64
  3
----------  --  ----------  --  
 72
    65
 73
     4
 40
60.0
 49
37.5
 49
-7.5
 49
7.5
 49
-7.5
  0
LTYPE
  2
dashed
 70
   64
  3
-------   -------------   ------
 72
   65
 73
    2
 40
7.5
 49
6
 49
-1.5
  0
LTYPE
  2
dashed_spaced
 70
   64
  3
----        --------        ----
 72
   65
 73
    2
 40
12
 49
6
 49
-6
  0
LTYPE
  2
long_dashed_dotted
 70
   64
  3
------------- --- --------------
 72
   65
 73
    4
 40
15.25
 49
12
 49
-1.5
 49
0.25
 49
-1.5
  0
LTYPE
  2
long_dashed_double-dotted
 70
   64
  3
----------- --- --- ------------
 72
   65
 73
    6
 40
17
 49
12
 49
-1.5
 49
0.25
 49
-1.5
 49
0.25
 49
-1.5
  0
LTYPE
  2
long_dashed_triplicate-dotted
 70
   64
  3
--------- --- --- --- ----------
 72
   65
 73
    8
 40
18.75
 49
12
 49
-1.5
 49
0.25
 49
-1.5
 49
0.25
 49
-1.5
 49
0.25
 49
-1.5
  0
LTYPE
  2
dotted
 70
   64
  3
   -       -       -       -    
 72
   65
 73
    2
 40
1.75
 49
0.25
 49
-1.5
  0
LTYPE
  2
chain
 70
   64
  3
-------------- -- --------------
 72
   65
 73
    4
 40
18.5
 49
12
 49
-1.5
 49
3.5
 49
-1.5
  0
LTYPE
  2
chain_double_dash
 70
   64
  3
------------ -- -- -------------
 72
   65
 73
    6
 40
23.5
 49
12
 49
-1.5
 49
3.5
 49
-1.5
 49
3.5
 49
-1.5
  0
LTYPE
  2
dashed_dotted
 70
   64
  3
-----------     -     ----------
 72
   65
 73
    4
 40
9.25
 49
6
 49
-1.5
 49
0.25
 49
-1.5
  0
LTYPE
  2
double-dashed_dotted
 70
   64
  3
------   -----------   -   -----
 72
   65
 73
    6
 40
16.75
 49
6
 49
-1.5
 49
6
 49
-1.5
 49
0.25
 49
-1.5
  0
LTYPE
  2
dashed_double-dotted
 70
   64
  3
---------    -    -    ---------
 72
   65
 73
    6
 40
11
 49
6
 49
-1.5
 49
0.25
 49
-1.5
 49
0.25
 49
-1.5
  0
LTYPE
  2
double-dashed_double-dotted
 70
   64
  3
-----   ---------   -   -   ----
 72
   65
 73
    8
 40
18.5
 49
6
 49
-1.5
 49
6
 49
-1.5
 49
0.25
 49
-1.5
 49
0.25
 49
-1.5
  0
LTYPE
  2
dashed_triplicate-dotted
 70
   64
  3
-------    -    -    -    ------
 72
   65
 73
    8
 40
12.75
 49
6
 49
-1.5
 49
0.25
 49
-1.5
 49
0.25
 49
-1.5
 49
0.25
 49
-1.5
  0
LTYPE
  2
double-dashed_triplicate-dotted
 70
   64
  3
-----  ---------  -  -  -  -----
 72
   65
 73
   10
 40
20.25
 49
6
 49
-1.5
 49
6
 49
-1.5
 49
0.25
 49
-1.5
 49
0.25
 49
-1.5
 49
0.25
 49
-1.5
  0
LTYPE
  2
undefined
 70
   64
  3
--------------------------------
 72
   65
 73
    0
 40
0
  0
ENDTAB
  0
TABLE
  2
STYLE
  5
3
100
AcDbSymbolTable
 70
     1
  0
STYLE
  5
10
100
AcDbSymbolTableRecord
100
AcDbTextStyleTableRecord
  2
STANDARD
 70
     0
 40
0.0
 41
1.0
 50
0.0
 71
     0
 42
0.2
  3
txt
  4
bigfont.shx
  0
STYLE
  5
26
100
AcDbSymbolTableRecord
100
AcDbTextStyleTableRecord
  2
TATEGAKI
 70
    68
 40
0.0
 41
1.0
 50
0.0
 71
     0
 42
1.0
  3
txt
  4
bigfont.shx
  0
ENDTAB
  0
TABLE
  2
LAYER
 70
    3
  0
LAYER
  2
_0-0_
 70
   64
 62
    7
  6
CONTINUOUS
  0
LAYER
  2
_0-1_
 70
   64
 62
    7
  6
CONTINUOUS
  0
LAYER
  2
ADD_LINE
 70
   64
 62
    7
  6
CONTINUOUS
  0
ENDTAB
  0
ENDSEC
  0
SECTION
  2
BLOCKS
  0
ENDSEC
  0
SECTION
  2
ENTITIES
  0
LINE
  8
_0-0_
  6
CONTINUOUS
 62
    7
 10
255.37119863496366
 20
205.15060780959041
 11
239.41144863496368
 21
205.15060780959041
  0
LINE
  8
_0-1_
  6
CONTINUOUS
 62
    1
 10
241.75121158683709
 20
28.338966595007264
 11
241.75121158683709
 21
10.338966596807268
  0
LINE
  8
_0-1_
  6
CONTINUOUS
 62
    1
 10
306.75121158683709
 20
287.5038448141957
 11
306.75121158683709
 21
10.338966596807268
  0
LINE
  8
ADD_LINE
  6
DOT
 62
    7
 10
310
 20
291.49999997140014
 11
110.0000000199999
 21
291.49999997140014
  0
LINE
  8
ADD_LINE
  6
DOT
 62
    7
 10
110.0000000199999
 20
291.49999997140014
 11
110.0000000199999
 21
5.5
  0
LINE
  8
ADD_LINE
  6
DOT
 62
    7
 10
110.0000000199999
 20
5.5
 11
310
 21
5.5
  0
LINE
  8
ADD_LINE
  6
DOT
 62
    7
 10
310
 20
5.5
 11
310
 21
291.49999997140014
  0
LINE
  8
_0-1_
  6
CONTINUOUS
 62
    1
 10
114.30465463589576
 20
10.338966596807268
 11
114.30465463589576
 21
287.5038448141957
  0
LINE
  8
_0-1_
  6
CONTINUOUS
 62
    1
 10
114.30465463589576
 20
287.5038448141957
 11
306.75121158683709
 21
287.5038448141957
  0
LINE
  8
_0-1_
  6
CONTINUOUS
 62
    1
 10
306.75121158683709
 20
28.338966595007207
 11
114.30465463589576
 21
28.338966595007207
  0
LINE
  8
_0-1_
  6
CONTINUOUS
 62
    1
 10
306.75121158683709
 20
10.338966596807268
 11
114.30465463589576
 21
10.338966596807268
  0
LINE
  8
_0-1_
  6
CONTINUOUS
 62
    7
 10
126.1766597049351
 20
13.819895418957401
 11
130.38050950713313
 21
13.819895418957401
  0
LINE
  8
_0-1_
  6
CONTINUOUS
 62
    7
 10
130.38050950713313
 20
13.819895418957401
 11
130.38050950713313
 21
18.029664629699312
  0
LINE
  8
_0-1_
  6
CONTINUOUS
 62
    7
 10
126.1766597049351
 20
18.029664629699312
 11
126.1766597049351
 21
13.819895418957401
  0
LINE
  8
_0-1_
  6
CONTINUOUS
 62
    7
 10
130.38050950713313
 20
18.029664629699312
 11
126.1766597049351
 21
18.029664629699312
  0
LINE
  8
_0-1_
  6
CONTINUOUS
 62
    7
 10
130.85683166959154
 20
19.40245639282324
 11
133.00683166959152
 21
23.126365629096227
  0
LINE
  8
_0-1_
  6
CONTINUOUS
 62
    7
 10
130.85683166959154
 20
19.40245639282324
 11
135.15683166959155
 21
19.40245639282324
  0
LINE
  8
_0-1_
  6
CONTINUOUS
 62
    7
 10
133.00683166959152
 20
23.126365629096227
 11
135.15683166959155
 21
19.40245639282324
  0
CIRCLE
  8
_0-1_
  6
CONTINUOUS
 62
    7
 10
136.38960112976145
 20
23.92213560710141
 40
1.4758715835162384
  0
LINE
  8
_0-1_
  6
CONTINUOUS
 62
    2
 10
139.35639702721204
 20
16.016395581136806
 11
141.16866199605749
 21
16.016395581136806
  0
LINE
  8
_0-1_
  6
CONTINUOUS
 62
    2
 10
141.63496965421251
 20
15.016395581136862
 11
142.24116960981405
 21
13.716395581136794
  0
LINE
  8
_0-1_
  6
CONTINUOUS
 62
    2
 10
138.89008936905702
 20
15.016395581136862
 11
138.28388941345554
 21
13.716395581136794
  0
LINE
  8
_0-1_
  6
CONTINUOUS
 62
    2
 10
140.2625295116348
 20
17.959602964879934
 11
141.16866199605749
 21
16.016395581136806
  0
LINE
  8
_0-1_
  6
CONTINUOUS
 62
    2
 10
140.2625295116348
 20
17.959602964879934
 11
139.35639702721204
 21
16.016395581136806
  0
LINE
  8
_0-1_
  6
CONTINUOUS
 62
    2
 10
139.66754969551971
 20
19.471523628320085
 11
136.98388941345553
 21
13.716395581136794
  0
LINE
  8
_0-1_
  6
CONTINUOUS
 62
    2
 10
147.51042248461488
 20
18.471523628320085
 11
147.58523649286826
 21
18.430466883560598
  0
LINE
  8
_0-1_
  6
CONTINUOUS
 62
    2
 10
147.58523649286826
 20
18.430466883560598
 11
147.71283294566626
 21
18.358737350812589
  0
LINE
  8
_0-1_
  6
CONTINUOUS
 62
    2
 10
147.71283294566626
 20
18.358737350812589
 11
147.83655935234094
 21
18.284391035332021
  0
LINE
  8
_0-1_
  6
CONTINUOUS
 62
    2
 10
147.83655935234094
 20
18.284391035332021
 11
147.95396631661163
 21
18.205771745516529
  0
LINE
  8
_0-1_
  6
CONTINUOUS
 62
    2
 10
147.95396631661163
 20
18.205771745516529
 11
148.06260444219782
 21
18.121223289763122
  0
LINE
  8
_0-1_
  6
CONTINUOUS
 62
    2
 10
148.06260444219782
 20
18.121223289763122
 11
148.16002433281886
 21
18.02908947646921
  0
LINE
  8
_0-1_
  6
CONTINUOUS
 62
    2
 10
148.16002433281886
 20
18.02908947646921
 11
148.21042248461492
 21
17.971523628320085
  0
LINE
  8
_0-1_
  6
CONTINUOUS
 62
    2
 10
148.21042248461492
 20
17.971523628320085
 11
148.28237112184786
 21
17.869989098545545
  0
LINE
  8
_0-1_
  6
CONTINUOUS
 62
    2
 10
148.28237112184786
 20
17.869989098545545
 11
148.37782669260349
 21
17.675811149029926
  0
LINE
  8
_0-1_
  6
CONTINUOUS
 62
    2
 10
148.37782669260349
 20
17.675811149029926
 11
148.44226346598793
 21
17.461258492089144
  0
LINE
  8
_0-1_
  6
CONTINUOUS
 62
    2
 10
148.44226346598793
 20
17.461258492089144
 11
148.48169991986532
 21
17.230779753798288
  0
LINE
  8
_0-1_
  6
CONTINUOUS
 62
    2
 10
148.48169991986532
 20
17.230779753798288
 11
148.50215453209967
 21
16.988823560233072
  0
LINE
  8
_0-1_
  6
CONTINUOUS
 62
    2
 10
148.50215453209967
 20
16.988823560233072
 11
148.50964578055505
 21
16.739838537468643
  0
LINE
  8
_0-1_
  6
CONTINUOUS
 62
    2
 10
148.50964578055505
 20
16.739838537468643
 11
148.51042248461488
 21
16.593959604728468
  0
LINE
  8
_0-1_
  6
CONTINUOUS
 62
    2
 10
148.51042248461488
 20
16.593959604728468
 11
148.50964578055505
 21
16.44808067198835
  0
LINE
  8
_0-1_
  6
CONTINUOUS
 62
    2
 10
148.50964578055505
 20
16.44808067198835
 11
148.50215453209967
 21
16.199095649223921
  0
LINE
  8
_0-1_
  6
CONTINUOUS
 62
    2
 10
148.50215453209967
 20
16.199095649223921
 11
148.48169991986532
 21
15.957139455658762
  0
LINE
  8
_0-1_
  6
CONTINUOUS
 62
    2
 10
148.48169991986532
 20
15.957139455658762
 11
148.44226346598793
 21
15.726660717367906
  0
LINE
  8
_0-1_
  6
CONTINUOUS
 62
    2
 10
148.44226346598793
 20
15.726660717367906
 11
148.37782669260349
 21
15.512108060426954
  0
LINE
  8
_0-1_
  6
CONTINUOUS
 62
    2
 10
148.37782669260349
 20
15.512108060426954
 11
148.28237112184786
 21
15.317930110911391
  0
LINE
  8
_0-1_
  6
CONTINUOUS
 62
    2
 10
148.28237112184786
 20
15.317930110911391
 11
148.21042248461492
 21
15.216395581136794
  0
LINE
  8
_0-1_
  6
CONTINUOUS
 62
    2
 10
148.21042248461492
 20
15.216395581136794
 11
148.16002433281886
 21
15.15882973298784
  0
LINE
  8
_0-1_
  6
CONTINUOUS
 62
    2
 10
148.16002433281886
 20
15.15882973298784
 11
148.06260444219782
 21
15.066695919693927
  0
LINE
  8
_0-1_
  6
CONTINUOUS
 62
    2
 10
148.06260444219782
 20
15.066695919693927
 11
147.95396631661163
 21
14.982147463940407
  0
LINE
  8
_0-1_
  6
CONTINUOUS
 62
    2
 10
147.95396631661163
 20
14.982147463940407
 11
147.83655935234094
 21
14.903528174124915
  0
LINE
  8
_0-1_
  6
CONTINUOUS
 62
    2
 10
147.83655935234094
 20
14.903528174124915
 11
147.71283294566626
 21
14.829181858644404
  0
LINE
  8
_0-1_
  6
CONTINUOUS
 62
    2
 10
147.71283294566626
 20
14.829181858644404
 11
147.58523649286826
 21
14.757452325896224
  0
LINE
  8
_0-1_
  6
CONTINUOUS
 62
    2
 10
147.58523649286826
 20
14.757452325896224
 11
147.51042248461488
 21
14.716395581136794
  0
LINE
  8
_0-1_
  6
CONTINUOUS
 62
    2
 10
147.51042248461488
 20
13.716395581136794
 11
147.57591121113927
 21
13.733349386091561
  0
LINE
  8
_0-1_
  6
CONTINUOUS
 62
    2
 10
147.57591121113927
 20
13.733349386091561
 11
147.6888885765992
 21
13.762873806782579
  0
LINE
  8
_0-1_
  6
CONTINUOUS
 62
    2
 10
147.6888885765992
 20
13.762873806782579
 11
147.80204863095958
 21
13.793214123288578
  0
LINE
  8
_0-1_
  6
CONTINUOUS
 62
    2
 10
147.80204863095958
 20
13.793214123288578
 11
147.91550700010657
 21
13.824886725365559
  0
LINE
  8
_0-1_
  6
CONTINUOUS
 62
    2
 10
147.91550700010657
 20
13.824886725365559
 11
148.02937930992653
 21
13.858408002769409
  0
LINE
  8
_0-1_
  6
CONTINUOUS
 62
    2
 10
148.02937930992653
 20
13.858408002769409
 11
148.14378118630572
 21
13.89429434525681
  0
LINE
  8
_0-1_
  6
CONTINUOUS
 62
    2
 10
148.14378118630572
 20
13.89429434525681
 11
148.21042248461492
 21
13.916395581136783
  0
LINE
  8
_0-1_
  6
CONTINUOUS
 62
    2
 10
148.21042248461492
 20
13.916395581136783
 11
148.34292672390819
 21
13.963378314317424
  0
LINE
  8
_0-1_
  6
CONTINUOUS
 62
    2
 10
148.34292672390819
 20
13.963378314317424
 11
148.56982931500551
 21
14.055518857610366
  0
LINE
  8
_0-1_
  6
CONTINUOUS
 62
    2
 10
148.56982931500551
 20
14.055518857610366
 11
148.78907924339109
 21
14.1636810935467
  0
LINE
  8
_0-1_
  6
CONTINUOUS
 62
    2
 10
148.78907924339109
 20
14.1636810935467
 11
148.99406389550711
 21
14.290104212994493
  0
LINE
  8
_0-1_
  6
CONTINUOUS
 62
    2
 10
148.99406389550711
 20
14.290104212994493
 11
149.17817065779582
 21
14.437027406821926
  0
LINE
  8
_0-1_
  6
CONTINUOUS
 62
    2
 10
149.17817065779582
 20
14.437027406821926
 11
149.3347869166995
 21
14.606689865896897
  0
LINE
  8
_0-1_
  6
CONTINUOUS
 62
    2
 10
149.3347869166995
 20
14.606689865896897
 11
149.41042248461486
 21
14.716395581136794
  0
LINE
  8
_0-1_
  6
CONTINUOUS
 62
    2
 10
149.41042248461486
 20
14.716395581136794
 11
149.43549298536175
 21
14.759580204159704
  0
LINE
  8
_0-1_
  6
CONTINUOUS
 62
    2
 10
149.43549298536175
 20
14.759580204159704
 11
149.47490228183676
 21
14.836612312496584
  0
LINE
  8
_0-1_
  6
CONTINUOUS
 62
    2
 10
149.47490228183676
 20
14.836612312496584
 11
149.51003040384671
 21
14.916423570451684
  0
LINE
  8
_0-1_
  6
CONTINUOUS
 62
    2
 10
149.51003040384671
 20
14.916423570451684
 11
149.54151552770202
 21
14.998454170037064
  0
LINE
  8
_0-1_
  6
CONTINUOUS
 62
    2
 10
149.54151552770202
 20
14.998454170037064
 11
149.56999582971304
 21
15.082144303264954
  0
LINE
  8
_0-1_
  6
CONTINUOUS
 62
    2
 10
149.56999582971304
 20
15.082144303264954
 11
149.59610948619024
 21
15.166934162147356
  0
LINE
  8
_0-1_
  6
CONTINUOUS
 62
    2
 10
149.59610948619024
 20
15.166934162147356
 11
149.6104224846149
 21
15.216395581136794
  0
LINE
  8
_0-1_
  6
CONTINUOUS
 62
    2
 10
149.6104224846149
 20
15.216395581136794
 11
149.64523764955487
 21
15.344622912301872
  0
LINE
  8
_0-1_
  6
CONTINUOUS
 62
    2
 10
149.64523764955487
 20
15.344622912301872
 11
149.69789086275694
 21
15.566707817695317
  0
LINE
  8
_0-1_
  6
CONTINUOUS
 62
    2
 10
149.69789086275694
 20
15.566707817695317
 11
149.74090434593938
 21
15.78986195096229
  0
LINE
  8
_0-1_
  6
CONTINUOUS
 62
    2
 10
149.74090434593938
 20
15.78986195096229
 11
149.77392123500215
 21
16.013851856235192
  0
LINE
  8
_0-1_
  6
CONTINUOUS
 62
    2
 10
149.77392123500215
 20
16.013851856235192
 11
149.79658466584556
 21
16.23844407764642
  0
LINE
  8
_0-1_
  6
CONTINUOUS
 62
    2
 10
149.79658466584556
 20
16.23844407764642
 11
149.80853777436982
 21
16.463405159328431
  0
LINE
  8
_0-1_
  6
CONTINUOUS
 62
    2
 10
149.80853777436982
 20
16.463405159328431
 11
149.81042248461489
 21
16.593959604728468
  0
LINE
  8
_0-1_
  6
CONTINUOUS
 62
    2
 10
149.81042248461489
 20
16.593959604728468
 11
149.80853777436982
 21
16.724514050128562
  0
LINE
  8
_0-1_
  6
CONTINUOUS
 62
    2
 10
149.80853777436982
 20
16.724514050128562
 11
149.79658466584556
 21
16.949475131810516
  0
LINE
  8
_0-1_
  6
CONTINUOUS
 62
    2
 10
149.79658466584556
 20
16.949475131810516
 11
149.77392123500215
 21
17.174067353221631
  0
LINE
  8
_0-1_
  6
CONTINUOUS
 62
    2
 10
149.77392123500215
 20
17.174067353221631
 11
149.74090434593938
 21
17.398057258494532
  0
LINE
  8
_0-1_
  6
CONTINUOUS
 62
    2
 10
149.74090434593938
 20
17.398057258494532
 11
149.69789086275694
 21
17.621211391761619
  0
LINE
  8
_0-1_
  6
CONTINUOUS
 62
    2
 10
149.69789086275694
 20
17.621211391761619
 11
149.64523764955487
 21
17.843296297155007
  0
LINE
  8
_0-1_
  6
CONTINUOUS
 62
    2
 10
149.64523764955487
 20
17.843296297155007
 11
149.6104224846149
 21
17.971523628320085
  0
LINE
  8
_0-1_
  6
CONTINUOUS
 62
    2
 10
149.6104224846149
 20
17.971523628320085
 11
149.59610948619024
 21
18.02098504730958
  0
LINE
  8
_0-1_
  6
CONTINUOUS
 62
    2
 10
149.59610948619024
 20
18.02098504730958
 11
149.56999582971304
 21
18.105774906191868
  0
LINE
  8
_0-1_
  6
CONTINUOUS
 62
    2
 10
149.56999582971304
 20
18.105774906191868
 11
149.54151552770202
 21
18.189465039419758
  0
LINE
  8
_0-1_
  6
CONTINUOUS
 62
    2
 10
149.54151552770202
 20
18.189465039419758
 11
149.51003040384671
 21
18.271495639005309
  0
LINE
  8
_0-1_
  6
CONTINUOUS
 62
    2
 10
149.51003040384671
 20
18.271495639005309
 11
149.47490228183676
 21
18.351306896960352
  0
LINE
  8
_0-1_
  6
CONTINUOUS
 62
    2
 10
149.47490228183676
 20
18.351306896960352
 11
149.43549298536175
 21
18.428339005297119
  0
LINE
  8
_0-1_
  6
CONTINUOUS
 62
    2
 10
149.43549298536175
 20
18.428339005297119
 11
149.41042248461486
 21
18.471523628320085
  0
LINE
  8
_0-1_
  6
CONTINUOUS
 62
    2
 10
149.41042248461486
 20
18.471523628320085
 11
149.3347869166995
 21
18.581229343560096
  0
LINE
  8
_0-1_
  6
CONTINUOUS
 62
    2
 10
149.3347869166995
 20
18.581229343560096
 11
149.17817065779582
 21
18.750891802635067
  0
LINE
  8
_0-1_
  6
CONTINUOUS
 62
    2
 10
149.17817065779582
 20
18.750891802635067
 11
148.99406389550711
 21
18.897814996462387
  0
LINE
  8
_0-1_
  6
CONTINUOUS
 62
    2
 10
148.99406389550711
 20
18.897814996462387
 11
148.78907924339109
 21
19.024238115910123
  0
LINE
  8
_0-1_
  6
CONTINUOUS
 62
    2
 10
148.78907924339109
 20
19.024238115910123
 11
148.56982931500551
 21
19.132400351846513
  0
LINE
  8
_0-1_
  6
CONTINUOUS
 62
    2
 10
148.56982931500551
 20
19.132400351846513
 11
148.34292672390819
 21
19.224540895139455
  0
LINE
  8
_0-1_
  6
CONTINUOUS
 62
    2
 10
148.34292672390819
 20
19.224540895139455
 11
148.21042248461492
 21
19.271523628320097
  0
LINE
  8
_0-1_
  6
CONTINUOUS
 62
    2
 10
148.21042248461492
 20
19.271523628320097
 11
148.14378118630572
 21
19.293624864200012
  0
LINE
  8
_0-1_
  6
CONTINUOUS
 62
    2
 10
148.14378118630572
 20
19.293624864200012
 11
148.02937930992653
 21
19.329511206687528
  0
LINE
  8
_0-1_
  6
CONTINUOUS
 62
    2
 10
148.02937930992653
 20
19.329511206687528
 11
147.91550700010657
 21
19.363032484091491
  0
LINE
  8
_0-1_
  6
CONTINUOUS
 62
    2
 10
147.91550700010657
 20
19.363032484091491
 11
147.80204863095958
 21
19.394705086168301
  0
LINE
  8
_0-1_
  6
CONTINUOUS
 62
    2
 10
147.80204863095958
 20
19.394705086168301
 11
147.6888885765992
 21
19.425045402674243
  0
LINE
  8
_0-1_
  6
CONTINUOUS
 62
    2
 10
147.6888885765992
 20
19.425045402674243
 11
147.57591121113927
 21
19.454569823365262
  0
LINE
  8
_0-1_
  6
CONTINUOUS
 62
    2
 10
147.57591121113927
 20
19.454569823365262
 11
147.51042248461488
 21
19.471523628320085
  0
LINE
  8
_0-1_
  6
CONTINUOUS
 62
    2
 10
151.1104224846149
 20
19.471523628320085
 11
153.14408276667905
 21
15.110325079467998
  0
LINE
  8
_0-1_
  6
CONTINUOUS
 62
    2
 10
155.17774304874325
 20
19.471523628320085
 11
153.14408276667905
 21
15.110325079467998
  0
LINE
  8
_0-1_
  6
CONTINUOUS
 62
    2
 10
149.81042248461489
 20
19.471523628320085
 11
152.49408276667907
 21
13.716395581136794
  0
LINE
  8
_0-1_
  6
CONTINUOUS
 62
    2
 10
153.79408276667908
 20
13.716395581136794
 11
156.47774304874326
 21
19.471523628320085
  0
LINE
  8
_0-1_
  6
CONTINUOUS
 62
    2
 10
157.47774304874326
 20
19.471523628320085
 11
154.79408276667908
 21
13.716395581136794
  0
LINE
  8
_0-1_
  6
CONTINUOUS
 62
    2
 10
158.81317700919021
 20
19.471523628320085
 11
161.49683729125434
 21
13.716395581136794
  0
LINE
  8
_0-1_
  6
CONTINUOUS
 62
    2
 10
138.89008936905702
 20
15.016395581136862
 11
141.63496965421251
 21
15.016395581136862
  0
LINE
  8
_0-1_
  6
CONTINUOUS
 62
    2
 10
156.70028272228058
 20
15.016395581136862
 11
159.5906373356529
 21
15.016395581136862
  0
LINE
  8
_0-1_
  6
CONTINUOUS
 62
    2
 10
157.16659038043559
 20
16.016395581136806
 11
159.12432967749788
 21
16.016395581136806
  0
LINE
  8
_0-1_
  6
CONTINUOUS
 62
    2
 10
163.37338575263738
 20
18.471523628320085
 11
166.34471953372667
 21
13.716395581136794
  0
LINE
  8
_0-1_
  6
CONTINUOUS
 62
    2
 10
166.95214513026218
 20
14.820099331457641
 11
166.95214513026218
 21
19.471523628320085
  0
LINE
  8
_0-1_
  6
CONTINUOUS
 62
    2
 10
168.0521451302622
 20
13.716395581136794
 11
168.0521451302622
 21
19.471523628320085
  0
LINE
  8
_0-1_
  6
CONTINUOUS
 62
    2
 10
164.0456126444264
 20
19.471523628320085
 11
166.95214513026218
 21
14.820099331457641
  0
LINE
  8
_0-1_
  6
CONTINUOUS
 62
    2
 10
162.07338575263736
 20
19.471523628320085
 11
162.07338575263736
 21
13.716395581136794
  0
LINE
  8
_0-1_
  6
CONTINUOUS
 62
    2
 10
147.51042248461488
 20
18.471523628320085
 11
145.51042248461488
 21
18.471523628320085
  0
LINE
  8
_0-1_
  6
CONTINUOUS
 62
    2
 10
145.51042248461488
 20
14.716395581136794
 11
147.51042248461488
 21
14.716395581136794
  0
LINE
  8
_0-1_
  6
CONTINUOUS
 62
    2
 10
159.12432967749788
 20
16.016395581136806
 11
158.14546002896674
 21
18.115588316688672
  0
LINE
  8
_0-1_
  6
CONTINUOUS
 62
    2
 10
157.16659038043559
 20
16.016395581136806
 11
158.14546002896674
 21
18.115588316688672
  0
LINE
  8
_0-1_
  6
CONTINUOUS
 62
    2
 10
156.09408276667909
 20
13.716395581136794
 11
156.70028272228058
 21
15.016395581136862
  0
LINE
  8
_0-1_
  6
CONTINUOUS
 62
    2
 10
160.19683729125438
 20
13.716395581136794
 11
159.5906373356529
 21
15.016395581136862
  0
LINE
  8
_0-1_
  6
CONTINUOUS
 62
    2
 10
163.37338575263738
 20
18.471523628320085
 11
163.37338575263738
 21
13.716395581136794
  0
LINE
  8
_0-1_
  6
CONTINUOUS
 62
    2
 10
136.98388941345553
 20
13.716395581136794
 11
138.28388941345554
 21
13.716395581136794
  0
LINE
  8
_0-1_
  6
CONTINUOUS
 62
    2
 10
142.24116960981405
 20
13.716395581136794
 11
143.54116960981401
 21
13.716395581136794
  0
LINE
  8
_0-1_
  6
CONTINUOUS
 62
    2
 10
140.85750932774988
 20
19.471523628320085
 11
143.54116960981401
 21
13.716395581136794
  0
LINE
  8
_0-1_
  6
CONTINUOUS
 62
    2
 10
140.85750932774988
 20
19.471523628320085
 11
139.66754969551971
 21
19.471523628320085
  0
LINE
  8
_0-1_
  6
CONTINUOUS
 62
    2
 10
144.21042248461492
 20
19.471523628320085
 11
144.21042248461492
 21
13.716395581136794
  0
LINE
  8
_0-1_
  6
CONTINUOUS
 62
    2
 10
145.51042248461488
 20
18.471523628320085
 11
145.51042248461488
 21
14.716395581136794
  0
LINE
  8
_0-1_
  6
CONTINUOUS
 62
    2
 10
144.21042248461492
 20
13.716395581136794
 11
147.51042248461488
 21
13.716395581136794
  0
LINE
  8
_0-1_
  6
CONTINUOUS
 62
    2
 10
147.51042248461488
 20
19.471523628320085
 11
144.21042248461492
 21
19.471523628320085
  0
LINE
  8
_0-1_
  6
CONTINUOUS
 62
    2
 10
151.1104224846149
 20
19.471523628320085
 11
149.81042248461489
 21
19.471523628320085
  0
LINE
  8
_0-1_
  6
CONTINUOUS
 62
    2
 10
152.49408276667907
 20
13.716395581136794
 11
153.79408276667908
 21
13.716395581136794
  0
LINE
  8
_0-1_
  6
CONTINUOUS
 62
    2
 10
156.47774304874326
 20
19.471523628320085
 11
155.17774304874325
 21
19.471523628320085
  0
LINE
  8
_0-1_
  6
CONTINUOUS
 62
    2
 10
154.79408276667908
 20
13.716395581136794
 11
156.09408276667909
 21
13.716395581136794
  0
LINE
  8
_0-1_
  6
CONTINUOUS
 62
    2
 10
160.19683729125438
 20
13.716395581136794
 11
161.49683729125434
 21
13.716395581136794
  0
LINE
  8
_0-1_
  6
CONTINUOUS
 62
    2
 10
162.07338575263736
 20
13.716395581136794
 11
163.37338575263738
 21
13.716395581136794
  0
LINE
  8
_0-1_
  6
CONTINUOUS
 62
    2
 10
166.34471953372667
 20
13.716395581136794
 11
168.0521451302622
 21
13.716395581136794
  0
LINE
  8
_0-1_
  6
CONTINUOUS
 62
    2
 10
168.0521451302622
 20
19.471523628320085
 11
166.95214513026218
 21
19.471523628320085
  0
LINE
  8
_0-1_
  6
CONTINUOUS
 62
    2
 10
164.0456126444264
 20
19.471523628320085
 11
162.07338575263736
 21
19.471523628320085
  0
LINE
  8
_0-1_
  6
CONTINUOUS
 62
    2
 10
158.81317700919021
 20
19.471523628320085
 11
157.47774304874326
 21
19.471523628320085
  0
LINE
  8
_0-1_
  6
CONTINUOUS
 62
    2
 10
137.05622680985169
 20
13.871523628320062
 11
138.35622680985171
 21
13.871523628320062
  0
LINE
  8
_0-1_
  6
CONTINUOUS
 62
    2
 10
142.16883221341789
 20
13.871523628320062
 11
143.46883221341784
 21
13.871523628320062
  0
LINE
  8
_0-1_
  6
CONTINUOUS
 62
    2
 10
144.21042248461492
 20
13.871523628320062
 11
148.07119054141134
 21
13.871523628320062
  0
LINE
  8
_0-1_
  6
CONTINUOUS
 62
    2
 10
152.42174537028291
 20
13.871523628320062
 11
153.86642016307525
 21
13.871523628320062
  0
LINE
  8
_0-1_
  6
CONTINUOUS
 62
    2
 10
154.8664201630753
 20
13.871523628320062
 11
156.16642016307526
 21
13.871523628320062
  0
LINE
  8
_0-1_
  6
CONTINUOUS
 62
    2
 10
160.12449989485822
 20
13.871523628320062
 11
161.42449989485817
 21
13.871523628320062
  0
LINE
  8
_0-1_
  6
CONTINUOUS
 62
    2
 10
162.07338575263736
 20
13.871523628320062
 11
163.37338575263738
 21
13.871523628320062
  0
LINE
  8
_0-1_
  6
CONTINUOUS
 62
    2
 10
166.2477847714203
 20
13.871523628320062
 11
168.0521451302622
 21
13.871523628320062
  0
LINE
  8
_0-1_
  6
CONTINUOUS
 62
    2
 10
137.14948834148271
 20
14.071523628320108
 11
138.44948834148272
 21
14.071523628320108
  0
LINE
  8
_0-1_
  6
CONTINUOUS
 62
    2
 10
142.07557068178687
 20
14.071523628320108
 11
143.37557068178683
 21
14.071523628320108
  0
LINE
  8
_0-1_
  6
CONTINUOUS
 62
    2
 10
144.21042248461492
 20
14.071523628320108
 11
148.6022717363511
 21
14.071523628320108
  0
LINE
  8
_0-1_
  6
CONTINUOUS
 62
    2
 10
152.32848383865189
 20
14.071523628320108
 11
153.95968169470626
 21
14.071523628320108
  0
LINE
  8
_0-1_
  6
CONTINUOUS
 62
    2
 10
154.95968169470626
 20
14.071523628320108
 11
156.25968169470627
 21
14.071523628320108
  0
LINE
  8
_0-1_
  6
CONTINUOUS
 62
    2
 10
160.0312383632272
 20
14.071523628320108
 11
161.33123836322716
 21
14.071523628320108
  0
LINE
  8
_0-1_
  6
CONTINUOUS
 62
    2
 10
162.07338575263736
 20
14.071523628320108
 11
163.37338575263738
 21
14.071523628320108
  0
LINE
  8
_0-1_
  6
CONTINUOUS
 62
    2
 10
166.12281090103846
 20
14.071523628320108
 11
168.0521451302622
 21
14.071523628320108
  0
LINE
  8
_0-1_
  6
CONTINUOUS
 62
    2
 10
137.24274987311372
 20
14.271523628320097
 11
138.54274987311373
 21
14.271523628320097
  0
LINE
  8
_0-1_
  6
CONTINUOUS
 62
    2
 10
141.98230915015586
 20
14.271523628320097
 11
143.28230915015581
 21
14.271523628320097
  0
LINE
  8
_0-1_
  6
CONTINUOUS
 62
    2
 10
144.21042248461492
 20
14.271523628320097
 11
148.96393701126135
 21
14.271523628320097
  0
LINE
  8
_0-1_
  6
CONTINUOUS
 62
    2
 10
152.23522230702088
 20
14.271523628320097
 11
154.05294322633728
 21
14.271523628320097
  0
LINE
  8
_0-1_
  6
CONTINUOUS
 62
    2
 10
155.05294322633728
 20
14.271523628320097
 11
156.35294322633729
 21
14.271523628320097
  0
LINE
  8
_0-1_
  6
CONTINUOUS
 62
    2
 10
159.93797683159619
 20
14.271523628320097
 11
161.23797683159614
 21
14.271523628320097
  0
LINE
  8
_0-1_
  6
CONTINUOUS
 62
    2
 10
162.07338575263736
 20
14.271523628320097
 11
163.37338575263738
 21
14.271523628320097
  0
LINE
  8
_0-1_
  6
CONTINUOUS
 62
    2
 10
165.99783703065657
 20
14.271523628320097
 11
168.0521451302622
 21
14.271523628320097
  0
LINE
  8
_0-1_
  6
CONTINUOUS
 62
    2
 10
137.33601140474468
 20
14.471523628320142
 11
138.63601140474475
 21
14.471523628320142
  0
LINE
  8
_0-1_
  6
CONTINUOUS
 62
    2
 10
141.88904761852484
 20
14.471523628320142
 11
143.18904761852485
 21
14.471523628320142
  0
LINE
  8
_0-1_
  6
CONTINUOUS
 62
    2
 10
144.21042248461492
 20
14.471523628320142
 11
149.21001429124794
 21
14.471523628320142
  0
LINE
  8
_0-1_
  6
CONTINUOUS
 62
    2
 10
152.14196077538986
 20
14.471523628320142
 11
154.14620475796823
 21
14.471523628320142
  0
LINE
  8
_0-1_
  6
CONTINUOUS
 62
    2
 10
155.14620475796823
 20
14.471523628320142
 11
156.44620475796825
 21
14.471523628320142
  0
LINE
  8
_0-1_
  6
CONTINUOUS
 62
    2
 10
159.84471529996517
 20
14.471523628320142
 11
161.14471529996518
 21
14.471523628320142
  0
LINE
  8
_0-1_
  6
CONTINUOUS
 62
    2
 10
162.07338575263736
 20
14.471523628320142
 11
163.37338575263738
 21
14.471523628320142
  0
LINE
  8
_0-1_
  6
CONTINUOUS
 62
    2
 10
165.87286316027473
 20
14.471523628320142
 11
168.0521451302622
 21
14.471523628320142
  0
LINE
  8
_0-1_
  6
CONTINUOUS
 62
    2
 10
137.4292729363757
 20
14.671523628320074
 11
138.72927293637571
 21
14.671523628320074
  0
LINE
  8
_0-1_
  6
CONTINUOUS
 62
    2
 10
141.79578608689383
 20
14.671523628320074
 11
143.09578608689384
 21
14.671523628320074
  0
LINE
  8
_0-1_
  6
CONTINUOUS
 62
    2
 10
144.21042248461492
 20
14.671523628320074
 11
149.37948594108707
 21
14.671523628320074
  0
LINE
  8
_0-1_
  6
CONTINUOUS
 62
    2
 10
152.0486992437589
 20
14.671523628320074
 11
154.23946628959925
 21
14.671523628320074
  0
LINE
  8
_0-1_
  6
CONTINUOUS
 62
    2
 10
155.23946628959925
 20
14.671523628320074
 11
156.53946628959926
 21
14.671523628320074
  0
LINE
  8
_0-1_
  6
CONTINUOUS
 62
    2
 10
159.75145376833416
 20
14.671523628320074
 11
161.05145376833423
 21
14.671523628320074
  0
LINE
  8
_0-1_
  6
CONTINUOUS
 62
    2
 10
162.07338575263736
 20
14.671523628320074
 11
163.37338575263738
 21
14.671523628320074
  0
LINE
  8
_0-1_
  6
CONTINUOUS
 62
    2
 10
165.74788928989284
 20
14.671523628320074
 11
168.0521451302622
 21
14.671523628320074
  0
LINE
  8
_0-1_
  6
CONTINUOUS
 62
    2
 10
137.52253446800671
 20
14.871523628320006
 11
138.82253446800672
 21
14.871523628320006
  0
LINE
  8
_0-1_
  6
CONTINUOUS
 62
    2
 10
141.70252455526281
 20
14.871523628320006
 11
143.00252455526288
 21
14.871523628320006
  0
LINE
  8
_0-1_
  6
CONTINUOUS
 62
    2
 10
144.21042248461492
 20
14.871523628320006
 11
145.51042248461488
 21
14.871523628320006
  0
LINE
  8
_0-1_
  6
CONTINUOUS
 62
    2
 10
147.78329770212878
 20
14.871523628320006
 11
149.49026814616718
 21
14.871523628320006
  0
LINE
  8
_0-1_
  6
CONTINUOUS
 62
    2
 10
151.95543771212789
 20
14.871523628320006
 11
154.33272782123026
 21
14.871523628320006
  0
LINE
  8
_0-1_
  6
CONTINUOUS
 62
    2
 10
155.33272782123026
 20
14.871523628320006
 11
156.63272782123028
 21
14.871523628320006
  0
LINE
  8
_0-1_
  6
CONTINUOUS
 62
    2
 10
159.6581922367032
 20
14.871523628320006
 11
160.95819223670321
 21
14.871523628320006
  0
LINE
  8
_0-1_
  6
CONTINUOUS
 62
    2
 10
162.07338575263736
 20
14.871523628320006
 11
163.37338575263738
 21
14.871523628320006
  0
LINE
  8
_0-1_
  6
CONTINUOUS
 62
    2
 10
165.62291541951095
 20
14.871523628320006
 11
166.92001166320927
 21
14.871523628320006
  0
LINE
  8
_0-1_
  6
CONTINUOUS
 62
    2
 10
166.95214513026218
 20
14.871523628320006
 11
168.0521451302622
 21
14.871523628320006
  0
LINE
  8
_0-1_
  6
CONTINUOUS
 62
    2
 10
137.61579599963773
 20
15.071523628320108
 11
142.90926302363187
 21
15.071523628320108
  0
LINE
  8
_0-1_
  6
CONTINUOUS
 62
    2
 10
144.21042248461492
 20
15.071523628320108
 11
145.51042248461488
 21
15.071523628320108
  0
LINE
  8
_0-1_
  6
CONTINUOUS
 62
    2
 10
148.06770913535559
 20
15.071523628320108
 11
149.5663815442731
 21
15.071523628320108
  0
LINE
  8
_0-1_
  6
CONTINUOUS
 62
    2
 10
151.86217618049687
 20
15.071523628320108
 11
154.42598935286128
 21
15.071523628320108
  0
LINE
  8
_0-1_
  6
CONTINUOUS
 62
    2
 10
155.42598935286128
 20
15.071523628320108
 11
160.8649307050722
 21
15.071523628320108
  0
LINE
  8
_0-1_
  6
CONTINUOUS
 62
    2
 10
162.07338575263736
 20
15.071523628320108
 11
163.37338575263738
 21
15.071523628320108
  0
LINE
  8
_0-1_
  6
CONTINUOUS
 62
    2
 10
165.49794154912911
 20
15.071523628320108
 11
166.79503779282743
 21
15.071523628320108
  0
LINE
  8
_0-1_
  6
CONTINUOUS
 62
    2
 10
166.95214513026218
 20
15.071523628320108
 11
168.0521451302622
 21
15.071523628320108
  0
LINE
  8
_0-1_
  6
CONTINUOUS
 62
    2
 10
137.70905753126874
 20
15.271523628320153
 11
142.81600149200085
 21
15.271523628320153
  0
LINE
  8
_0-1_
  6
CONTINUOUS
 62
    2
 10
144.21042248461492
 20
15.271523628320153
 11
145.51042248461488
 21
15.271523628320153
  0
LINE
  8
_0-1_
  6
CONTINUOUS
 62
    2
 10
148.24948690808696
 20
15.271523628320153
 11
149.62539037046315
 21
15.271523628320153
  0
LINE
  8
_0-1_
  6
CONTINUOUS
 62
    2
 10
151.76891464886592
 20
15.271523628320153
 11
153.06891464886587
 21
15.271523628320153
  0
LINE
  8
_0-1_
  6
CONTINUOUS
 62
    2
 10
153.21925088449228
 20
15.271523628320153
 11
154.51925088449229
 21
15.271523628320153
  0
LINE
  8
_0-1_
  6
CONTINUOUS
 62
    2
 10
155.51925088449229
 20
15.271523628320153
 11
160.77166917344118
 21
15.271523628320153
  0
LINE
  8
_0-1_
  6
CONTINUOUS
 62
    2
 10
162.07338575263736
 20
15.271523628320153
 11
163.37338575263738
 21
15.271523628320153
  0
LINE
  8
_0-1_
  6
CONTINUOUS
 62
    2
 10
165.37296767874727
 20
15.271523628320153
 11
166.67006392244554
 21
15.271523628320153
  0
LINE
  8
_0-1_
  6
CONTINUOUS
 62
    2
 10
166.95214513026218
 20
15.271523628320153
 11
168.0521451302622
 21
15.271523628320153
  0
LINE
  8
_0-1_
  6
CONTINUOUS
 62
    2
 10
137.80231906289976
 20
15.471523628320142
 11
142.72273996036984
 21
15.471523628320142
  0
LINE
  8
_0-1_
  6
CONTINUOUS
 62
    2
 10
144.21042248461492
 20
15.471523628320142
 11
145.51042248461488
 21
15.471523628320142
  0
LINE
  8
_0-1_
  6
CONTINUOUS
 62
    2
 10
148.35787586842281
 20
15.471523628320142
 11
149.67532402775407
 21
15.471523628320142
  0
LINE
  8
_0-1_
  6
CONTINUOUS
 62
    2
 10
151.6756531172349
 20
15.471523628320142
 11
152.97565311723486
 21
15.471523628320142
  0
LINE
  8
_0-1_
  6
CONTINUOUS
 62
    2
 10
153.31251241612324
 20
15.471523628320142
 11
154.61251241612325
 21
15.471523628320142
  0
LINE
  8
_0-1_
  6
CONTINUOUS
 62
    2
 10
155.61251241612325
 20
15.471523628320142
 11
160.67840764181017
 21
15.471523628320142
  0
LINE
  8
_0-1_
  6
CONTINUOUS
 62
    2
 10
162.07338575263736
 20
15.471523628320142
 11
163.37338575263738
 21
15.471523628320142
  0
LINE
  8
_0-1_
  6
CONTINUOUS
 62
    2
 10
165.24799380836538
 20
15.471523628320142
 11
166.5450900520637
 21
15.471523628320142
  0
LINE
  8
_0-1_
  6
CONTINUOUS
 62
    2
 10
166.95214513026218
 20
15.471523628320142
 11
168.0521451302622
 21
15.471523628320142
  0
LINE
  8
_0-1_
  6
CONTINUOUS
 62
    2
 10
137.89558059453071
 20
15.671523628320074
 11
142.62947842873882
 21
15.671523628320074
  0
LINE
  8
_0-1_
  6
CONTINUOUS
 62
    2
 10
144.21042248461492
 20
15.671523628320074
 11
145.51042248461488
 21
15.671523628320074
  0
LINE
  8
_0-1_
  6
CONTINUOUS
 62
    2
 10
148.42570409933779
 20
15.671523628320074
 11
149.71809435637613
 21
15.671523628320074
  0
LINE
  8
_0-1_
  6
CONTINUOUS
 62
    2
 10
151.58239158560389
 20
15.671523628320074
 11
152.8823915856039
 21
15.671523628320074
  0
LINE
  8
_0-1_
  6
CONTINUOUS
 62
    2
 10
153.40577394775426
 20
15.671523628320074
 11
154.70577394775427
 21
15.671523628320074
  0
LINE
  8
_0-1_
  6
CONTINUOUS
 62
    2
 10
155.70577394775427
 20
15.671523628320074
 11
160.58514611017915
 21
15.671523628320074
  0
LINE
  8
_0-1_
  6
CONTINUOUS
 62
    2
 10
162.07338575263736
 20
15.671523628320074
 11
163.37338575263738
 21
15.671523628320074
  0
LINE
  8
_0-1_
  6
CONTINUOUS
 62
    2
 10
165.12301993798354
 20
15.671523628320074
 11
166.42011618168181
 21
15.671523628320074
  0
LINE
  8
_0-1_
  6
CONTINUOUS
 62
    2
 10
166.95214513026218
 20
15.671523628320074
 11
168.0521451302622
 21
15.671523628320074
  0
LINE
  8
_0-1_
  6
CONTINUOUS
 62
    2
 10
137.98884212616173
 20
15.871523628320062
 11
142.53621689710781
 21
15.871523628320062
  0
LINE
  8
_0-1_
  6
CONTINUOUS
 62
    2
 10
144.21042248461492
 20
15.871523628320062
 11
145.51042248461488
 21
15.871523628320062
  0
LINE
  8
_0-1_
  6
CONTINUOUS
 62
    2
 10
148.46705047909239
 20
15.871523628320062
 11
149.75294156046789
 21
15.871523628320062
  0
LINE
  8
_0-1_
  6
CONTINUOUS
 62
    2
 10
151.48913005397287
 20
15.871523628320062
 11
152.78913005397288
 21
15.871523628320062
  0
LINE
  8
_0-1_
  6
CONTINUOUS
 62
    2
 10
153.49903547938527
 20
15.871523628320062
 11
154.79903547938522
 21
15.871523628320062
  0
LINE
  8
_0-1_
  6
CONTINUOUS
 62
    2
 10
155.79903547938528
 20
15.871523628320062
 11
160.49188457854819
 21
15.871523628320062
  0
LINE
  8
_0-1_
  6
CONTINUOUS
 62
    2
 10
162.07338575263736
 20
15.871523628320062
 11
163.37338575263738
 21
15.871523628320062
  0
LINE
  8
_0-1_
  6
CONTINUOUS
 62
    2
 10
164.99804606760165
 20
15.871523628320062
 11
166.29514231129997
 21
15.871523628320062
  0
LINE
  8
_0-1_
  6
CONTINUOUS
 62
    2
 10
166.95214513026218
 20
15.871523628320062
 11
168.0521451302622
 21
15.871523628320062
  0
LINE
  8
_0-1_
  6
CONTINUOUS
 62
    2
 10
138.08210365779269
 20
16.071523628320108
 11
139.3821036577927
 21
16.071523628320108
  0
LINE
  8
_0-1_
  6
CONTINUOUS
 62
    2
 10
141.14295536547684
 20
16.071523628320108
 11
142.44295536547685
 21
16.071523628320108
  0
LINE
  8
_0-1_
  6
CONTINUOUS
 62
    2
 10
144.21042248461492
 20
16.071523628320108
 11
145.51042248461488
 21
16.071523628320108
  0
LINE
  8
_0-1_
  6
CONTINUOUS
 62
    2
 10
148.49136978556726
 20
16.071523628320108
 11
149.77974084981361
 21
16.071523628320108
  0
LINE
  8
_0-1_
  6
CONTINUOUS
 62
    2
 10
151.39586852234186
 20
16.071523628320108
 11
152.69586852234193
 21
16.071523628320108
  0
LINE
  8
_0-1_
  6
CONTINUOUS
 62
    2
 10
153.59229701101629
 20
16.071523628320108
 11
154.89229701101624
 21
16.071523628320108
  0
LINE
  8
_0-1_
  6
CONTINUOUS
 62
    2
 10
155.89229701101624
 20
16.071523628320108
 11
157.19229701101625
 21
16.071523628320108
  0
LINE
  8
_0-1_
  6
CONTINUOUS
 62
    2
 10
159.09862304691717
 20
16.071523628320108
 11
160.39862304691718
 21
16.071523628320108
  0
LINE
  8
_0-1_
  6
CONTINUOUS
 62
    2
 10
162.07338575263736
 20
16.071523628320108
 11
163.37338575263738
 21
16.071523628320108
  0
LINE
  8
_0-1_
  6
CONTINUOUS
 62
    2
 10
164.87307219721981
 20
16.071523628320108
 11
166.17016844091808
 21
16.071523628320108
  0
LINE
  8
_0-1_
  6
CONTINUOUS
 62
    2
 10
166.95214513026218
 20
16.071523628320108
 11
168.0521451302622
 21
16.071523628320108
  0
LINE
  8
_0-1_
  6
CONTINUOUS
 62
    2
 10
138.1753651894237
 20
16.27152362832021
 11
139.47536518942371
 21
16.27152362832021
  0
LINE
  8
_0-1_
  6
CONTINUOUS
 62
    2
 10
141.04969383384582
 20
16.27152362832021
 11
142.34969383384583
 21
16.27152362832021
  0
LINE
  8
_0-1_
  6
CONTINUOUS
 62
    2
 10
144.21042248461492
 20
16.27152362832021
 11
145.51042248461488
 21
16.27152362832021
  0
LINE
  8
_0-1_
  6
CONTINUOUS
 62
    2
 10
148.5043336832008
 20
16.27152362832021
 11
149.79834231857456
 21
16.27152362832021
  0
LINE
  8
_0-1_
  6
CONTINUOUS
 62
    2
 10
151.30260699071084
 20
16.27152362832021
 11
152.60260699071091
 21
16.27152362832021
  0
LINE
  8
_0-1_
  6
CONTINUOUS
 62
    2
 10
153.6855585426473
 20
16.27152362832021
 11
154.98555854264725
 21
16.27152362832021
  0
LINE
  8
_0-1_
  6
CONTINUOUS
 62
    2
 10
155.98555854264725
 20
16.27152362832021
 11
157.28555854264727
 21
16.27152362832021
  0
LINE
  8
_0-1_
  6
CONTINUOUS
 62
    2
 10
159.00536151528621
 20
16.27152362832021
 11
160.30536151528622
 21
16.27152362832021
  0
LINE
  8
_0-1_
  6
CONTINUOUS
 62
    2
 10
162.07338575263736
 20
16.27152362832021
 11
163.37338575263738
 21
16.27152362832021
  0
LINE
  8
_0-1_
  6
CONTINUOUS
 62
    2
 10
164.74809832683792
 20
16.27152362832021
 11
166.04519457053624
 21
16.27152362832021
  0
LINE
  8
_0-1_
  6
CONTINUOUS
 62
    2
 10
166.95214513026218
 20
16.27152362832021
 11
168.0521451302622
 21
16.27152362832021
  0
LINE
  8
_0-1_
  6
CONTINUOUS
 62
    2
 10
138.26862672105472
 20
16.471523628320085
 11
139.56862672105467
 21
16.471523628320085
  0
LINE
  8
_0-1_
  6
CONTINUOUS
 62
    2
 10
140.95643230221481
 20
16.471523628320085
 11
142.25643230221488
 21
16.471523628320085
  0
LINE
  8
_0-1_
  6
CONTINUOUS
 62
    2
 10
144.21042248461492
 20
16.471523628320085
 11
145.51042248461488
 21
16.471523628320085
  0
LINE
  8
_0-1_
  6
CONTINUOUS
 62
    2
 10
148.50977059802534
 20
16.471523628320085
 11
149.80865497422184
 21
16.471523628320085
  0
LINE
  8
_0-1_
  6
CONTINUOUS
 62
    2
 10
151.20934545907988
 20
16.471523628320085
 11
152.5093454590799
 21
16.471523628320085
  0
LINE
  8
_0-1_
  6
CONTINUOUS
 62
    2
 10
153.77882007427826
 20
16.471523628320085
 11
155.07882007427827
 21
16.471523628320085
  0
LINE
  8
_0-1_
  6
CONTINUOUS
 62
    2
 10
156.07882007427827
 20
16.471523628320085
 11
157.37882007427822
 21
16.471523628320085
  0
LINE
  8
_0-1_
  6
CONTINUOUS
 62
    2
 10
158.9120999836552
 20
16.471523628320085
 11
160.21209998365521
 21
16.471523628320085
  0
LINE
  8
_0-1_
  6
CONTINUOUS
 62
    2
 10
162.07338575263736
 20
16.471523628320085
 11
163.37338575263738
 21
16.471523628320085
  0
LINE
  8
_0-1_
  6
CONTINUOUS
 62
    2
 10
164.62312445645608
 20
16.471523628320085
 11
165.92022070015435
 21
16.471523628320085
  0
LINE
  8
_0-1_
  6
CONTINUOUS
 62
    2
 10
166.95214513026218
 20
16.471523628320085
 11
168.0521451302622
 21
16.471523628320085
  0
LINE
  8
_0-1_
  6
CONTINUOUS
 62
    2
 10
138.36188825268573
 20
16.671523628320131
 11
139.66188825268569
 21
16.671523628320131
  0
LINE
  8
_0-1_
  6
CONTINUOUS
 62
    2
 10
140.86317077058385
 20
16.671523628320131
 11
142.16317077058386
 21
16.671523628320131
  0
LINE
  8
_0-1_
  6
CONTINUOUS
 62
    2
 10
144.21042248461492
 20
16.671523628320131
 11
145.51042248461488
 21
16.671523628320131
  0
LINE
  8
_0-1_
  6
CONTINUOUS
 62
    2
 10
148.51000951002771
 20
16.671523628320131
 11
149.8093027547622
 21
16.671523628320131
  0
LINE
  8
_0-1_
  6
CONTINUOUS
 62
    2
 10
151.11608392744893
 20
16.671523628320131
 11
152.41608392744888
 21
16.671523628320131
  0
LINE
  8
_0-1_
  6
CONTINUOUS
 62
    2
 10
153.87208160590927
 20
16.671523628320131
 11
155.17208160590928
 21
16.671523628320131
  0
LINE
  8
_0-1_
  6
CONTINUOUS
 62
    2
 10
156.17208160590928
 20
16.671523628320131
 11
157.47208160590924
 21
16.671523628320131
  0
LINE
  8
_0-1_
  6
CONTINUOUS
 62
    2
 10
158.81883845202424
 20
16.671523628320131
 11
160.11883845202419
 21
16.671523628320131
  0
LINE
  8
_0-1_
  6
CONTINUOUS
 62
    2
 10
162.07338575263736
 20
16.671523628320131
 11
163.37338575263738
 21
16.671523628320131
  0
LINE
  8
_0-1_
  6
CONTINUOUS
 62
    2
 10
164.49815058607419
 20
16.671523628320131
 11
165.79524682977251
 21
16.671523628320131
  0
LINE
  8
_0-1_
  6
CONTINUOUS
 62
    2
 10
166.95214513026218
 20
16.671523628320131
 11
168.0521451302622
 21
16.671523628320131
  0
LINE
  8
_0-1_
  6
CONTINUOUS
 62
    2
 10
138.45514978431675
 20
16.871523628320119
 11
139.7551497843167
 21
16.871523628320119
  0
LINE
  8
_0-1_
  6
CONTINUOUS
 62
    2
 10
140.76990923895289
 20
16.871523628320119
 11
142.06990923895285
 21
16.871523628320119
  0
LINE
  8
_0-1_
  6
CONTINUOUS
 62
    2
 10
144.21042248461492
 20
16.871523628320119
 11
145.51042248461488
 21
16.871523628320119
  0
LINE
  8
_0-1_
  6
CONTINUOUS
 62
    2
 10
148.50568375214669
 20
16.871523628320119
 11
149.80072655018341
 21
16.871523628320119
  0
LINE
  8
_0-1_
  6
CONTINUOUS
 62
    2
 10
151.02282239581791
 20
16.871523628320119
 11
152.32282239581787
 21
16.871523628320119
  0
LINE
  8
_0-1_
  6
CONTINUOUS
 62
    2
 10
153.96534313754023
 20
16.871523628320119
 11
155.26534313754024
 21
16.871523628320119
  0
LINE
  8
_0-1_
  6
CONTINUOUS
 62
    2
 10
156.2653431375403
 20
16.871523628320119
 11
157.56534313754025
 21
16.871523628320119
  0
LINE
  8
_0-1_
  6
CONTINUOUS
 62
    2
 10
158.72557692039322
 20
16.871523628320119
 11
160.02557692039318
 21
16.871523628320119
  0
LINE
  8
_0-1_
  6
CONTINUOUS
 62
    2
 10
162.07338575263736
 20
16.871523628320119
 11
163.37338575263738
 21
16.871523628320119
  0
LINE
  8
_0-1_
  6
CONTINUOUS
 62
    2
 10
164.3731767156923
 20
16.871523628320119
 11
165.67027295939062
 21
16.871523628320119
  0
LINE
  8
_0-1_
  6
CONTINUOUS
 62
    2
 10
166.95214513026218
 20
16.871523628320119
 11
168.0521451302622
 21
16.871523628320119
  0
LINE
  8
_0-1_
  6
CONTINUOUS
 62
    2
 10
138.5484113159477
 20
17.071523628319994
 11
139.84841131594771
 21
17.071523628319994
  0
LINE
  8
_0-1_
  6
CONTINUOUS
 62
    2
 10
140.67664770732188
 20
17.071523628319994
 11
141.97664770732183
 21
17.071523628319994
  0
LINE
  8
_0-1_
  6
CONTINUOUS
 62
    2
 10
144.21042248461492
 20
17.071523628319994
 11
145.51042248461488
 21
17.071523628319994
  0
LINE
  8
_0-1_
  6
CONTINUOUS
 62
    2
 10
148.49516319288426
 20
17.071523628319994
 11
149.78426884456377
 21
17.071523628319994
  0
LINE
  8
_0-1_
  6
CONTINUOUS
 62
    2
 10
150.9295608641869
 20
17.071523628319994
 11
152.22956086418691
 21
17.071523628319994
  0
LINE
  8
_0-1_
  6
CONTINUOUS
 62
    2
 10
154.05860466917125
 20
17.071523628319994
 11
155.35860466917126
 21
17.071523628319994
  0
LINE
  8
_0-1_
  6
CONTINUOUS
 62
    2
 10
156.35860466917126
 20
17.071523628319994
 11
157.65860466917127
 21
17.071523628319994
  0
LINE
  8
_0-1_
  6
CONTINUOUS
 62
    2
 10
158.63231538876221
 20
17.071523628319994
 11
159.93231538876222
 21
17.071523628319994
  0
LINE
  8
_0-1_
  6
CONTINUOUS
 62
    2
 10
162.07338575263736
 20
17.071523628319994
 11
163.37338575263738
 21
17.071523628319994
  0
LINE
  8
_0-1_
  6
CONTINUOUS
 62
    2
 10
164.24820284531046
 20
17.071523628319994
 11
165.54529908900878
 21
17.071523628319994
  0
LINE
  8
_0-1_
  6
CONTINUOUS
 62
    2
 10
166.95214513026218
 20
17.071523628319994
 11
168.0521451302622
 21
17.071523628319994
  0
LINE
  8
_0-1_
  6
CONTINUOUS
 62
    2
 10
138.64167284757872
 20
17.27152362832021
 11
139.94167284757873
 21
17.27152362832021
  0
LINE
  8
_0-1_
  6
CONTINUOUS
 62
    2
 10
140.58338617569086
 20
17.27152362832021
 11
141.88338617569082
 21
17.27152362832021
  0
LINE
  8
_0-1_
  6
CONTINUOUS
 62
    2
 10
144.21042248461492
 20
17.27152362832021
 11
145.51042248461488
 21
17.27152362832021
  0
LINE
  8
_0-1_
  6
CONTINUOUS
 62
    2
 10
148.47472837038407
 20
17.27152362832021
 11
149.75955584197482
 21
17.27152362832021
  0
LINE
  8
_0-1_
  6
CONTINUOUS
 62
    2
 10
150.83629933255588
 20
17.27152362832021
 11
152.13629933255589
 21
17.27152362832021
  0
LINE
  8
_0-1_
  6
CONTINUOUS
 62
    2
 10
154.15186620080226
 20
17.27152362832021
 11
155.45186620080227
 21
17.27152362832021
  0
LINE
  8
_0-1_
  6
CONTINUOUS
 62
    2
 10
156.45186620080227
 20
17.27152362832021
 11
157.75186620080228
 21
17.27152362832021
  0
LINE
  8
_0-1_
  6
CONTINUOUS
 62
    2
 10
158.53905385713119
 20
17.27152362832021
 11
159.8390538571312
 21
17.27152362832021
  0
LINE
  8
_0-1_
  6
CONTINUOUS
 62
    2
 10
162.07338575263736
 20
17.27152362832021
 11
163.37338575263738
 21
17.27152362832021
  0
LINE
  8
_0-1_
  6
CONTINUOUS
 62
    2
 10
164.12322897492862
 20
17.27152362832021
 11
165.42032521862689
 21
17.27152362832021
  0
LINE
  8
_0-1_
  6
CONTINUOUS
 62
    2
 10
166.95214513026218
 20
17.27152362832021
 11
168.0521451302622
 21
17.27152362832021
  0
LINE
  8
_0-1_
  6
CONTINUOUS
 62
    2
 10
138.73493437920968
 20
17.471523628320085
 11
140.03493437920974
 21
17.471523628320085
  0
LINE
  8
_0-1_
  6
CONTINUOUS
 62
    2
 10
140.49012464405985
 20
17.471523628320085
 11
141.79012464405986
 21
17.471523628320085
  0
LINE
  8
_0-1_
  6
CONTINUOUS
 62
    2
 10
144.21042248461492
 20
17.471523628320085
 11
145.51042248461488
 21
17.471523628320085
  0
LINE
  8
_0-1_
  6
CONTINUOUS
 62
    2
 10
148.43918052930235
 20
17.471523628320085
 11
149.72674353064679
 21
17.471523628320085
  0
LINE
  8
_0-1_
  6
CONTINUOUS
 62
    2
 10
150.74303780092487
 20
17.471523628320085
 11
152.04303780092488
 21
17.471523628320085
  0
LINE
  8
_0-1_
  6
CONTINUOUS
 62
    2
 10
154.24512773243328
 20
17.471523628320085
 11
155.54512773243323
 21
17.471523628320085
  0
LINE
  8
_0-1_
  6
CONTINUOUS
 62
    2
 10
156.54512773243323
 20
17.471523628320085
 11
157.8451277324333
 21
17.471523628320085
  0
LINE
  8
_0-1_
  6
CONTINUOUS
 62
    2
 10
158.44579232550018
 20
17.471523628320085
 11
159.74579232550019
 21
17.471523628320085
  0
LINE
  8
_0-1_
  6
CONTINUOUS
 62
    2
 10
162.07338575263736
 20
17.471523628320085
 11
163.37338575263738
 21
17.471523628320085
  0
LINE
  8
_0-1_
  6
CONTINUOUS
 62
    2
 10
163.99825510454673
 20
17.471523628320085
 11
165.29535134824505
 21
17.471523628320085
  0
LINE
  8
_0-1_
  6
CONTINUOUS
 62
    2
 10
166.95214513026218
 20
17.471523628320085
 11
168.0521451302622
 21
17.471523628320085
  0
LINE
  8
_0-1_
  6
CONTINUOUS
 62
    2
 10
138.82819591084069
 20
17.671523628320131
 11
140.12819591084076
 21
17.671523628320131
  0
LINE
  8
_0-1_
  6
CONTINUOUS
 62
    2
 10
140.39686311242883
 20
17.671523628320131
 11
141.69686311242884
 21
17.671523628320131
  0
LINE
  8
_0-1_
  6
CONTINUOUS
 62
    2
 10
144.21042248461492
 20
17.671523628320131
 11
145.51042248461488
 21
17.671523628320131
  0
LINE
  8
_0-1_
  6
CONTINUOUS
 62
    2
 10
148.37911436717388
 20
17.671523628320131
 11
149.68596253780623
 21
17.671523628320131
  0
LINE
  8
_0-1_
  6
CONTINUOUS
 62
    2
 10
150.64977626929385
 20
17.671523628320131
 11
151.94977626929392
 21
17.671523628320131
  0
LINE
  8
_0-1_
  6
CONTINUOUS
 62
    2
 10
154.33838926406429
 20
17.671523628320131
 11
155.63838926406424
 21
17.671523628320131
  0
LINE
  8
_0-1_
  6
CONTINUOUS
 62
    2
 10
156.63838926406424
 20
17.671523628320131
 11
157.93838926406426
 21
17.671523628320131
  0
LINE
  8
_0-1_
  6
CONTINUOUS
 62
    2
 10
158.35253079386916
 20
17.671523628320131
 11
159.65253079386918
 21
17.671523628320131
  0
LINE
  8
_0-1_
  6
CONTINUOUS
 62
    2
 10
162.07338575263736
 20
17.671523628320131
 11
163.37338575263738
 21
17.671523628320131
  0
LINE
  8
_0-1_
  6
CONTINUOUS
 62
    2
 10
163.87328123416484
 20
17.671523628320131
 11
165.17037747786316
 21
17.671523628320131
  0
LINE
  8
_0-1_
  6
CONTINUOUS
 62
    2
 10
166.95214513026218
 20
17.671523628320131
 11
168.0521451302622
 21
17.671523628320131
  0
LINE
  8
_0-1_
  6
CONTINUOUS
 62
    2
 10
138.92145744247171
 20
17.871523628320119
 11
140.22145744247172
 21
17.871523628320119
  0
LINE
  8
_0-1_
  6
CONTINUOUS
 62
    2
 10
140.30360158079782
 20
17.871523628320119
 11
141.60360158079789
 21
17.871523628320119
  0
LINE
  8
_0-1_
  6
CONTINUOUS
 62
    2
 10
144.21042248461492
 20
17.871523628320119
 11
145.51042248461488
 21
17.871523628320119
  0
LINE
  8
_0-1_
  6
CONTINUOUS
 62
    2
 10
148.28128373486419
 20
17.871523628320119
 11
149.63757361115216
 21
17.871523628320119
  0
LINE
  8
_0-1_
  6
CONTINUOUS
 62
    2
 10
150.55651473766289
 20
17.871523628320119
 11
151.85651473766291
 21
17.871523628320119
  0
LINE
  8
_0-1_
  6
CONTINUOUS
 62
    2
 10
154.43165079569525
 20
17.871523628320119
 11
155.73165079569526
 21
17.871523628320119
  0
LINE
  8
_0-1_
  6
CONTINUOUS
 62
    2
 10
156.73165079569526
 20
17.871523628320119
 11
158.03165079569521
 21
17.871523628320119
  0
LINE
  8
_0-1_
  6
CONTINUOUS
 62
    2
 10
158.25926926223821
 20
17.871523628320119
 11
159.55926926223822
 21
17.871523628320119
  0
LINE
  8
_0-1_
  6
CONTINUOUS
 62
    2
 10
162.07338575263736
 20
17.871523628320119
 11
163.37338575263738
 21
17.871523628320119
  0
LINE
  8
_0-1_
  6
CONTINUOUS
 62
    2
 10
163.748307363783
 20
17.871523628320119
 11
165.04540360748132
 21
17.871523628320119
  0
LINE
  8
_0-1_
  6
CONTINUOUS
 62
    2
 10
166.95214513026218
 20
17.871523628320119
 11
168.0521451302622
 21
17.871523628320119
  0
LINE
  8
_0-1_
  6
CONTINUOUS
 62
    2
 10
139.01471897410272
 20
18.071523628319994
 11
141.51034004916687
 21
18.071523628319994
  0
LINE
  8
_0-1_
  6
CONTINUOUS
 62
    2
 10
144.21042248461492
 20
18.071523628319994
 11
145.51042248461488
 21
18.071523628319994
  0
LINE
  8
_0-1_
  6
CONTINUOUS
 62
    2
 10
148.11515556765954
 20
18.071523628319994
 11
149.58054456886697
 21
18.071523628319994
  0
LINE
  8
_0-1_
  6
CONTINUOUS
 62
    2
 10
150.46325320603188
 20
18.071523628319994
 11
151.76325320603189
 21
18.071523628319994
  0
LINE
  8
_0-1_
  6
CONTINUOUS
 62
    2
 10
154.52491232732626
 20
18.071523628319994
 11
155.82491232732627
 21
18.071523628319994
  0
LINE
  8
_0-1_
  6
CONTINUOUS
 62
    2
 10
156.82491232732627
 20
18.071523628319994
 11
158.12491232732623
 21
18.071523628319994
  0
LINE
  8
_0-1_
  6
CONTINUOUS
 62
    2
 10
158.16600773060719
 20
18.071523628319994
 11
159.4660077306072
 21
18.071523628319994
  0
LINE
  8
_0-1_
  6
CONTINUOUS
 62
    2
 10
162.07338575263736
 20
18.071523628319994
 11
163.37338575263738
 21
18.071523628319994
  0
LINE
  8
_0-1_
  6
CONTINUOUS
 62
    2
 10
163.62333349340111
 20
18.071523628319994
 11
164.92042973709943
 21
18.071523628319994
  0
LINE
  8
_0-1_
  6
CONTINUOUS
 62
    2
 10
166.95214513026218
 20
18.071523628319994
 11
168.0521451302622
 21
18.071523628319994
  0
LINE
  8
_0-1_
  6
CONTINUOUS
 62
    2
 10
139.10798050573374
 20
18.271523628320153
 11
141.41707851753586
 21
18.271523628320153
  0
LINE
  8
_0-1_
  6
CONTINUOUS
 62
    2
 10
144.21042248461492
 20
18.271523628320153
 11
145.51042248461488
 21
18.271523628320153
  0
LINE
  8
_0-1_
  6
CONTINUOUS
 62
    2
 10
147.85577503336333
 20
18.271523628320153
 11
149.51001808463144
 21
18.271523628320153
  0
LINE
  8
_0-1_
  6
CONTINUOUS
 62
    2
 10
150.36999167440092
 20
18.271523628320153
 11
151.66999167440088
 21
18.271523628320153
  0
LINE
  8
_0-1_
  6
CONTINUOUS
 62
    2
 10
154.61817385895728
 20
18.271523628320153
 11
155.91817385895729
 21
18.271523628320153
  0
LINE
  8
_0-1_
  6
CONTINUOUS
 62
    2
 10
156.91817385895729
 20
18.271523628320153
 11
159.37274619897619
 21
18.271523628320153
  0
LINE
  8
_0-1_
  6
CONTINUOUS
 62
    2
 10
162.07338575263736
 20
18.271523628320153
 11
163.37338575263738
 21
18.271523628320153
  0
LINE
  8
_0-1_
  6
CONTINUOUS
 62
    2
 10
163.49835962301927
 20
18.271523628320153
 11
164.79545586671759
 21
18.271523628320153
  0
LINE
  8
_0-1_
  6
CONTINUOUS
 62
    2
 10
166.95214513026218
 20
18.271523628320153
 11
168.0521451302622
 21
18.271523628320153
  0
LINE
  8
_0-1_
  6
CONTINUOUS
 62
    2
 10
139.20124203736475
 20
18.471523628320085
 11
141.32381698590484
 21
18.471523628320085
  0
LINE
  8
_0-1_
  6
CONTINUOUS
 62
    2
 10
144.21042248461492
 20
18.471523628320085
 11
145.51042248461488
 21
18.471523628320085
  0
LINE
  8
_0-1_
  6
CONTINUOUS
 62
    2
 10
147.51042248461488
 20
18.471523628320085
 11
149.41042248461486
 21
18.471523628320085
  0
LINE
  8
_0-1_
  6
CONTINUOUS
 62
    2
 10
150.27673014276991
 20
18.471523628320085
 11
151.57673014276986
 21
18.471523628320085
  0
LINE
  8
_0-1_
  6
CONTINUOUS
 62
    2
 10
154.71143539058824
 20
18.471523628320085
 11
156.01143539058825
 21
18.471523628320085
  0
LINE
  8
_0-1_
  6
CONTINUOUS
 62
    2
 10
157.01143539058825
 20
18.471523628320085
 11
159.27948466734517
 21
18.471523628320085
  0
LINE
  8
_0-1_
  6
CONTINUOUS
 62
    2
 10
162.07338575263736
 20
18.471523628320085
 11
163.37338575263738
 21
18.471523628320085
  0
LINE
  8
_0-1_
  6
CONTINUOUS
 62
    2
 10
163.37338575263738
 20
18.471523628320085
 11
164.6704819963357
 21
18.471523628320085
  0
LINE
  8
_0-1_
  6
CONTINUOUS
 62
    2
 10
166.95214513026218
 20
18.471523628320085
 11
168.0521451302622
 21
18.471523628320085
  0
LINE
  8
_0-1_
  6
CONTINUOUS
 62
    2
 10
139.29450356899571
 20
18.671523628320131
 11
141.23055545427383
 21
18.671523628320131
  0
LINE
  8
_0-1_
  6
CONTINUOUS
 62
    2
 10
144.21042248461492
 20
18.671523628320131
 11
149.25143581382969
 21
18.671523628320131
  0
LINE
  8
_0-1_
  6
CONTINUOUS
 62
    2
 10
150.18346861113889
 20
18.671523628320131
 11
151.4834686111389
 21
18.671523628320131
  0
LINE
  8
_0-1_
  6
CONTINUOUS
 62
    2
 10
154.80469692221925
 20
18.671523628320131
 11
156.10469692221926
 21
18.671523628320131
  0
LINE
  8
_0-1_
  6
CONTINUOUS
 62
    2
 10
157.10469692221926
 20
18.671523628320131
 11
159.18622313571416
 21
18.671523628320131
  0
LINE
  8
_0-1_
  6
CONTINUOUS
 62
    2
 10
162.07338575263736
 20
18.671523628320131
 11
164.54550812595386
 21
18.671523628320131
  0
LINE
  8
_0-1_
  6
CONTINUOUS
 62
    2
 10
166.95214513026218
 20
18.671523628320131
 11
168.0521451302622
 21
18.671523628320131
  0
LINE
  8
_0-1_
  6
CONTINUOUS
 62
    2
 10
139.38776510062672
 20
18.871523628320062
 11
141.13729392264281
 21
18.871523628320062
  0
LINE
  8
_0-1_
  6
CONTINUOUS
 62
    2
 10
144.21042248461492
 20
18.871523628320062
 11
149.02700912722128
 21
18.871523628320062
  0
LINE
  8
_0-1_
  6
CONTINUOUS
 62
    2
 10
150.09020707950788
 20
18.871523628320062
 11
151.39020707950789
 21
18.871523628320062
  0
LINE
  8
_0-1_
  6
CONTINUOUS
 62
    2
 10
154.89795845385026
 20
18.871523628320062
 11
156.19795845385028
 21
18.871523628320062
  0
LINE
  8
_0-1_
  6
CONTINUOUS
 62
    2
 10
157.19795845385028
 20
18.871523628320062
 11
159.0929616040832
 21
18.871523628320062
  0
LINE
  8
_0-1_
  6
CONTINUOUS
 62
    2
 10
162.07338575263736
 20
18.871523628320062
 11
164.42053425557197
 21
18.871523628320062
  0
LINE
  8
_0-1_
  6
CONTINUOUS
 62
    2
 10
166.95214513026218
 20
18.871523628320062
 11
168.0521451302622
 21
18.871523628320062
  0
LINE
  8
_0-1_
  6
CONTINUOUS
 62
    2
 10
139.48102663225768
 20
19.071523628319994
 11
141.04403239101185
 21
19.071523628319994
  0
LINE
  8
_0-1_
  6
CONTINUOUS
 62
    2
 10
144.21042248461492
 20
19.071523628319994
 11
148.69322929058831
 21
19.071523628319994
  0
LINE
  8
_0-1_
  6
CONTINUOUS
 62
    2
 10
149.99694554787686
 20
19.071523628319994
 11
151.29694554787693
 21
19.071523628319994
  0
LINE
  8
_0-1_
  6
CONTINUOUS
 62
    2
 10
154.99121998548128
 20
19.071523628319994
 11
156.29121998548123
 21
19.071523628319994
  0
LINE
  8
_0-1_
  6
CONTINUOUS
 62
    2
 10
157.29121998548123
 20
19.071523628319994
 11
158.99970007245219
 21
19.071523628319994
  0
LINE
  8
_0-1_
  6
CONTINUOUS
 62
    2
 10
162.07338575263736
 20
19.071523628319994
 11
164.29556038519013
 21
19.071523628319994
  0
LINE
  8
_0-1_
  6
CONTINUOUS
 62
    2
 10
166.95214513026218
 20
19.071523628319994
 11
168.0521451302622
 21
19.071523628319994
  0
LINE
  8
_0-1_
  6
CONTINUOUS
 62
    2
 10
139.5742881638887
 20
19.271523628320097
 11
140.95077085938084
 21
19.271523628320097
  0
LINE
  8
_0-1_
  6
CONTINUOUS
 62
    2
 10
144.21042248461492
 20
19.271523628320097
 11
148.21042248461492
 21
19.271523628320097
  0
LINE
  8
_0-1_
  6
CONTINUOUS
 62
    2
 10
149.9036840162459
 20
19.271523628320097
 11
151.20368401624592
 21
19.271523628320097
  0
LINE
  8
_0-1_
  6
CONTINUOUS
 62
    2
 10
155.08448151711229
 20
19.271523628320097
 11
156.38448151711225
 21
19.271523628320097
  0
LINE
  8
_0-1_
  6
CONTINUOUS
 62
    2
 10
157.38448151711225
 20
19.271523628320097
 11
158.90643854082123
 21
19.271523628320097
  0
LINE
  8
_0-1_
  6
CONTINUOUS
 62
    2
 10
162.07338575263736
 20
19.271523628320097
 11
164.17058651480824
 21
19.271523628320097
  0
LINE
  8
_0-1_
  6
CONTINUOUS
 62
    2
 10
166.95214513026218
 20
19.271523628320097
 11
168.0521451302622
 21
19.271523628320097
  0
LINE
  8
_0-1_
  6
CONTINUOUS
 62
    2
 10
139.66754969551971
 20
19.471523628320085
 11
140.85750932774988
 21
19.471523628320085
  0
LINE
  8
_0-1_
  6
CONTINUOUS
 62
    2
 10
144.21042248461492
 20
19.471523628320085
 11
147.51042248461488
 21
19.471523628320085
  0
LINE
  8
_0-1_
  6
CONTINUOUS
 62
    2
 10
149.81042248461489
 20
19.471523628320085
 11
151.1104224846149
 21
19.471523628320085
  0
LINE
  8
_0-1_
  6
CONTINUOUS
 62
    2
 10
155.17774304874325
 20
19.471523628320085
 11
156.47774304874326
 21
19.471523628320085
  0
LINE
  8
_0-1_
  6
CONTINUOUS
 62
    2
 10
157.47774304874326
 20
19.471523628320085
 11
158.81317700919021
 21
19.471523628320085
  0
LINE
  8
_0-1_
  6
CONTINUOUS
 62
    2
 10
162.07338575263736
 20
19.471523628320085
 11
164.0456126444264
 21
19.471523628320085
  0
LINE
  8
_0-1_
  6
CONTINUOUS
 62
    2
 10
166.95214513026218
 20
19.471523628320085
 11
168.0521451302622
 21
19.471523628320085
  0
LINE
  8
_0-1_
  6
CONTINUOUS
 62
    2
 10
137.00959604403624
 20
13.771523628320153
 11
138.3095960440362
 21
13.771523628320153
  0
LINE
  8
_0-1_
  6
CONTINUOUS
 62
    2
 10
142.21546297923334
 20
13.771523628320153
 11
143.51546297923335
 21
13.771523628320153
  0
LINE
  8
_0-1_
  6
CONTINUOUS
 62
    2
 10
144.21042248461492
 20
13.771523628320153
 11
147.72114975209462
 21
13.771523628320153
  0
LINE
  8
_0-1_
  6
CONTINUOUS
 62
    2
 10
152.46837613609841
 20
13.771523628320153
 11
153.8197893972598
 21
13.771523628320153
  0
LINE
  8
_0-1_
  6
CONTINUOUS
 62
    2
 10
154.8197893972598
 20
13.771523628320153
 11
156.11978939725975
 21
13.771523628320153
  0
LINE
  8
_0-1_
  6
CONTINUOUS
 62
    2
 10
160.17113066067373
 20
13.771523628320153
 11
161.47113066067368
 21
13.771523628320153
  0
LINE
  8
_0-1_
  6
CONTINUOUS
 62
    2
 10
162.07338575263736
 20
13.771523628320153
 11
163.37338575263738
 21
13.771523628320153
  0
LINE
  8
_0-1_
  6
CONTINUOUS
 62
    2
 10
166.31027170661122
 20
13.771523628320153
 11
168.0521451302622
 21
13.771523628320153
  0
LINE
  8
_0-1_
  6
CONTINUOUS
 62
    2
 10
137.1028575756672
 20
13.971523628320085
 11
138.40285757566721
 21
13.971523628320085
  0
LINE
  8
_0-1_
  6
CONTINUOUS
 62
    2
 10
142.12220144760238
 20
13.971523628320085
 11
143.42220144760233
 21
13.971523628320085
  0
LINE
  8
_0-1_
  6
CONTINUOUS
 62
    2
 10
144.21042248461492
 20
13.971523628320085
 11
148.36298513453232
 21
13.971523628320085
  0
LINE
  8
_0-1_
  6
CONTINUOUS
 62
    2
 10
152.3751146044674
 20
13.971523628320085
 11
153.91305092889075
 21
13.971523628320085
  0
LINE
  8
_0-1_
  6
CONTINUOUS
 62
    2
 10
154.91305092889075
 20
13.971523628320085
 11
156.21305092889077
 21
13.971523628320085
  0
LINE
  8
_0-1_
  6
CONTINUOUS
 62
    2
 10
160.07786912904271
 20
13.971523628320085
 11
161.37786912904267
 21
13.971523628320085
  0
LINE
  8
_0-1_
  6
CONTINUOUS
 62
    2
 10
162.07338575263736
 20
13.971523628320085
 11
163.37338575263738
 21
13.971523628320085
  0
LINE
  8
_0-1_
  6
CONTINUOUS
 62
    2
 10
166.18529783622938
 20
13.971523628320085
 11
168.0521451302622
 21
13.971523628320085
  0
LINE
  8
_0-1_
  6
CONTINUOUS
 62
    2
 10
137.19611910729822
 20
14.171523628320074
 11
138.49611910729823
 21
14.171523628320074
  0
LINE
  8
_0-1_
  6
CONTINUOUS
 62
    2
 10
142.02893991597136
 20
14.171523628320074
 11
143.32893991597132
 21
14.171523628320074
  0
LINE
  8
_0-1_
  6
CONTINUOUS
 62
    2
 10
144.21042248461492
 20
14.171523628320074
 11
148.80179526613483
 21
14.171523628320074
  0
LINE
  8
_0-1_
  6
CONTINUOUS
 62
    2
 10
152.28185307283638
 20
14.171523628320074
 11
154.00631246052177
 21
14.171523628320074
  0
LINE
  8
_0-1_
  6
CONTINUOUS
 62
    2
 10
155.00631246052177
 20
14.171523628320074
 11
156.30631246052178
 21
14.171523628320074
  0
LINE
  8
_0-1_
  6
CONTINUOUS
 62
    2
 10
159.9846075974117
 20
14.171523628320074
 11
161.28460759741165
 21
14.171523628320074
  0
LINE
  8
_0-1_
  6
CONTINUOUS
 62
    2
 10
162.07338575263736
 20
14.171523628320074
 11
163.37338575263738
 21
14.171523628320074
  0
LINE
  8
_0-1_
  6
CONTINUOUS
 62
    2
 10
166.06032396584749
 20
14.171523628320074
 11
168.0521451302622
 21
14.171523628320074
  0
LINE
  8
_0-1_
  6
CONTINUOUS
 62
    2
 10
137.28938063892923
 20
14.371523628320062
 11
138.58938063892924
 21
14.371523628320062
  0
LINE
  8
_0-1_
  6
CONTINUOUS
 62
    2
 10
141.93567838434035
 20
14.371523628320062
 11
143.23567838434036
 21
14.371523628320062
  0
LINE
  8
_0-1_
  6
CONTINUOUS
 62
    2
 10
144.21042248461492
 20
14.371523628320062
 11
149.09608907310195
 21
14.371523628320062
  0
LINE
  8
_0-1_
  6
CONTINUOUS
 62
    2
 10
152.18859154120537
 20
14.371523628320062
 11
154.09957399215273
 21
14.371523628320062
  0
LINE
  8
_0-1_
  6
CONTINUOUS
 62
    2
 10
155.09957399215273
 20
14.371523628320062
 11
156.3995739921528
 21
14.371523628320062
  0
LINE
  8
_0-1_
  6
CONTINUOUS
 62
    2
 10
159.89134606578068
 20
14.371523628320062
 11
161.19134606578069
 21
14.371523628320062
  0
LINE
  8
_0-1_
  6
CONTINUOUS
 62
    2
 10
162.07338575263736
 20
14.371523628320062
 11
163.37338575263738
 21
14.371523628320062
  0
LINE
  8
_0-1_
  6
CONTINUOUS
 62
    2
 10
165.93535009546565
 20
14.371523628320062
 11
168.0521451302622
 21
14.371523628320062
  0
LINE
  8
_0-1_
  6
CONTINUOUS
 62
    2
 10
137.38264217056019
 20
14.571523628320108
 11
138.6826421705602
 21
14.571523628320108
  0
LINE
  8
_0-1_
  6
CONTINUOUS
 62
    2
 10
141.84241685270933
 20
14.571523628320108
 11
143.14241685270935
 21
14.571523628320108
  0
LINE
  8
_0-1_
  6
CONTINUOUS
 62
    2
 10
144.21042248461492
 20
14.571523628320108
 11
149.30232478807648
 21
14.571523628320108
  0
LINE
  8
_0-1_
  6
CONTINUOUS
 62
    2
 10
152.09533000957435
 20
14.571523628320108
 11
154.19283552378374
 21
14.571523628320108
  0
LINE
  8
_0-1_
  6
CONTINUOUS
 62
    2
 10
155.19283552378374
 20
14.571523628320108
 11
156.49283552378375
 21
14.571523628320108
  0
LINE
  8
_0-1_
  6
CONTINUOUS
 62
    2
 10
159.79808453414967
 20
14.571523628320108
 11
161.09808453414968
 21
14.571523628320108
  0
LINE
  8
_0-1_
  6
CONTINUOUS
 62
    2
 10
162.07338575263736
 20
14.571523628320108
 11
163.37338575263738
 21
14.571523628320108
  0
LINE
  8
_0-1_
  6
CONTINUOUS
 62
    2
 10
165.81037622508381
 20
14.571523628320108
 11
168.0521451302622
 21
14.571523628320108
  0
LINE
  8
_0-1_
  6
CONTINUOUS
 62
    2
 10
137.4759037021912
 20
14.771523628320097
 11
138.77590370219121
 21
14.771523628320097
  0
LINE
  8
_0-1_
  6
CONTINUOUS
 62
    2
 10
141.74915532107832
 20
14.771523628320097
 11
143.04915532107833
 21
14.771523628320097
  0
LINE
  8
_0-1_
  6
CONTINUOUS
 62
    2
 10
144.21042248461492
 20
14.771523628320097
 11
145.51042248461488
 21
14.771523628320097
  0
LINE
  8
_0-1_
  6
CONTINUOUS
 62
    2
 10
147.61026730244896
 20
14.771523628320097
 11
149.4416031899741
 21
14.771523628320097
  0
LINE
  8
_0-1_
  6
CONTINUOUS
 62
    2
 10
152.00206847794334
 20
14.771523628320097
 11
154.28609705541476
 21
14.771523628320097
  0
LINE
  8
_0-1_
  6
CONTINUOUS
 62
    2
 10
155.28609705541476
 20
14.771523628320097
 11
156.58609705541477
 21
14.771523628320097
  0
LINE
  8
_0-1_
  6
CONTINUOUS
 62
    2
 10
159.70482300251865
 20
14.771523628320097
 11
161.00482300251872
 21
14.771523628320097
  0
LINE
  8
_0-1_
  6
CONTINUOUS
 62
    2
 10
162.07338575263736
 20
14.771523628320097
 11
163.37338575263738
 21
14.771523628320097
  0
LINE
  8
_0-1_
  6
CONTINUOUS
 62
    2
 10
165.68540235470192
 20
14.771523628320097
 11
168.0521451302622
 21
14.771523628320097
  0
LINE
  8
_0-1_
  6
CONTINUOUS
 62
    2
 10
137.56916523382222
 20
14.971523628320142
 11
138.86916523382223
 21
14.971523628320142
  0
LINE
  8
_0-1_
  6
CONTINUOUS
 62
    2
 10
141.65589378944736
 20
14.971523628320142
 11
142.95589378944737
 21
14.971523628320142
  0
LINE
  8
_0-1_
  6
CONTINUOUS
 62
    2
 10
144.21042248461492
 20
14.971523628320142
 11
145.51042248461488
 21
14.971523628320142
  0
LINE
  8
_0-1_
  6
CONTINUOUS
 62
    2
 10
147.93810109712132
 20
14.971523628320142
 11
149.53117900150642
 21
14.971523628320142
  0
LINE
  8
_0-1_
  6
CONTINUOUS
 62
    2
 10
151.90880694631238
 20
14.971523628320142
 11
154.37935858704577
 21
14.971523628320142
  0
LINE
  8
_0-1_
  6
CONTINUOUS
 62
    2
 10
155.37935858704577
 20
14.971523628320142
 11
156.67935858704573
 21
14.971523628320142
  0
LINE
  8
_0-1_
  6
CONTINUOUS
 62
    2
 10
159.61156147088769
 20
14.971523628320142
 11
160.9115614708877
 21
14.971523628320142
  0
LINE
  8
_0-1_
  6
CONTINUOUS
 62
    2
 10
162.07338575263736
 20
14.971523628320142
 11
163.37338575263738
 21
14.971523628320142
  0
LINE
  8
_0-1_
  6
CONTINUOUS
 62
    2
 10
165.56042848432003
 20
14.971523628320142
 11
166.85752472801835
 21
14.971523628320142
  0
LINE
  8
_0-1_
  6
CONTINUOUS
 62
    2
 10
166.95214513026218
 20
14.971523628320142
 11
168.0521451302622
 21
14.971523628320142
  0
LINE
  8
_0-1_
  6
CONTINUOUS
 62
    2
 10
137.66242676545323
 20
15.171523628320074
 11
142.86263225781636
 21
15.171523628320074
  0
LINE
  8
_0-1_
  6
CONTINUOUS
 62
    2
 10
144.21042248461492
 20
15.171523628320074
 11
145.51042248461488
 21
15.171523628320074
  0
LINE
  8
_0-1_
  6
CONTINUOUS
 62
    2
 10
148.17113767318318
 20
15.171523628320074
 11
149.59743757227113
 21
15.171523628320074
  0
LINE
  8
_0-1_
  6
CONTINUOUS
 62
    2
 10
151.81554541468137
 20
15.171523628320074
 11
153.11554541468138
 21
15.171523628320074
  0
LINE
  8
_0-1_
  6
CONTINUOUS
 62
    2
 10
153.17262011867678
 20
15.171523628320074
 11
154.47262011867679
 21
15.171523628320074
  0
LINE
  8
_0-1_
  6
CONTINUOUS
 62
    2
 10
155.47262011867679
 20
15.171523628320074
 11
160.81829993925669
 21
15.171523628320074
  0
LINE
  8
_0-1_
  6
CONTINUOUS
 62
    2
 10
162.07338575263736
 20
15.171523628320074
 11
163.37338575263738
 21
15.171523628320074
  0
LINE
  8
_0-1_
  6
CONTINUOUS
 62
    2
 10
165.43545461393819
 20
15.171523628320074
 11
166.73255085763645
 21
15.171523628320074
  0
LINE
  8
_0-1_
  6
CONTINUOUS
 62
    2
 10
166.95214513026218
 20
15.171523628320074
 11
168.0521451302622
 21
15.171523628320074
  0
LINE
  8
_0-1_
  6
CONTINUOUS
 62
    2
 10
137.75568829708425
 20
15.371523628320062
 11
142.76937072618534
 21
15.371523628320062
  0
LINE
  8
_0-1_
  6
CONTINUOUS
 62
    2
 10
144.21042248461492
 20
15.371523628320062
 11
145.51042248461488
 21
15.371523628320062
  0
LINE
  8
_0-1_
  6
CONTINUOUS
 62
    2
 10
148.3087170576548
 20
15.371523628320062
 11
149.65161543166164
 21
15.371523628320062
  0
LINE
  8
_0-1_
  6
CONTINUOUS
 62
    2
 10
151.72228388305041
 20
15.371523628320062
 11
153.02228388305036
 21
15.371523628320062
  0
LINE
  8
_0-1_
  6
CONTINUOUS
 62
    2
 10
153.26588165030773
 20
15.371523628320062
 11
154.56588165030774
 21
15.371523628320062
  0
LINE
  8
_0-1_
  6
CONTINUOUS
 62
    2
 10
155.5658816503078
 20
15.371523628320062
 11
160.72503840762568
 21
15.371523628320062
  0
LINE
  8
_0-1_
  6
CONTINUOUS
 62
    2
 10
162.07338575263736
 20
15.371523628320062
 11
163.37338575263738
 21
15.371523628320062
  0
LINE
  8
_0-1_
  6
CONTINUOUS
 62
    2
 10
165.3104807435563
 20
15.371523628320062
 11
166.60757698725462
 21
15.371523628320062
  0
LINE
  8
_0-1_
  6
CONTINUOUS
 62
    2
 10
166.95214513026218
 20
15.371523628320062
 11
168.0521451302622
 21
15.371523628320062
  0
LINE
  8
_0-1_
  6
CONTINUOUS
 62
    2
 10
137.84894982871521
 20
15.571523628320108
 11
142.67610919455433
 21
15.571523628320108
  0
LINE
  8
_0-1_
  6
CONTINUOUS
 62
    2
 10
144.21042248461492
 20
15.571523628320108
 11
145.51042248461488
 21
15.571523628320108
  0
LINE
  8
_0-1_
  6
CONTINUOUS
 62
    2
 10
148.39567101827356
 20
15.571523628320108
 11
149.69881912156302
 21
15.571523628320108
  0
LINE
  8
_0-1_
  6
CONTINUOUS
 62
    2
 10
151.62902235141939
 20
15.571523628320108
 11
152.92902235141935
 21
15.571523628320108
  0
LINE
  8
_0-1_
  6
CONTINUOUS
 62
    2
 10
153.35914318193875
 20
15.571523628320108
 11
154.65914318193876
 21
15.571523628320108
  0
LINE
  8
_0-1_
  6
CONTINUOUS
 62
    2
 10
155.65914318193876
 20
15.571523628320108
 11
160.63177687599466
 21
15.571523628320108
  0
LINE
  8
_0-1_
  6
CONTINUOUS
 62
    2
 10
162.07338575263736
 20
15.571523628320108
 11
163.37338575263738
 21
15.571523628320108
  0
LINE
  8
_0-1_
  6
CONTINUOUS
 62
    2
 10
165.18550687317446
 20
15.571523628320108
 11
166.48260311687278
 21
15.571523628320108
  0
LINE
  8
_0-1_
  6
CONTINUOUS
 62
    2
 10
166.95214513026218
 20
15.571523628320108
 11
168.0521451302622
 21
15.571523628320108
  0
LINE
  8
_0-1_
  6
CONTINUOUS
 62
    2
 10
137.94221136034622
 20
15.771523628320153
 11
142.58284766292331
 21
15.771523628320153
  0
LINE
  8
_0-1_
  6
CONTINUOUS
 62
    2
 10
144.21042248461492
 20
15.771523628320153
 11
145.51042248461488
 21
15.771523628320153
  0
LINE
  8
_0-1_
  6
CONTINUOUS
 62
    2
 10
148.44993981015614
 20
15.771523628320153
 11
149.73736959118929
 21
15.771523628320153
  0
LINE
  8
_0-1_
  6
CONTINUOUS
 62
    2
 10
151.53576081978838
 20
15.771523628320153
 11
152.83576081978839
 21
15.771523628320153
  0
LINE
  8
_0-1_
  6
CONTINUOUS
 62
    2
 10
153.45240471356976
 20
15.771523628320153
 11
154.75240471356977
 21
15.771523628320153
  0
LINE
  8
_0-1_
  6
CONTINUOUS
 62
    2
 10
155.75240471356977
 20
15.771523628320153
 11
160.53851534436365
 21
15.771523628320153
  0
LINE
  8
_0-1_
  6
CONTINUOUS
 62
    2
 10
162.07338575263736
 20
15.771523628320153
 11
163.37338575263738
 21
15.771523628320153
  0
LINE
  8
_0-1_
  6
CONTINUOUS
 62
    2
 10
165.06053300279257
 20
15.771523628320153
 11
166.35762924649089
 21
15.771523628320153
  0
LINE
  8
_0-1_
  6
CONTINUOUS
 62
    2
 10
166.95214513026218
 20
15.771523628320153
 11
168.0521451302622
 21
15.771523628320153
  0
LINE
  8
_0-1_
  6
CONTINUOUS
 62
    2
 10
138.03547289197718
 20
15.971523628320142
 11
142.48958613129236
 21
15.971523628320142
  0
LINE
  8
_0-1_
  6
CONTINUOUS
 62
    2
 10
144.21042248461492
 20
15.971523628320142
 11
145.51042248461488
 21
15.971523628320142
  0
LINE
  8
_0-1_
  6
CONTINUOUS
 62
    2
 10
148.48291593616051
 20
15.971523628320142
 11
149.76768190736999
 21
15.971523628320142
  0
LINE
  8
_0-1_
  6
CONTINUOUS
 62
    2
 10
151.44249928815736
 20
15.971523628320142
 11
152.74249928815743
 21
15.971523628320142
  0
LINE
  8
_0-1_
  6
CONTINUOUS
 62
    2
 10
153.54566624520078
 20
15.971523628320142
 11
154.84566624520073
 21
15.971523628320142
  0
LINE
  8
_0-1_
  6
CONTINUOUS
 62
    2
 10
155.84566624520073
 20
15.971523628320142
 11
160.44525381273269
 21
15.971523628320142
  0
LINE
  8
_0-1_
  6
CONTINUOUS
 62
    2
 10
162.07338575263736
 20
15.971523628320142
 11
163.37338575263738
 21
15.971523628320142
  0
LINE
  8
_0-1_
  6
CONTINUOUS
 62
    2
 10
164.93555913241073
 20
15.971523628320142
 11
166.23265537610899
 21
15.971523628320142
  0
LINE
  8
_0-1_
  6
CONTINUOUS
 62
    2
 10
166.95214513026218
 20
15.971523628320142
 11
168.0521451302622
 21
15.971523628320142
  0
LINE
  8
_0-1_
  6
CONTINUOUS
 62
    2
 10
138.12873442360819
 20
16.171523628320131
 11
139.42873442360826
 21
16.171523628320131
  0
LINE
  8
_0-1_
  6
CONTINUOUS
 62
    2
 10
141.09632459966133
 20
16.171523628320131
 11
142.39632459966134
 21
16.171523628320131
  0
LINE
  8
_0-1_
  6
CONTINUOUS
 62
    2
 10
144.21042248461492
 20
16.171523628320131
 11
145.51042248461488
 21
16.171523628320131
  0
LINE
  8
_0-1_
  6
CONTINUOUS
 62
    2
 10
148.49982363497406
 20
16.171523628320131
 11
149.7898317740233
 21
16.171523628320131
  0
LINE
  8
_0-1_
  6
CONTINUOUS
 62
    2
 10
151.34923775652635
 20
16.171523628320131
 11
152.64923775652642
 21
16.171523628320131
  0
LINE
  8
_0-1_
  6
CONTINUOUS
 62
    2
 10
153.63892777683179
 20
16.171523628320131
 11
154.93892777683175
 21
16.171523628320131
  0
LINE
  8
_0-1_
  6
CONTINUOUS
 62
    2
 10
155.93892777683175
 20
16.171523628320131
 11
157.23892777683176
 21
16.171523628320131
  0
LINE
  8
_0-1_
  6
CONTINUOUS
 62
    2
 10
159.05199228110166
 20
16.171523628320131
 11
160.35199228110167
 21
16.171523628320131
  0
LINE
  8
_0-1_
  6
CONTINUOUS
 62
    2
 10
162.07338575263736
 20
16.171523628320131
 11
163.37338575263738
 21
16.171523628320131
  0
LINE
  8
_0-1_
  6
CONTINUOUS
 62
    2
 10
164.81058526202884
 20
16.171523628320131
 11
166.10768150572716
 21
16.171523628320131
  0
LINE
  8
_0-1_
  6
CONTINUOUS
 62
    2
 10
166.95214513026218
 20
16.171523628320131
 11
168.0521451302622
 21
16.171523628320131
  0
LINE
  8
_0-1_
  6
CONTINUOUS
 62
    2
 10
138.22199595523921
 20
16.371523628320119
 11
139.52199595523922
 21
16.371523628320119
  0
LINE
  8
_0-1_
  6
CONTINUOUS
 62
    2
 10
141.00306306803031
 20
16.371523628320119
 11
142.30306306803038
 21
16.371523628320119
  0
LINE
  8
_0-1_
  6
CONTINUOUS
 62
    2
 10
144.21042248461492
 20
16.371523628320119
 11
145.51042248461488
 21
16.371523628320119
  0
LINE
  8
_0-1_
  6
CONTINUOUS
 62
    2
 10
148.5073423976898
 20
16.371523628320119
 11
149.8036557303144
 21
16.371523628320119
  0
LINE
  8
_0-1_
  6
CONTINUOUS
 62
    2
 10
151.25597622489539
 20
16.371523628320119
 11
152.5559762248954
 21
16.371523628320119
  0
LINE
  8
_0-1_
  6
CONTINUOUS
 62
    2
 10
153.73218930846275
 20
16.371523628320119
 11
155.03218930846276
 21
16.371523628320119
  0
LINE
  8
_0-1_
  6
CONTINUOUS
 62
    2
 10
156.03218930846276
 20
16.371523628320119
 11
157.33218930846277
 21
16.371523628320119
  0
LINE
  8
_0-1_
  6
CONTINUOUS
 62
    2
 10
158.9587307494707
 20
16.371523628320119
 11
160.25873074947071
 21
16.371523628320119
  0
LINE
  8
_0-1_
  6
CONTINUOUS
 62
    2
 10
162.07338575263736
 20
16.371523628320119
 11
163.37338575263738
 21
16.371523628320119
  0
LINE
  8
_0-1_
  6
CONTINUOUS
 62
    2
 10
164.685611391647
 20
16.371523628320119
 11
165.98270763534526
 21
16.371523628320119
  0
LINE
  8
_0-1_
  6
CONTINUOUS
 62
    2
 10
166.95214513026218
 20
16.371523628320119
 11
168.0521451302622
 21
16.371523628320119
  0
LINE
  8
_0-1_
  6
CONTINUOUS
 62
    2
 10
138.31525748687022
 20
16.571523628319994
 11
139.61525748687023
 21
16.571523628319994
  0
LINE
  8
_0-1_
  6
CONTINUOUS
 62
    2
 10
140.9098015363993
 20
16.571523628319994
 11
142.20980153639937
 21
16.571523628319994
  0
LINE
  8
_0-1_
  6
CONTINUOUS
 62
    2
 10
144.21042248461492
 20
16.571523628319994
 11
145.51042248461488
 21
16.571523628319994
  0
LINE
  8
_0-1_
  6
CONTINUOUS
 62
    2
 10
148.51030302861369
 20
16.571523628319994
 11
149.81009859434471
 21
16.571523628319994
  0
LINE
  8
_0-1_
  6
CONTINUOUS
 62
    2
 10
151.16271469326438
 20
16.571523628319994
 11
152.46271469326439
 21
16.571523628319994
  0
LINE
  8
_0-1_
  6
CONTINUOUS
 62
    2
 10
153.82545084009377
 20
16.571523628319994
 11
155.12545084009378
 21
16.571523628319994
  0
LINE
  8
_0-1_
  6
CONTINUOUS
 62
    2
 10
156.12545084009378
 20
16.571523628319994
 11
157.42545084009379
 21
16.571523628319994
  0
LINE
  8
_0-1_
  6
CONTINUOUS
 62
    2
 10
158.86546921783969
 20
16.571523628319994
 11
160.1654692178397
 21
16.571523628319994
  0
LINE
  8
_0-1_
  6
CONTINUOUS
 62
    2
 10
162.07338575263736
 20
16.571523628319994
 11
163.37338575263738
 21
16.571523628319994
  0
LINE
  8
_0-1_
  6
CONTINUOUS
 62
    2
 10
164.56063752126511
 20
16.571523628319994
 11
165.85773376496343
 21
16.571523628319994
  0
LINE
  8
_0-1_
  6
CONTINUOUS
 62
    2
 10
166.95214513026218
 20
16.571523628319994
 11
168.0521451302622
 21
16.571523628319994
  0
LINE
  8
_0-1_
  6
CONTINUOUS
 62
    2
 10
138.40851901850124
 20
16.77152362832021
 11
139.70851901850119
 21
16.77152362832021
  0
LINE
  8
_0-1_
  6
CONTINUOUS
 62
    2
 10
140.81654000476834
 20
16.77152362832021
 11
142.11654000476835
 21
16.77152362832021
  0
LINE
  8
_0-1_
  6
CONTINUOUS
 62
    2
 10
144.21042248461492
 20
16.77152362832021
 11
145.51042248461488
 21
16.77152362832021
  0
LINE
  8
_0-1_
  6
CONTINUOUS
 62
    2
 10
148.50869246663569
 20
16.77152362832021
 11
149.80603996192326
 21
16.77152362832021
  0
LINE
  8
_0-1_
  6
CONTINUOUS
 62
    2
 10
151.06945316163342
 20
16.77152362832021
 11
152.36945316163337
 21
16.77152362832021
  0
LINE
  8
_0-1_
  6
CONTINUOUS
 62
    2
 10
153.91871237172478
 20
16.77152362832021
 11
155.21871237172479
 21
16.77152362832021
  0
LINE
  8
_0-1_
  6
CONTINUOUS
 62
    2
 10
156.21871237172479
 20
16.77152362832021
 11
157.51871237172475
 21
16.77152362832021
  0
LINE
  8
_0-1_
  6
CONTINUOUS
 62
    2
 10
158.77220768620873
 20
16.77152362832021
 11
160.07220768620869
 21
16.77152362832021
  0
LINE
  8
_0-1_
  6
CONTINUOUS
 62
    2
 10
162.07338575263736
 20
16.77152362832021
 11
163.37338575263738
 21
16.77152362832021
  0
LINE
  8
_0-1_
  6
CONTINUOUS
 62
    2
 10
164.43566365088327
 20
16.77152362832021
 11
165.73275989458153
 21
16.77152362832021
  0
LINE
  8
_0-1_
  6
CONTINUOUS
 62
    2
 10
166.95214513026218
 20
16.77152362832021
 11
168.0521451302622
 21
16.77152362832021
  0
LINE
  8
_0-1_
  6
CONTINUOUS
 62
    2
 10
138.50178055013225
 20
16.971523628320085
 11
139.80178055013221
 21
16.971523628320085
  0
LINE
  8
_0-1_
  6
CONTINUOUS
 62
    2
 10
140.72327847313738
 20
16.971523628320085
 11
142.02327847313734
 21
16.971523628320085
  0
LINE
  8
_0-1_
  6
CONTINUOUS
 62
    2
 10
144.21042248461492
 20
16.971523628320085
 11
145.51042248461488
 21
16.971523628320085
  0
LINE
  8
_0-1_
  6
CONTINUOUS
 62
    2
 10
148.5026750376577
 20
16.971523628320085
 11
149.79435976877346
 21
16.971523628320085
  0
LINE
  8
_0-1_
  6
CONTINUOUS
 62
    2
 10
150.9761916300024
 20
16.971523628320085
 11
152.27619163000236
 21
16.971523628320085
  0
LINE
  8
_0-1_
  6
CONTINUOUS
 62
    2
 10
154.01197390335574
 20
16.971523628320085
 11
155.31197390335575
 21
16.971523628320085
  0
LINE
  8
_0-1_
  6
CONTINUOUS
 62
    2
 10
156.31197390335581
 20
16.971523628320085
 11
157.61197390335576
 21
16.971523628320085
  0
LINE
  8
_0-1_
  6
CONTINUOUS
 62
    2
 10
158.67894615457772
 20
16.971523628320085
 11
159.97894615457767
 21
16.971523628320085
  0
LINE
  8
_0-1_
  6
CONTINUOUS
 62
    2
 10
162.07338575263736
 20
16.971523628320085
 11
163.37338575263738
 21
16.971523628320085
  0
LINE
  8
_0-1_
  6
CONTINUOUS
 62
    2
 10
164.31068978050138
 20
16.971523628320085
 11
165.6077860241997
 21
16.971523628320085
  0
LINE
  8
_0-1_
  6
CONTINUOUS
 62
    2
 10
166.95214513026218
 20
16.971523628320085
 11
168.0521451302622
 21
16.971523628320085
  0
LINE
  8
_0-1_
  6
CONTINUOUS
 62
    2
 10
138.59504208176321
 20
17.171523628320131
 11
139.89504208176322
 21
17.171523628320131
  0
LINE
  8
_0-1_
  6
CONTINUOUS
 62
    2
 10
140.63001694150637
 20
17.171523628320131
 11
141.93001694150632
 21
17.171523628320131
  0
LINE
  8
_0-1_
  6
CONTINUOUS
 62
    2
 10
144.21042248461492
 20
17.171523628320131
 11
145.51042248461488
 21
17.171523628320131
  0
LINE
  8
_0-1_
  6
CONTINUOUS
 62
    2
 10
148.48670934347751
 20
17.171523628320131
 11
149.77417792035408
 21
17.171523628320131
  0
LINE
  8
_0-1_
  6
CONTINUOUS
 62
    2
 10
150.88293009837139
 20
17.171523628320131
 11
152.1829300983714
 21
17.171523628320131
  0
LINE
  8
_0-1_
  6
CONTINUOUS
 62
    2
 10
154.10523543498675
 20
17.171523628320131
 11
155.40523543498676
 21
17.171523628320131
  0
LINE
  8
_0-1_
  6
CONTINUOUS
 62
    2
 10
156.40523543498676
 20
17.171523628320131
 11
157.70523543498678
 21
17.171523628320131
  0
LINE
  8
_0-1_
  6
CONTINUOUS
 62
    2
 10
158.5856846229467
 20
17.171523628320131
 11
159.88568462294671
 21
17.171523628320131
  0
LINE
  8
_0-1_
  6
CONTINUOUS
 62
    2
 10
162.07338575263736
 20
17.171523628320131
 11
163.37338575263738
 21
17.171523628320131
  0
LINE
  8
_0-1_
  6
CONTINUOUS
 62
    2
 10
164.18571591011954
 20
17.171523628320131
 11
165.4828121538178
 21
17.171523628320131
  0
LINE
  8
_0-1_
  6
CONTINUOUS
 62
    2
 10
166.95214513026218
 20
17.171523628320131
 11
168.0521451302622
 21
17.171523628320131
  0
LINE
  8
_0-1_
  6
CONTINUOUS
 62
    2
 10
138.68830361339423
 20
17.371523628320119
 11
139.98830361339424
 21
17.371523628320119
  0
LINE
  8
_0-1_
  6
CONTINUOUS
 62
    2
 10
140.53675540987535
 20
17.371523628320119
 11
141.83675540987537
 21
17.371523628320119
  0
LINE
  8
_0-1_
  6
CONTINUOUS
 62
    2
 10
144.21042248461492
 20
17.371523628320119
 11
145.51042248461488
 21
17.371523628320119
  0
LINE
  8
_0-1_
  6
CONTINUOUS
 62
    2
 10
148.45761770144782
 20
17.371523628320119
 11
149.74481549507277
 21
17.371523628320119
  0
LINE
  8
_0-1_
  6
CONTINUOUS
 62
    2
 10
150.78966856674037
 20
17.371523628320119
 11
152.08966856674039
 21
17.371523628320119
  0
LINE
  8
_0-1_
  6
CONTINUOUS
 62
    2
 10
154.19849696661777
 20
17.371523628320119
 11
155.49849696661772
 21
17.371523628320119
  0
LINE
  8
_0-1_
  6
CONTINUOUS
 62
    2
 10
156.49849696661772
 20
17.371523628320119
 11
157.79849696661779
 21
17.371523628320119
  0
LINE
  8
_0-1_
  6
CONTINUOUS
 62
    2
 10
158.49242309131569
 20
17.371523628320119
 11
159.7924230913157
 21
17.371523628320119
  0
LINE
  8
_0-1_
  6
CONTINUOUS
 62
    2
 10
162.07338575263736
 20
17.371523628320119
 11
163.37338575263738
 21
17.371523628320119
  0
LINE
  8
_0-1_
  6
CONTINUOUS
 62
    2
 10
164.06074203973765
 20
17.371523628320119
 11
165.35783828343597
 21
17.371523628320119
  0
LINE
  8
_0-1_
  6
CONTINUOUS
 62
    2
 10
166.95214513026218
 20
17.371523628320119
 11
168.0521451302622
 21
17.371523628320119
  0
LINE
  8
_0-1_
  6
CONTINUOUS
 62
    2
 10
138.78156514502518
 20
17.571523628320108
 11
140.08156514502525
 21
17.571523628320108
  0
LINE
  8
_0-1_
  6
CONTINUOUS
 62
    2
 10
140.44349387824434
 20
17.571523628320108
 11
141.74349387824435
 21
17.571523628320108
  0
LINE
  8
_0-1_
  6
CONTINUOUS
 62
    2
 10
144.21042248461492
 20
17.571523628320108
 11
145.51042248461488
 21
17.571523628320108
  0
LINE
  8
_0-1_
  6
CONTINUOUS
 62
    2
 10
148.40914744823812
 20
17.571523628320108
 11
149.70746829583368
 21
17.571523628320108
  0
LINE
  8
_0-1_
  6
CONTINUOUS
 62
    2
 10
150.69640703510936
 20
17.571523628320108
 11
151.99640703510937
 21
17.571523628320108
  0
LINE
  8
_0-1_
  6
CONTINUOUS
 62
    2
 10
154.29175849824878
 20
17.571523628320108
 11
155.59175849824874
 21
17.571523628320108
  0
LINE
  8
_0-1_
  6
CONTINUOUS
 62
    2
 10
156.59175849824874
 20
17.571523628320108
 11
157.89175849824881
 21
17.571523628320108
  0
LINE
  8
_0-1_
  6
CONTINUOUS
 62
    2
 10
158.39916155968467
 20
17.571523628320108
 11
159.69916155968468
 21
17.571523628320108
  0
LINE
  8
_0-1_
  6
CONTINUOUS
 62
    2
 10
162.07338575263736
 20
17.571523628320108
 11
163.37338575263738
 21
17.571523628320108
  0
LINE
  8
_0-1_
  6
CONTINUOUS
 62
    2
 10
163.93576816935575
 20
17.571523628320108
 11
165.23286441305407
 21
17.571523628320108
  0
LINE
  8
_0-1_
  6
CONTINUOUS
 62
    2
 10
166.95214513026218
 20
17.571523628320108
 11
168.0521451302622
 21
17.571523628320108
  0
LINE
  8
_0-1_
  6
CONTINUOUS
 62
    2
 10
138.8748266766562
 20
17.77152362832021
 11
140.17482667665621
 21
17.77152362832021
  0
LINE
  8
_0-1_
  6
CONTINUOUS
 62
    2
 10
140.35023234661332
 20
17.77152362832021
 11
141.65023234661334
 21
17.77152362832021
  0
LINE
  8
_0-1_
  6
CONTINUOUS
 62
    2
 10
144.21042248461492
 20
17.77152362832021
 11
145.51042248461488
 21
17.77152362832021
  0
LINE
  8
_0-1_
  6
CONTINUOUS
 62
    2
 10
148.33077557602786
 20
17.77152362832021
 11
149.66225394171374
 21
17.77152362832021
  0
LINE
  8
_0-1_
  6
CONTINUOUS
 62
    2
 10
150.6031455034784
 20
17.77152362832021
 11
151.90314550347841
 21
17.77152362832021
  0
LINE
  8
_0-1_
  6
CONTINUOUS
 62
    2
 10
154.3850200298798
 20
17.77152362832021
 11
155.68502002987975
 21
17.77152362832021
  0
LINE
  8
_0-1_
  6
CONTINUOUS
 62
    2
 10
156.68502002987975
 20
17.77152362832021
 11
157.98502002987976
 21
17.77152362832021
  0
LINE
  8
_0-1_
  6
CONTINUOUS
 62
    2
 10
158.30590002805371
 20
17.77152362832021
 11
159.60590002805372
 21
17.77152362832021
  0
LINE
  8
_0-1_
  6
CONTINUOUS
 62
    2
 10
162.07338575263736
 20
17.77152362832021
 11
163.37338575263738
 21
17.77152362832021
  0
LINE
  8
_0-1_
  6
CONTINUOUS
 62
    2
 10
163.81079429897392
 20
17.77152362832021
 11
165.10789054267224
 21
17.77152362832021
  0
LINE
  8
_0-1_
  6
CONTINUOUS
 62
    2
 10
166.95214513026218
 20
17.77152362832021
 11
168.0521451302622
 21
17.77152362832021
  0
LINE
  8
_0-1_
  6
CONTINUOUS
 62
    2
 10
138.96808820828721
 20
17.971523628320085
 11
141.55697081498238
 21
17.971523628320085
  0
LINE
  8
_0-1_
  6
CONTINUOUS
 62
    2
 10
144.21042248461492
 20
17.971523628320085
 11
145.51042248461488
 21
17.971523628320085
  0
LINE
  8
_0-1_
  6
CONTINUOUS
 62
    2
 10
148.21042248461492
 20
17.971523628320085
 11
149.6104224846149
 21
17.971523628320085
  0
LINE
  8
_0-1_
  6
CONTINUOUS
 62
    2
 10
150.50988397184739
 20
17.971523628320085
 11
151.8098839718474
 21
17.971523628320085
  0
LINE
  8
_0-1_
  6
CONTINUOUS
 62
    2
 10
154.47828156151076
 20
17.971523628320085
 11
155.77828156151077
 21
17.971523628320085
  0
LINE
  8
_0-1_
  6
CONTINUOUS
 62
    2
 10
156.77828156151077
 20
17.971523628320085
 11
158.07828156151072
 21
17.971523628320085
  0
LINE
  8
_0-1_
  6
CONTINUOUS
 62
    2
 10
158.2126384964227
 20
17.971523628320085
 11
159.51263849642271
 21
17.971523628320085
  0
LINE
  8
_0-1_
  6
CONTINUOUS
 62
    2
 10
162.07338575263736
 20
17.971523628320085
 11
163.37338575263738
 21
17.971523628320085
  0
LINE
  8
_0-1_
  6
CONTINUOUS
 62
    2
 10
163.68582042859208
 20
17.971523628320085
 11
164.98291667229034
 21
17.971523628320085
  0
LINE
  8
_0-1_
  6
CONTINUOUS
 62
    2
 10
166.95214513026218
 20
17.971523628320085
 11
168.0521451302622
 21
17.971523628320085
  0
LINE
  8
_0-1_
  6
CONTINUOUS
 62
    2
 10
139.06134973991823
 20
18.171523628320131
 11
141.46370928335136
 21
18.171523628320131
  0
LINE
  8
_0-1_
  6
CONTINUOUS
 62
    2
 10
144.21042248461492
 20
18.171523628320131
 11
145.51042248461488
 21
18.171523628320131
  0
LINE
  8
_0-1_
  6
CONTINUOUS
 62
    2
 10
147.99797245751529
 20
18.171523628320131
 11
149.54762110773771
 21
18.171523628320131
  0
LINE
  8
_0-1_
  6
CONTINUOUS
 62
    2
 10
150.41662244021637
 20
18.171523628320131
 11
151.71662244021638
 21
18.171523628320131
  0
LINE
  8
_0-1_
  6
CONTINUOUS
 62
    2
 10
154.57154309314177
 20
18.171523628320131
 11
155.87154309314178
 21
18.171523628320131
  0
LINE
  8
_0-1_
  6
CONTINUOUS
 62
    2
 10
156.87154309314178
 20
18.171523628320131
 11
159.4193769647917
 21
18.171523628320131
  0
LINE
  8
_0-1_
  6
CONTINUOUS
 62
    2
 10
162.07338575263736
 20
18.171523628320131
 11
163.37338575263738
 21
18.171523628320131
  0
LINE
  8
_0-1_
  6
CONTINUOUS
 62
    2
 10
163.56084655821019
 20
18.171523628320131
 11
164.85794280190851
 21
18.171523628320131
  0
LINE
  8
_0-1_
  6
CONTINUOUS
 62
    2
 10
166.95214513026218
 20
18.171523628320131
 11
168.0521451302622
 21
18.171523628320131
  0
LINE
  8
_0-1_
  6
CONTINUOUS
 62
    2
 10
139.15461127154924
 20
18.371523628320062
 11
141.37044775172035
 21
18.371523628320062
  0
LINE
  8
_0-1_
  6
CONTINUOUS
 62
    2
 10
144.21042248461492
 20
18.371523628320062
 11
145.51042248461488
 21
18.371523628320062
  0
LINE
  8
_0-1_
  6
CONTINUOUS
 62
    2
 10
147.69008800934853
 20
18.371523628320062
 11
149.46455948871949
 21
18.371523628320062
  0
LINE
  8
_0-1_
  6
CONTINUOUS
 62
    2
 10
150.32336090858541
 20
18.371523628320062
 11
151.62336090858537
 21
18.371523628320062
  0
LINE
  8
_0-1_
  6
CONTINUOUS
 62
    2
 10
154.66480462477273
 20
18.371523628320062
 11
155.9648046247728
 21
18.371523628320062
  0
LINE
  8
_0-1_
  6
CONTINUOUS
 62
    2
 10
156.96480462477274
 20
18.371523628320062
 11
159.32611543316068
 21
18.371523628320062
  0
LINE
  8
_0-1_
  6
CONTINUOUS
 62
    2
 10
162.07338575263736
 20
18.371523628320062
 11
163.37338575263738
 21
18.371523628320062
  0
LINE
  8
_0-1_
  6
CONTINUOUS
 62
    2
 10
163.43587268782835
 20
18.371523628320062
 11
164.73296893152661
 21
18.371523628320062
  0
LINE
  8
_0-1_
  6
CONTINUOUS
 62
    2
 10
166.95214513026218
 20
18.371523628320062
 11
168.0521451302622
 21
18.371523628320062
  0
LINE
  8
_0-1_
  6
CONTINUOUS
 62
    2
 10
139.24787280318026
 20
18.571523628320108
 11
141.27718622008933
 21
18.571523628320108
  0
LINE
  8
_0-1_
  6
CONTINUOUS
 62
    2
 10
144.21042248461492
 20
18.571523628320108
 11
149.3414784302874
 21
18.571523628320108
  0
LINE
  8
_0-1_
  6
CONTINUOUS
 62
    2
 10
150.2300993769544
 20
18.571523628320108
 11
151.53009937695435
 21
18.571523628320108
  0
LINE
  8
_0-1_
  6
CONTINUOUS
 62
    2
 10
154.75806615640374
 20
18.571523628320108
 11
156.05806615640375
 21
18.571523628320108
  0
LINE
  8
_0-1_
  6
CONTINUOUS
 62
    2
 10
157.05806615640375
 20
18.571523628320108
 11
159.23285390152967
 21
18.571523628320108
  0
LINE
  8
_0-1_
  6
CONTINUOUS
 62
    2
 10
162.07338575263736
 20
18.571523628320108
 11
164.60799506114478
 21
18.571523628320108
  0
LINE
  8
_0-1_
  6
CONTINUOUS
 62
    2
 10
166.95214513026218
 20
18.571523628320108
 11
168.0521451302622
 21
18.571523628320108
  0
LINE
  8
_0-1_
  6
CONTINUOUS
 62
    2
 10
139.34113433481122
 20
18.771523628320153
 11
141.18392468845832
 21
18.771523628320153
  0
LINE
  8
_0-1_
  6
CONTINUOUS
 62
    2
 10
144.21042248461492
 20
18.771523628320153
 11
149.15231729504194
 21
18.771523628320153
  0
LINE
  8
_0-1_
  6
CONTINUOUS
 62
    2
 10
150.13683784532338
 20
18.771523628320153
 11
151.4368378453234
 21
18.771523628320153
  0
LINE
  8
_0-1_
  6
CONTINUOUS
 62
    2
 10
154.85132768803476
 20
18.771523628320153
 11
156.15132768803477
 21
18.771523628320153
  0
LINE
  8
_0-1_
  6
CONTINUOUS
 62
    2
 10
157.15132768803477
 20
18.771523628320153
 11
159.13959236989865
 21
18.771523628320153
  0
LINE
  8
_0-1_
  6
CONTINUOUS
 62
    2
 10
162.07338575263736
 20
18.771523628320153
 11
164.48302119076288
 21
18.771523628320153
  0
LINE
  8
_0-1_
  6
CONTINUOUS
 62
    2
 10
166.95214513026218
 20
18.771523628320153
 11
168.0521451302622
 21
18.771523628320153
  0
LINE
  8
_0-1_
  6
CONTINUOUS
 62
    2
 10
139.43439586644217
 20
18.971523628320085
 11
141.09066315682736
 21
18.971523628320085
  0
LINE
  8
_0-1_
  6
CONTINUOUS
 62
    2
 10
144.21042248461492
 20
18.971523628320085
 11
148.87455143350422
 21
18.971523628320085
  0
LINE
  8
_0-1_
  6
CONTINUOUS
 62
    2
 10
150.04357631369237
 20
18.971523628320085
 11
151.34357631369238
 21
18.971523628320085
  0
LINE
  8
_0-1_
  6
CONTINUOUS
 62
    2
 10
154.94458921966577
 20
18.971523628320085
 11
156.24458921966573
 21
18.971523628320085
  0
LINE
  8
_0-1_
  6
CONTINUOUS
 62
    2
 10
157.24458921966573
 20
18.971523628320085
 11
159.04633083826769
 21
18.971523628320085
  0
LINE
  8
_0-1_
  6
CONTINUOUS
 62
    2
 10
162.07338575263736
 20
18.971523628320085
 11
164.35804732038105
 21
18.971523628320085
  0
LINE
  8
_0-1_
  6
CONTINUOUS
 62
    2
 10
166.95214513026218
 20
18.971523628320085
 11
168.0521451302622
 21
18.971523628320085
  0
LINE
  8
_0-1_
  6
CONTINUOUS
 62
    2
 10
139.52765739807319
 20
19.171523628320017
 11
140.99740162519635
 21
19.171523628320017
  0
LINE
  8
_0-1_
  6
CONTINUOUS
 62
    2
 10
144.21042248461492
 20
19.171523628320017
 11
148.47348548538594
 21
19.171523628320017
  0
LINE
  8
_0-1_
  6
CONTINUOUS
 62
    2
 10
149.95031478206135
 20
19.171523628320017
 11
151.25031478206142
 21
19.171523628320017
  0
LINE
  8
_0-1_
  6
CONTINUOUS
 62
    2
 10
155.03785075129679
 20
19.171523628320017
 11
156.33785075129674
 21
19.171523628320017
  0
LINE
  8
_0-1_
  6
CONTINUOUS
 62
    2
 10
157.33785075129674
 20
19.171523628320017
 11
158.95306930663668
 21
19.171523628320017
  0
LINE
  8
_0-1_
  6
CONTINUOUS
 62
    2
 10
162.07338575263736
 20
19.171523628320017
 11
164.23307344999915
 21
19.171523628320017
  0
LINE
  8
_0-1_
  6
CONTINUOUS
 62
    2
 10
166.95214513026218
 20
19.171523628320017
 11
168.0521451302622
 21
19.171523628320017
  0
LINE
  8
_0-1_
  6
CONTINUOUS
 62
    2
 10
139.6209189297042
 20
19.371523628320062
 11
140.90414009356539
 21
19.371523628320062
  0
LINE
  8
_0-1_
  6
CONTINUOUS
 62
    2
 10
144.21042248461492
 20
19.371523628320062
 11
147.8850898157516
 21
19.371523628320062
  0
LINE
  8
_0-1_
  6
CONTINUOUS
 62
    2
 10
149.8570532504304
 20
19.371523628320062
 11
151.15705325043041
 21
19.371523628320062
  0
LINE
  8
_0-1_
  6
CONTINUOUS
 62
    2
 10
155.1311122829278
 20
19.371523628320062
 11
156.43111228292776
 21
19.371523628320062
  0
LINE
  8
_0-1_
  6
CONTINUOUS
 62
    2
 10
157.43111228292776
 20
19.371523628320062
 11
158.85980777500572
 21
19.371523628320062
  0
LINE
  8
_0-1_
  6
CONTINUOUS
 62
    2
 10
162.07338575263736
 20
19.371523628320062
 11
164.10809957961732
 21
19.371523628320062
  0
LINE
  8
_0-1_
  6
CONTINUOUS
 62
    2
 10
166.95214513026218
 20
19.371523628320062
 11
168.0521451302622
 21
19.371523628320062
  0
LINE
  8
_0-1_
  6
CONTINUOUS
 62
    7
 10
126.1766597049351
 20
13.840458346444734
 11
130.38050950713313
 21
13.840458346444734
  0
LINE
  8
_0-1_
  6
CONTINUOUS
 62
    7
 10
126.1766597049351
 20
13.940458346444757
 11
130.38050950713313
 21
13.940458346444757
  0
LINE
  8
_0-1_
  6
CONTINUOUS
 62
    7
 10
126.1766597049351
 20
14.040458346444666
 11
130.38050950713313
 21
14.040458346444666
  0
LINE
  8
_0-1_
  6
CONTINUOUS
 62
    7
 10
126.1766597049351
 20
14.140458346444632
 11
130.38050950713313
 21
14.140458346444632
  0
LINE
  8
_0-1_
  6
CONTINUOUS
 62
    7
 10
126.1766597049351
 20
14.240458346444655
 11
130.38050950713313
 21
14.240458346444655
  0
LINE
  8
_0-1_
  6
CONTINUOUS
 62
    7
 10
126.1766597049351
 20
14.340458346444677
 11
130.38050950713313
 21
14.340458346444677
  0
LINE
  8
_0-1_
  6
CONTINUOUS
 62
    7
 10
126.1766597049351
 20
14.440458346444757
 11
130.38050950713313
 21
14.440458346444757
  0
LINE
  8
_0-1_
  6
CONTINUOUS
 62
    7
 10
126.1766597049351
 20
14.540458346444666
 11
130.38050950713313
 21
14.540458346444666
  0
LINE
  8
_0-1_
  6
CONTINUOUS
 62
    7
 10
126.1766597049351
 20
14.640458346444632
 11
130.38050950713313
 21
14.640458346444632
  0
LINE
  8
_0-1_
  6
CONTINUOUS
 62
    7
 10
126.1766597049351
 20
14.740458346444541
 11
130.38050950713313
 21
14.740458346444541
  0
LINE
  8
_0-1_
  6
CONTINUOUS
 62
    7
 10
126.1766597049351
 20
14.840458346444677
 11
130.38050950713313
 21
14.840458346444677
  0
LINE
  8
_0-1_
  6
CONTINUOUS
 62
    7
 10
126.1766597049351
 20
14.940458346444586
 11
130.38050950713313
 21
14.940458346444586
  0
LINE
  8
_0-1_
  6
CONTINUOUS
 62
    7
 10
126.1766597049351
 20
15.040458346444666
 11
130.38050950713313
 21
15.040458346444666
  0
LINE
  8
_0-1_
  6
CONTINUOUS
 62
    7
 10
126.1766597049351
 20
15.140458346444632
 11
130.38050950713313
 21
15.140458346444632
  0
LINE
  8
_0-1_
  6
CONTINUOUS
 62
    7
 10
126.1766597049351
 20
15.240458346444541
 11
130.38050950713313
 21
15.240458346444541
  0
LINE
  8
_0-1_
  6
CONTINUOUS
 62
    7
 10
126.1766597049351
 20
15.340458346444677
 11
130.38050950713313
 21
15.340458346444677
  0
LINE
  8
_0-1_
  6
CONTINUOUS
 62
    7
 10
126.1766597049351
 20
15.440458346444586
 11
130.38050950713313
 21
15.440458346444586
  0
LINE
  8
_0-1_
  6
CONTINUOUS
 62
    7
 10
126.1766597049351
 20
15.540458346444609
 11
130.38050950713313
 21
15.540458346444609
  0
LINE
  8
_0-1_
  6
CONTINUOUS
 62
    7
 10
126.1766597049351
 20
15.640458346444518
 11
130.38050950713313
 21
15.640458346444518
  0
LINE
  8
_0-1_
  6
CONTINUOUS
 62
    7
 10
126.1766597049351
 20
15.740458346444541
 11
130.38050950713313
 21
15.740458346444541
  0
LINE
  8
_0-1_
  6
CONTINUOUS
 62
    7
 10
126.1766597049351
 20
15.840458346444564
 11
130.38050950713313
 21
15.840458346444564
  0
LINE
  8
_0-1_
  6
CONTINUOUS
 62
    7
 10
126.1766597049351
 20
15.940458346444586
 11
130.38050950713313
 21
15.940458346444586
  0
LINE
  8
_0-1_
  6
CONTINUOUS
 62
    7
 10
126.1766597049351
 20
16.040458346444609
 11
130.38050950713313
 21
16.040458346444609
  0
LINE
  8
_0-1_
  6
CONTINUOUS
 62
    7
 10
126.1766597049351
 20
16.140458346444518
 11
130.38050950713313
 21
16.140458346444518
  0
LINE
  8
_0-1_
  6
CONTINUOUS
 62
    7
 10
126.1766597049351
 20
16.240458346444541
 11
130.38050950713313
 21
16.240458346444541
  0
LINE
  8
_0-1_
  6
CONTINUOUS
 62
    7
 10
126.1766597049351
 20
16.34045834644445
 11
130.38050950713313
 21
16.34045834644445
  0
LINE
  8
_0-1_
  6
CONTINUOUS
 62
    7
 10
126.1766597049351
 20
16.440458346444586
 11
130.38050950713313
 21
16.440458346444586
  0
LINE
  8
_0-1_
  6
CONTINUOUS
 62
    7
 10
126.1766597049351
 20
16.540458346444495
 11
130.38050950713313
 21
16.540458346444495
  0
LINE
  8
_0-1_
  6
CONTINUOUS
 62
    7
 10
126.1766597049351
 20
16.640458346444461
 11
130.38050950713313
 21
16.640458346444461
  0
LINE
  8
_0-1_
  6
CONTINUOUS
 62
    7
 10
126.1766597049351
 20
16.740458346444541
 11
130.38050950713313
 21
16.740458346444541
  0
LINE
  8
_0-1_
  6
CONTINUOUS
 62
    7
 10
126.1766597049351
 20
16.840458346444564
 11
130.38050950713313
 21
16.840458346444564
  0
LINE
  8
_0-1_
  6
CONTINUOUS
 62
    7
 10
126.1766597049351
 20
16.940458346444473
 11
130.38050950713313
 21
16.940458346444473
  0
LINE
  8
_0-1_
  6
CONTINUOUS
 62
    7
 10
126.1766597049351
 20
17.040458346444495
 11
130.38050950713313
 21
17.040458346444495
  0
LINE
  8
_0-1_
  6
CONTINUOUS
 62
    7
 10
126.1766597049351
 20
17.140458346444461
 11
130.38050950713313
 21
17.140458346444461
  0
LINE
  8
_0-1_
  6
CONTINUOUS
 62
    7
 10
126.1766597049351
 20
17.240458346444541
 11
130.38050950713313
 21
17.240458346444541
  0
LINE
  8
_0-1_
  6
CONTINUOUS
 62
    7
 10
126.1766597049351
 20
17.340458346444564
 11
130.38050950713313
 21
17.340458346444564
  0
LINE
  8
_0-1_
  6
CONTINUOUS
 62
    7
 10
126.1766597049351
 20
17.440458346444473
 11
130.38050950713313
 21
17.440458346444473
  0
LINE
  8
_0-1_
  6
CONTINUOUS
 62
    7
 10
126.1766597049351
 20
17.540458346444495
 11
130.38050950713313
 21
17.540458346444495
  0
LINE
  8
_0-1_
  6
CONTINUOUS
 62
    7
 10
126.1766597049351
 20
17.640458346444461
 11
130.38050950713313
 21
17.640458346444461
  0
LINE
  8
_0-1_
  6
CONTINUOUS
 62
    7
 10
126.1766597049351
 20
17.740458346444541
 11
130.38050950713313
 21
17.740458346444541
  0
LINE
  8
_0-1_
  6
CONTINUOUS
 62
    7
 10
126.1766597049351
 20
17.84045834644445
 11
130.38050950713313
 21
17.84045834644445
  0
LINE
  8
_0-1_
  6
CONTINUOUS
 62
    7
 10
126.1766597049351
 20
17.940458346444473
 11
130.38050950713313
 21
17.940458346444473
  0
LINE
  8
_0-1_
  6
CONTINUOUS
 62
    7
 10
135.65782224885095
 20
22.640458346444603
 11
137.12138001067194
 21
22.640458346444603
  0
LINE
  8
_0-1_
  6
CONTINUOUS
 62
    7
 10
135.38552382456635
 20
22.840458346444535
 11
137.39367843495654
 21
22.840458346444535
  0
LINE
  8
_0-1_
  6
CONTINUOUS
 62
    7
 10
135.20602935793193
 20
23.040458346444581
 11
137.57317290159097
 21
23.040458346444581
  0
LINE
  8
_0-1_
  6
CONTINUOUS
 62
    7
 10
135.08058889019537
 20
23.240458346444512
 11
137.69861336932752
 21
23.240458346444512
  0
LINE
  8
_0-1_
  6
CONTINUOUS
 62
    7
 10
134.99454416045899
 20
23.440458346444643
 11
137.7846580990639
 21
23.440458346444643
  0
LINE
  8
_0-1_
  6
CONTINUOUS
 62
    7
 10
134.94085862266854
 20
23.64045834644449
 11
137.83834363685435
 21
23.64045834644449
  0
LINE
  8
_0-1_
  6
CONTINUOUS
 62
    7
 10
134.91599135912236
 20
23.840458346444535
 11
137.86321090040053
 21
23.840458346444535
  0
LINE
  8
_0-1_
  6
CONTINUOUS
 62
    7
 10
134.91848024404624
 20
24.040458346444495
 11
137.86072201547665
 21
24.040458346444495
  0
LINE
  8
_0-1_
  6
CONTINUOUS
 62
    7
 10
134.94846700531292
 20
24.240458346444512
 11
137.83073525421003
 21
24.240458346444512
  0
LINE
  8
_0-1_
  6
CONTINUOUS
 62
    7
 10
135.00774061982833
 20
24.440458346444444
 11
137.77146163969462
 21
24.440458346444444
  0
LINE
  8
_0-1_
  6
CONTINUOUS
 62
    7
 10
135.10033413911458
 20
24.640458346444518
 11
137.67886812040831
 21
24.640458346444518
  0
LINE
  8
_0-1_
  6
CONTINUOUS
 62
    7
 10
135.23423093911458
 20
24.840458346444535
 11
137.54497132040831
 21
24.840458346444535
  0
LINE
  8
_0-1_
  6
CONTINUOUS
 62
    7
 10
135.42650654370061
 20
25.040458346444495
 11
137.35269571582228
 21
25.040458346444495
  0
LINE
  8
_0-1_
  6
CONTINUOUS
 62
    7
 10
135.72610878921603
 20
25.240458346444399
 11
137.05309347030686
 21
25.240458346444399
  0
LINE
  8
_0-1_
  6
CONTINUOUS
 62
    7
 10
137.78781321793679
 20
23.449695253712264
 11
137.78781321793679
 21
24.394575960490585
  0
LINE
  8
_0-1_
  6
CONTINUOUS
 62
    7
 10
137.5878132179368
 20
23.060460074906842
 11
137.5878132179368
 21
24.783811139296006
  0
LINE
  8
_0-1_
  6
CONTINUOUS
 62
    7
 10
137.38781321793681
 20
22.835043358002054
 11
137.38781321793681
 21
25.009227856200852
  0
LINE
  8
_0-1_
  6
CONTINUOUS
 62
    7
 10
137.18781321793682
 20
22.680743488017725
 11
137.18781321793682
 21
25.163527726185123
  0
LINE
  8
_0-1_
  6
CONTINUOUS
 62
    7
 10
136.98781321793683
 20
22.572936130154886
 11
136.98781321793683
 21
25.271335084047962
  0
LINE
  8
_0-1_
  6
CONTINUOUS
 62
    7
 10
136.78781321793679
 20
22.501000826771246
 11
136.78781321793679
 21
25.343270387431659
  0
LINE
  8
_0-1_
  6
CONTINUOUS
 62
    7
 10
136.5878132179368
 20
22.459634701416121
 11
136.5878132179368
 21
25.384636512786784
  0
LINE
  8
_0-1_
  6
CONTINUOUS
 62
    7
 10
136.38781321793681
 20
22.446265106548054
 11
136.38781321793681
 21
25.398006107654851
  0
LINE
  8
_0-1_
  6
CONTINUOUS
 62
    7
 10
135.09076345091523
 20
19.402456392823467
 11
135.13264902317314
 21
19.444341965081264
  0
LINE
  8
_0-1_
  6
CONTINUOUS
 62
    7
 10
134.80792073844043
 20
19.402456392823694
 11
135.02912140513195
 21
19.62365705951521
  0
LINE
  8
_0-1_
  6
CONTINUOUS
 62
    7
 10
134.52507802596506
 20
19.402456392823353
 11
134.92559378709086
 21
19.802972153949042
  0
LINE
  8
_0-1_
  6
CONTINUOUS
 62
    7
 10
134.24223531349026
 20
19.402456392823467
 11
134.82206616904966
 21
19.982287248382846
  0
LINE
  8
_0-1_
  6
CONTINUOUS
 62
    7
 10
133.95939260101494
 20
19.40245639282324
 11
134.71853855100858
 21
20.161602342816906
  0
LINE
  8
_0-1_
  6
CONTINUOUS
 62
    7
 10
133.67654988854207
 20
19.402456392823467
 11
134.615010932968
 21
20.340917437249601
  0
LINE
  8
_0-1_
  6
CONTINUOUS
 62
    7
 10
133.3937071760667
 20
19.402456392823353
 11
134.51148331492686
 21
20.52023253168332
  0
LINE
  8
_0-1_
  6
CONTINUOUS
 62
    7
 10
133.11086446359189
 20
19.402456392823467
 11
134.40795569688567
 21
20.699547626117237
  0
LINE
  8
_0-1_
  6
CONTINUOUS
 62
    7
 10
132.82802175111652
 20
19.402456392823183
 11
134.30442807884458
 21
20.87886272055124
  0
LINE
  8
_0-1_
  6
CONTINUOUS
 62
    7
 10
132.54517903864371
 20
19.402456392823467
 11
134.20090046080406
 21
21.058177814983907
  0
LINE
  8
_0-1_
  6
CONTINUOUS
 62
    7
 10
132.26233632616834
 20
19.40245639282324
 11
134.09737284276298
 21
21.237492909417739
  0
LINE
  8
_0-1_
  6
CONTINUOUS
 62
    7
 10
131.97949361369353
 20
19.402456392823467
 11
133.99384522472172
 21
21.4168080038516
  0
LINE
  8
_0-1_
  6
CONTINUOUS
 62
    7
 10
131.69665090121873
 20
19.402456392823694
 11
133.89031760668053
 21
21.596123098285318
  0
LINE
  8
_0-1_
  6
CONTINUOUS
 62
    7
 10
131.41380818874336
 20
19.402456392823353
 11
133.78678998863944
 21
21.775438192719349
  0
LINE
  8
_0-1_
  6
CONTINUOUS
 62
    7
 10
131.13096547627049
 20
19.402456392823694
 11
133.68326237059898
 21
21.954753287152045
  0
LINE
  8
_0-1_
  6
CONTINUOUS
 62
    7
 10
130.86872825614842
 20
19.423061885176651
 11
133.57973475255778
 21
22.134068381585877
  0
LINE
  8
_0-1_
  6
CONTINUOUS
 62
    7
 10
131.25509858666373
 20
20.092274928166859
 11
133.47620713451659
 21
22.313383476019794
  0
LINE
  8
_0-1_
  6
CONTINUOUS
 62
    7
 10
131.64146891718042
 20
20.761487971158658
 11
133.37267951647533
 21
22.492698570453541
  0
LINE
  8
_0-1_
  6
CONTINUOUS
 62
    7
 10
132.0278392476946
 20
21.430701014146081
 11
133.26915189843498
 21
22.672013664886435
  0
LINE
  8
_0-1_
  6
CONTINUOUS
 62
    7
 10
132.41420957821089
 20
22.09991405713734
 11
133.16562428039384
 21
22.851328759320296
  0
LINE
  8
_0-1_
  6
CONTINUOUS
 62
    7
 10
132.80057990872632
 20
22.769127100127804
 11
133.06209666235259
 21
23.0306438537541
  0
LINE
  8
_0-1_
  6
CONTINUOUS
 62
    7
 10
130.89778411246289
 20
19.473388104570915
 11
130.96871582421096
 21
19.402456392822899
  0
LINE
  8
_0-1_
  6
CONTINUOUS
 62
    7
 10
131.00131173050414
 20
19.652703199004748
 11
131.25155853668582
 21
19.402456392823012
  0
LINE
  8
_0-1_
  6
CONTINUOUS
 62
    7
 10
131.10483934854534
 20
19.832018293438551
 11
131.53440124916062
 21
19.40245639282324
  0
LINE
  8
_0-1_
  6
CONTINUOUS
 62
    7
 10
131.2083669665858
 20
20.011333387871247
 11
131.81724396163401
 21
19.402456392823012
  0
LINE
  8
_0-1_
  6
CONTINUOUS
 62
    7
 10
131.31189458462688
 20
20.190648482305193
 11
132.10008667410932
 21
19.402456392822785
  0
LINE
  8
_0-1_
  6
CONTINUOUS
 62
    7
 10
131.41542220266814
 20
20.369963576739025
 11
132.38292938658418
 21
19.402456392822955
  0
LINE
  8
_0-1_
  6
CONTINUOUS
 62
    7
 10
131.51894982070928
 20
20.549278671172857
 11
132.66577209905898
 21
19.402456392823183
  0
LINE
  8
_0-1_
  6
CONTINUOUS
 62
    7
 10
131.62247743875054
 20
20.728593765606576
 11
132.94861481153384
 21
19.402456392823467
  0
LINE
  8
_0-1_
  6
CONTINUOUS
 62
    7
 10
131.72600505679088
 20
20.907908860039527
 11
133.23145752400768
 21
19.402456392822728
  0
LINE
  8
_0-1_
  6
CONTINUOUS
 62
    7
 10
131.82953267483214
 20
21.08722395447333
 11
133.51430023648254
 21
19.402456392822955
  0
LINE
  8
_0-1_
  6
CONTINUOUS
 62
    7
 10
131.93306029287334
 20
21.266539048907049
 11
133.79714294895734
 21
19.402456392823183
  0
LINE
  8
_0-1_
  6
CONTINUOUS
 62
    7
 10
132.03658791091448
 20
21.445854143340995
 11
134.07998566143215
 21
19.402456392823353
  0
LINE
  8
_0-1_
  6
CONTINUOUS
 62
    7
 10
132.14011552895494
 20
21.62516923777369
 11
134.36282837390559
 21
19.402456392823183
  0
LINE
  8
_0-1_
  6
CONTINUOUS
 62
    7
 10
132.24364314699608
 20
21.804484332207636
 11
134.6456710863809
 21
19.402456392822899
  0
LINE
  8
_0-1_
  6
CONTINUOUS
 62
    7
 10
132.34717076503733
 20
21.983799426641355
 11
134.9285137988557
 21
19.402456392823012
  0
LINE
  8
_0-1_
  6
CONTINUOUS
 62
    7
 10
132.45069838307842
 20
22.163114521075329
 11
135.08234935063876
 21
19.531463553515096
  0
LINE
  8
_0-1_
  6
CONTINUOUS
 62
    7
 10
132.55422600111967
 20
22.342429615509133
 11
134.69597902012339
 21
20.20067659650536
  0
LINE
  8
_0-1_
  6
CONTINUOUS
 62
    7
 10
132.65775361916008
 20
22.521744709941942
 11
134.30960868960778
 21
20.869889639494119
  0
LINE
  8
_0-1_
  6
CONTINUOUS
 62
    7
 10
132.76128123720127
 20
22.701059804375774
 11
133.92323835909281
 21
21.539102682484327
  0
LINE
  8
_0-1_
  6
CONTINUOUS
 62
    7
 10
132.86480885524236
 20
22.880374898809634
 11
133.53686802857624
 21
22.208315725475842
  0
LINE
  8
_0-1_
  6
CONTINUOUS
 62
    7
 10
132.96833647328361
 20
23.059689993243552
 11
133.1504976980608
 21
22.877528768466192
  0
LINE
  8
_0-1_
  6
CONTINUOUS
 62
    7
 10
130.28781321793679
 20
13.819895418957401
 11
130.28781321793679
 21
18.029664629699312
  0
LINE
  8
_0-1_
  6
CONTINUOUS
 62
    7
 10
130.18781321793682
 20
13.819895418957401
 11
130.18781321793682
 21
18.029664629699312
  0
LINE
  8
_0-1_
  6
CONTINUOUS
 62
    7
 10
130.08781321793685
 20
13.819895418957401
 11
130.08781321793685
 21
18.029664629699312
  0
LINE
  8
_0-1_
  6
CONTINUOUS
 62
    7
 10
129.98781321793678
 20
13.819895418957401
 11
129.98781321793683
 21
18.029664629699312
  0
LINE
  8
_0-1_
  6
CONTINUOUS
 62
    7
 10
129.88781321793681
 20
13.819895418957401
 11
129.88781321793681
 21
18.029664629699312
  0
LINE
  8
_0-1_
  6
CONTINUOUS
 62
    7
 10
129.78781321793679
 20
13.819895418957401
 11
129.78781321793679
 21
18.029664629699312
  0
LINE
  8
_0-1_
  6
CONTINUOUS
 62
    7
 10
129.68781321793682
 20
13.819895418957401
 11
129.68781321793682
 21
18.029664629699312
  0
LINE
  8
_0-1_
  6
CONTINUOUS
 62
    7
 10
129.5878132179368
 20
13.819895418957401
 11
129.5878132179368
 21
18.029664629699312
  0
LINE
  8
_0-1_
  6
CONTINUOUS
 62
    7
 10
129.48781321793683
 20
13.819895418957401
 11
129.48781321793683
 21
18.029664629699312
  0
LINE
  8
_0-1_
  6
CONTINUOUS
 62
    7
 10
129.38781321793681
 20
13.819895418957401
 11
129.38781321793681
 21
18.029664629699312
  0
LINE
  8
_0-1_
  6
CONTINUOUS
 62
    7
 10
129.28781321793679
 20
13.819895418957401
 11
129.28781321793679
 21
18.029664629699312
  0
LINE
  8
_0-1_
  6
CONTINUOUS
 62
    7
 10
129.18781321793676
 20
13.819895418957401
 11
129.18781321793676
 21
18.029664629699312
  0
LINE
  8
_0-1_
  6
CONTINUOUS
 62
    7
 10
129.08781321793685
 20
13.819895418957401
 11
129.08781321793685
 21
18.029664629699312
  0
LINE
  8
_0-1_
  6
CONTINUOUS
 62
    7
 10
128.98781321793683
 20
13.819895418957401
 11
128.98781321793683
 21
18.029664629699312
  0
LINE
  8
_0-1_
  6
CONTINUOUS
 62
    7
 10
128.88781321793681
 20
13.819895418957401
 11
128.88781321793681
 21
18.029664629699312
  0
LINE
  8
_0-1_
  6
CONTINUOUS
 62
    7
 10
128.78781321793679
 20
13.819895418957401
 11
128.78781321793679
 21
18.029664629699312
  0
LINE
  8
_0-1_
  6
CONTINUOUS
 62
    7
 10
128.68781321793682
 20
13.819895418957401
 11
128.68781321793682
 21
18.029664629699312
  0
LINE
  8
_0-1_
  6
CONTINUOUS
 62
    7
 10
128.5878132179368
 20
13.819895418957401
 11
128.5878132179368
 21
18.029664629699312
  0
LINE
  8
_0-1_
  6
CONTINUOUS
 62
    7
 10
128.48781321793683
 20
13.819895418957401
 11
128.48781321793683
 21
18.029664629699312
  0
LINE
  8
_0-1_
  6
CONTINUOUS
 62
    7
 10
128.38781321793681
 20
13.819895418957401
 11
128.38781321793681
 21
18.029664629699312
  0
LINE
  8
_0-1_
  6
CONTINUOUS
 62
    7
 10
128.28781321793679
 20
13.819895418957401
 11
128.28781321793679
 21
18.029664629699312
  0
LINE
  8
_0-1_
  6
CONTINUOUS
 62
    7
 10
128.18781321793682
 20
13.819895418957401
 11
128.18781321793682
 21
18.029664629699312
  0
LINE
  8
_0-1_
  6
CONTINUOUS
 62
    7
 10
128.0878132179368
 20
13.819895418957401
 11
128.0878132179368
 21
18.029664629699312
  0
LINE
  8
_0-1_
  6
CONTINUOUS
 62
    7
 10
127.98781321793683
 20
13.819895418957401
 11
127.98781321793683
 21
18.029664629699312
  0
LINE
  8
_0-1_
  6
CONTINUOUS
 62
    7
 10
127.88781321793681
 20
13.819895418957401
 11
127.88781321793681
 21
18.029664629699312
  0
LINE
  8
_0-1_
  6
CONTINUOUS
 62
    7
 10
127.78781321793679
 20
13.819895418957401
 11
127.78781321793679
 21
18.029664629699312
  0
LINE
  8
_0-1_
  6
CONTINUOUS
 62
    7
 10
127.68781321793682
 20
13.819895418957401
 11
127.68781321793682
 21
18.029664629699312
  0
LINE
  8
_0-1_
  6
CONTINUOUS
 62
    7
 10
127.58781321793685
 20
13.819895418957401
 11
127.58781321793685
 21
18.029664629699312
  0
LINE
  8
_0-1_
  6
CONTINUOUS
 62
    7
 10
127.48781321793683
 20
13.819895418957401
 11
127.48781321793683
 21
18.029664629699312
  0
LINE
  8
_0-1_
  6
CONTINUOUS
 62
    7
 10
127.38781321793681
 20
13.819895418957401
 11
127.38781321793681
 21
18.029664629699312
  0
LINE
  8
_0-1_
  6
CONTINUOUS
 62
    7
 10
127.28781321793679
 20
13.819895418957401
 11
127.28781321793679
 21
18.029664629699312
  0
LINE
  8
_0-1_
  6
CONTINUOUS
 62
    7
 10
127.18781321793682
 20
13.819895418957401
 11
127.18781321793682
 21
18.029664629699312
  0
LINE
  8
_0-1_
  6
CONTINUOUS
 62
    7
 10
127.0878132179368
 20
13.819895418957401
 11
127.0878132179368
 21
18.029664629699312
  0
LINE
  8
_0-1_
  6
CONTINUOUS
 62
    7
 10
126.98781321793683
 20
13.819895418957401
 11
126.98781321793683
 21
18.029664629699312
  0
LINE
  8
_0-1_
  6
CONTINUOUS
 62
    7
 10
126.88781321793681
 20
13.819895418957401
 11
126.88781321793681
 21
18.029664629699312
  0
LINE
  8
_0-1_
  6
CONTINUOUS
 62
    7
 10
126.78781321793684
 20
13.819895418957401
 11
126.78781321793684
 21
18.029664629699312
  0
LINE
  8
_0-1_
  6
CONTINUOUS
 62
    7
 10
126.68781321793676
 20
13.819895418957401
 11
126.68781321793676
 21
18.029664629699312
  0
LINE
  8
_0-1_
  6
CONTINUOUS
 62
    7
 10
126.5878132179368
 20
13.819895418957401
 11
126.5878132179368
 21
18.029664629699312
  0
LINE
  8
_0-1_
  6
CONTINUOUS
 62
    7
 10
126.48781321793683
 20
13.819895418957401
 11
126.48781321793683
 21
18.029664629699312
  0
LINE
  8
_0-1_
  6
CONTINUOUS
 62
    7
 10
126.38781321793681
 20
13.819895418957401
 11
126.38781321793681
 21
18.029664629699312
  0
LINE
  8
_0-1_
  6
CONTINUOUS
 62
    7
 10
126.28781321793679
 20
13.819895418957401
 11
126.28781321793679
 21
18.029664629699312
  0
LINE
  8
_0-1_
  6
CONTINUOUS
 62
    7
 10
126.18781321793682
 20
13.819895418957401
 11
126.18781321793682
 21
18.029664629699312
  0
LINE
  8
_0-1_
  6
CONTINUOUS
 62
    4
 10
128.48756076542122
 20
21.106798012640326
 11
122.79740237527949
 21
13.69797953731296
  0
LINE
  8
_0-1_
  6
CONTINUOUS
 62
    4
 10
122.79740237527949
 20
13.69797953731296
 11
122.23999910440841
 21
13.465728174449907
  0
LINE
  8
_0-1_
  6
CONTINUOUS
 62
    4
 10
122.23999910440841
 20
13.465728174449907
 11
121.72904610610999
 21
13.279927084159681
  0
LINE
  8
_0-1_
  6
CONTINUOUS
 62
    4
 10
121.72904610610999
 20
13.279927084159681
 11
121.45034447067451
 21
13.535403583308778
  0
LINE
  8
_0-1_
  6
CONTINUOUS
 62
    4
 10
121.45034447067451
 20
13.535403583308778
 11
121.21809310781157
 21
13.860555491316916
  0
LINE
  8
_0-1_
  6
CONTINUOUS
 62
    4
 10
121.21809310781157
 20
13.860555491316916
 11
121.03229201752117
 21
14.487634171046807
  0
LINE
  8
_0-1_
  6
CONTINUOUS
 62
    4
 10
121.03229201752117
 20
14.487634171046807
 11
121.21809310781157
 21
15.068262578204212
  0
LINE
  8
_0-1_
  6
CONTINUOUS
 62
    4
 10
121.21809310781157
 20
15.068262578204212
 11
121.91484719640033
 21
16.066943438514784
  0
LINE
  8
_0-1_
  6
CONTINUOUS
 62
    4
 10
121.91484719640033
 20
16.066943438514784
 11
127.16372799710257
 21
23.173835142120424
  0
LINE
  8
_0-1_
  6
CONTINUOUS
 62
    4
 10
127.16372799710257
 20
23.173835142120424
 11
127.16372799710257
 21
23.68478814041876
  0
LINE
  8
_0-1_
  6
CONTINUOUS
 62
    4
 10
127.16372799710257
 20
23.68478814041876
 11
127.30307881482031
 21
24.009940048426898
  0
LINE
  8
_0-1_
  6
CONTINUOUS
 62
    4
 10
127.30307881482031
 20
24.009940048426898
 11
127.67468099540099
 21
24.427992501580206
  0
LINE
  8
_0-1_
  6
CONTINUOUS
 62
    4
 10
127.67468099540099
 20
24.427992501580206
 11
127.79080667683246
 21
24.544118183011534
  0
LINE
  8
_0-1_
  6
CONTINUOUS
 62
    4
 10
127.79080667683246
 20
24.544118183011534
 11
127.99983290340913
 21
24.846044954733458
  0
LINE
  8
_0-1_
  6
CONTINUOUS
 62
    4
 10
127.99983290340913
 20
24.846044954733458
 11
128.34820994770348
 21
24.892495227306
  0
LINE
  8
_0-1_
  6
CONTINUOUS
 62
    4
 10
128.34820994770348
 20
24.892495227306
 11
128.9520634911471
 21
25.008620908737527
  0
LINE
  8
_0-1_
  6
CONTINUOUS
 62
    4
 10
128.9520634911471
 20
25.008620908737527
 11
129.18431485401004
 21
24.985395772451199
  0
LINE
  8
_0-1_
  6
CONTINUOUS
 62
    4
 10
129.18431485401004
 20
24.985395772451199
 11
129.67204271602219
 21
24.82281981844713
  0
LINE
  8
_0-1_
  6
CONTINUOUS
 62
    4
 10
129.67204271602219
 20
24.82281981844713
 11
129.85784380631253
 21
24.590568455584304
  0
LINE
  8
_0-1_
  6
CONTINUOUS
 62
    4
 10
129.85784380631253
 20
24.590568455584304
 11
130.36879680461095
 21
23.9170395032817
  0
LINE
  8
_0-1_
  6
CONTINUOUS
 62
    4
 10
130.36879680461095
 20
23.9170395032817
 11
131.94810607207887
 21
21.292599102930609
  0
LINE
  8
_0-1_
  6
CONTINUOUS
 62
    4
 10
133.06696887286444
 20
19.40245639282324
 11
135.31484055389365
 21
15.52210202747159
  0
LINE
  8
_0-1_
  6
CONTINUOUS
 62
    4
 10
135.31484055389365
 20
15.52210202747159
 11
135.53039478630217
 21
14.967819715563962
  0
LINE
  8
_0-1_
  6
CONTINUOUS
 62
    4
 10
135.53039478630217
 20
14.967819715563962
 11
135.43801440098423
 21
14.690678559610262
  0
LINE
  8
_0-1_
  6
CONTINUOUS
 62
    4
 10
135.43801440098423
 20
14.690678559610262
 11
135.16087324503047
 21
14.305760287452188
  0
LINE
  8
_0-1_
  6
CONTINUOUS
 62
    4
 10
135.16087324503047
 20
14.305760287452188
 11
134.08310208298792
 21
13.982428938839405
  0
LINE
  8
_0-1_
  6
CONTINUOUS
 62
    4
 10
134.08310208298792
 20
13.982428938839405
 11
133.43643938576241
 21
13.75147797554456
  0
LINE
  8
_0-1_
  6
CONTINUOUS
 62
    4
 10
133.43643938576241
 20
13.75147797554456
 11
132.86676034296852
 21
13.982428938839405
  0
LINE
  8
_0-1_
  6
CONTINUOUS
 62
    4
 10
132.86676034296852
 20
13.982428938839405
 11
131.98914668244817
 21
14.92162952290505
  0
LINE
  8
_0-1_
  6
CONTINUOUS
 62
    4
 10
131.98914668244817
 20
14.92162952290505
 11
131.95835322067552
 21
15.429721642153652
  0
LINE
  8
_0-1_
  6
CONTINUOUS
 62
    4
 10
131.95835322067552
 20
15.429721642153652
 11
128.48756076542122
 21
21.106798012640326
  0
LINE
  8
_0-1_
  6
CONTINUOUS
 62
    4
 10
135.05282028082405
 20
14.273344398190773
 11
135.35536858060317
 21
14.575892697970005
  0
LINE
  8
_0-1_
  6
CONTINUOUS
 62
    4
 10
134.64875926300442
 20
14.152126092844412
 11
135.51193105414023
 21
15.015297883980281
  0
LINE
  8
_0-1_
  6
CONTINUOUS
 62
    4
 10
134.24469824518297
 20
14.030907787497938
 11
135.43273509464717
 21
15.218944636962192
  0
LINE
  8
_0-1_
  6
CONTINUOUS
 62
    4
 10
133.81908479575054
 20
13.888137050540536
 11
135.35353913515405
 21
15.422591389944159
  0
LINE
  8
_0-1_
  6
CONTINUOUS
 62
    4
 10
133.41021465563028
 20
13.762109622895423
 11
135.26178808289671
 21
15.61368305016174
  0
LINE
  8
_0-1_
  6
CONTINUOUS
 62
    4
 10
133.20896118713983
 20
13.843698866878128
 11
135.15803960515746
 21
15.792777284895806
  0
LINE
  8
_0-1_
  6
CONTINUOUS
 62
    4
 10
133.00770771864813
 20
13.925288110861402
 11
135.05429112741763
 21
15.971871519630952
  0
LINE
  8
_0-1_
  6
CONTINUOUS
 62
    4
 10
132.82581960565841
 20
14.026242710346821
 11
134.95054264967769
 21
16.150965754366098
  0
LINE
  8
_0-1_
  6
CONTINUOUS
 62
    4
 10
132.68919219370014
 20
14.172458010863522
 11
134.84679417193774
 21
16.33005998910113
  0
LINE
  8
_0-1_
  6
CONTINUOUS
 62
    4
 10
132.55256478174186
 20
14.318673311380167
 11
134.74304569419792
 21
16.509154223836333
  0
LINE
  8
_0-1_
  6
CONTINUOUS
 62
    4
 10
132.4159373697845
 20
14.464888611896129
 11
134.63929721645866
 21
16.688248458570229
  0
LINE
  8
_0-1_
  6
CONTINUOUS
 62
    4
 10
132.27930995782617
 20
14.61110391241283
 11
134.53554873871877
 21
16.867342693305375
  0
LINE
  8
_0-1_
  6
CONTINUOUS
 62
    4
 10
132.1426825458679
 20
14.757319212929644
 11
134.43180026097878
 21
17.046436928040464
  0
LINE
  8
_0-1_
  6
CONTINUOUS
 62
    4
 10
132.00605513390963
 20
14.903534513446232
 11
134.32805178323883
 21
17.22553116277561
  0
LINE
  8
_0-1_
  6
CONTINUOUS
 62
    4
 10
131.97498443950252
 20
15.155306531512394
 11
134.22430330549969
 21
17.404625397509619
  0
LINE
  8
_0-1_
  6
CONTINUOUS
 62
    4
 10
131.95882199878963
 20
15.421986803274535
 11
134.1205548277598
 21
17.583719632244708
  0
LINE
  8
_0-1_
  6
CONTINUOUS
 62
    4
 10
131.85415241514653
 20
15.600159932106465
 11
134.01680635001986
 21
17.762813866979798
  0
LINE
  8
_0-1_
  6
CONTINUOUS
 62
    4
 10
131.74683907570289
 20
15.775689305137917
 11
133.91305787227986
 21
17.941908101714887
  0
LINE
  8
_0-1_
  6
CONTINUOUS
 62
    4
 10
131.63952573625943
 20
15.951218678169482
 11
133.80930939453998
 21
18.121002336449976
  0
LINE
  8
_0-1_
  6
CONTINUOUS
 62
    4
 10
131.53221239681648
 20
16.126748051199741
 11
133.70556091680078
 21
18.300096571184042
  0
LINE
  8
_0-1_
  6
CONTINUOUS
 62
    4
 10
131.42489905737295
 20
16.302277424231249
 11
133.60181243906089
 21
18.479190805919131
  0
LINE
  8
_0-1_
  6
CONTINUOUS
 62
    4
 10
131.31758571792932
 20
16.477806797262645
 11
133.49806396132095
 21
18.658285040654278
  0
LINE
  8
_0-1_
  6
CONTINUOUS
 62
    4
 10
131.21027237848568
 20
16.653336170294097
 11
133.39431548358101
 21
18.83737927538931
  0
LINE
  8
_0-1_
  6
CONTINUOUS
 62
    4
 10
131.10295903904284
 20
16.828865543324468
 11
133.29056700584181
 21
19.016473510123319
  0
LINE
  8
_0-1_
  6
CONTINUOUS
 62
    4
 10
130.99564569959938
 20
17.004394916356091
 11
133.18681852810192
 21
19.195567744858636
  0
LINE
  8
_0-1_
  6
CONTINUOUS
 62
    4
 10
130.8883323601558
 20
17.179924289387429
 11
133.08307005036198
 21
19.374661979593611
  0
LINE
  8
_0-1_
  6
CONTINUOUS
 62
    4
 10
130.78101902071217
 20
17.355453662418824
 11
132.82802175111652
 21
19.402456392823183
  0
LINE
  8
_0-1_
  6
CONTINUOUS
 62
    4
 10
130.67370568126927
 20
17.530983035449083
 11
132.54517903864371
 21
19.402456392823467
  0
LINE
  8
_0-1_
  6
CONTINUOUS
 62
    4
 10
130.56639234182575
 20
17.706512408480705
 11
132.26233632616834
 21
19.40245639282324
  0
LINE
  8
_0-1_
  6
CONTINUOUS
 62
    4
 10
130.45907900238217
 20
17.8820417815121
 11
131.97949361369353
 21
19.402456392823467
  0
LINE
  8
_0-1_
  6
CONTINUOUS
 62
    4
 10
130.35176566293865
 20
18.057571154543496
 11
131.69665090121873
 21
19.402456392823694
  0
LINE
  8
_0-1_
  6
CONTINUOUS
 62
    4
 10
130.24445232349507
 20
18.233100527575061
 11
131.41380818874336
 21
19.402456392823353
  0
LINE
  8
_0-1_
  6
CONTINUOUS
 62
    4
 10
130.13713898405217
 20
18.408629900605376
 11
131.13096547627049
 21
19.402456392823694
  0
LINE
  8
_0-1_
  6
CONTINUOUS
 62
    4
 10
130.02982564460865
 20
18.584159273636885
 11
130.86872825614842
 21
19.423061885176651
  0
LINE
  8
_0-1_
  6
CONTINUOUS
 62
    4
 10
129.92251230516507
 20
18.75968864666828
 11
131.25509858666373
 21
20.092274928166859
  0
LINE
  8
_0-1_
  6
CONTINUOUS
 62
    4
 10
129.81519896572144
 20
18.935218019699619
 11
131.64146891718042
 21
20.761487971158658
  0
LINE
  8
_0-1_
  6
CONTINUOUS
 62
    4
 10
129.70788562627854
 20
19.110747392730048
 11
131.92617748632892
 21
21.329039252780291
  0
LINE
  8
_0-1_
  6
CONTINUOUS
 62
    4
 10
129.60057228683507
 20
19.286276765761613
 11
131.81991613578577
 21
21.5056206147122
  0
LINE
  8
_0-1_
  6
CONTINUOUS
 62
    4
 10
129.4932589473915
 20
19.461806138792952
 11
131.71365478524257
 21
21.682201976644137
  0
LINE
  8
_0-1_
  6
CONTINUOUS
 62
    4
 10
129.38594560794786
 20
19.637335511824432
 11
131.60739343469942
 21
21.858783338575932
  0
LINE
  8
_0-1_
  6
CONTINUOUS
 62
    4
 10
129.27863226850428
 20
19.812864884855941
 11
131.50113208415638
 21
22.035364700507813
  0
LINE
  8
_0-1_
  6
CONTINUOUS
 62
    4
 10
129.1713189290615
 20
19.988394257886313
 11
131.39487073361397
 21
22.21194606243867
  0
LINE
  8
_0-1_
  6
CONTINUOUS
 62
    4
 10
122.45567515367941
 20
13.555593194979281
 11
123.45738231339425
 21
14.557300354694064
  0
LINE
  8
_0-1_
  6
CONTINUOUS
 62
    4
 10
129.06400558961792
 20
20.163923630917623
 11
131.28860938307088
 21
22.388527424370693
  0
LINE
  8
_0-1_
  6
CONTINUOUS
 62
    4
 10
121.99323502997032
 20
13.375995783745054
 11
124.39382102361424
 21
15.77658177738914
  0
LINE
  8
_0-1_
  6
CONTINUOUS
 62
    4
 10
128.95669225017429
 20
20.339453003949103
 11
131.18234803252773
 21
22.565108786302545
  0
LINE
  8
_0-1_
  6
CONTINUOUS
 62
    4
 10
121.6691908948751
 20
13.334794361124921
 11
125.3302597338365
 21
16.995863200086376
  0
LINE
  8
_0-1_
  6
CONTINUOUS
 62
    4
 10
128.84937891073071
 20
20.514982376980583
 11
131.07608668198452
 21
22.741690148234426
  0
LINE
  8
_0-1_
  6
CONTINUOUS
 62
    4
 10
121.52162078401949
 20
13.470066962742692
 11
126.26669844405114
 21
18.215144622774289
  0
LINE
  8
_0-1_
  6
CONTINUOUS
 62
    4
 10
128.74206557128787
 20
20.690511750010984
 11
130.96982533144222
 21
22.918271510165283
  0
LINE
  8
_0-1_
  6
CONTINUOUS
 62
    4
 10
121.38941539627285
 20
13.620704287471028
 11
127.20313715427426
 21
19.434426045472378
  0
LINE
  8
_0-1_
  6
CONTINUOUS
 62
    4
 10
128.63475223184435
 20
20.866041123042521
 11
130.86356398089902
 21
23.094852872097164
  0
LINE
  8
_0-1_
  6
CONTINUOUS
 62
    4
 10
121.27156426607496
 20
13.785695869748054
 11
128.13957586449521
 21
20.653707468168278
  0
LINE
  8
_0-1_
  6
CONTINUOUS
 62
    4
 10
128.52743889240071
 20
21.041570496073803
 11
130.75730263035598
 21
23.271434234029073
  0
LINE
  8
_0-1_
  6
CONTINUOUS
 62
    4
 10
121.18277609463581
 20
13.979750410783993
 11
130.65104127981283
 21
23.44801559596101
  0
LINE
  8
_0-1_
  6
CONTINUOUS
 62
    4
 10
121.11812633178465
 20
14.197943360407919
 11
130.54477992926968
 21
23.624596957892834
  0
LINE
  8
_0-1_
  6
CONTINUOUS
 62
    4
 10
121.05347656893355
 20
14.416136310030026
 11
130.43851857872733
 21
23.801178319823777
  0
LINE
  8
_0-1_
  6
CONTINUOUS
 62
    4
 10
121.12177921754289
 20
14.767281671114404
 11
130.32684161622251
 21
23.972344069793991
  0
LINE
  8
_0-1_
  6
CONTINUOUS
 62
    4
 10
121.39849855931868
 20
15.326843725365222
 11
130.20483103437044
 21
24.133176200416898
  0
LINE
  8
_0-1_
  6
CONTINUOUS
 62
    4
 10
122.081781069253
 20
16.292968947774625
 11
130.08282045251849
 21
24.294008331039919
  0
LINE
  8
_0-1_
  6
CONTINUOUS
 62
    4
 10
122.88081173198697
 20
17.374842322981863
 11
129.96080987066728
 21
24.45484046166203
  0
LINE
  8
_0-1_
  6
CONTINUOUS
 62
    4
 10
123.67984239472946
 20
18.456715698199218
 11
129.83822218222451
 21
24.615095485694269
  0
LINE
  8
_0-1_
  6
CONTINUOUS
 62
    4
 10
124.47887305747065
 20
19.538589073415437
 11
129.71251431001338
 21
24.772230325958105
  0
LINE
  8
_0-1_
  6
CONTINUOUS
 62
    4
 10
125.27790372021428
 20
20.6204624486341
 11
129.52820649652614
 21
24.870765224945842
  0
LINE
  8
_0-1_
  6
CONTINUOUS
 62
    4
 10
126.07693438295439
 20
21.702335823849268
 11
129.31607446216992
 21
24.941475903064799
  0
LINE
  8
_0-1_
  6
CONTINUOUS
 62
    4
 10
126.87596504569171
 20
22.784209199059688
 11
129.08689373134933
 21
24.995137884717366
  0
LINE
  8
_0-1_
  6
CONTINUOUS
 62
    4
 10
127.16372799710285
 20
23.354814862946
 11
128.78550322188164
 21
24.976590087724674
  0
LINE
  8
_0-1_
  6
CONTINUOUS
 62
    4
 10
127.16372799710274
 20
23.637657575420832
 11
128.43531700643672
 21
24.909246584754811
  0
LINE
  8
_0-1_
  6
CONTINUOUS
 62
    4
 10
127.79859344221268
 20
24.555365733005743
 11
128.10303262709937
 21
24.85980491789249
  0
LINE
  8
_0-1_
  6
CONTINUOUS
 62
    4
 10
121.21008588916851
 20
13.887579854235526
 11
121.79408731174198
 21
13.303578431662061
  0
LINE
  8
_0-1_
  6
CONTINUOUS
 62
    4
 10
121.09099422075849
 20
14.289514235120578
 11
122.00150530089024
 21
13.379003154988766
  0
LINE
  8
_0-1_
  6
CONTINUOUS
 62
    4
 10
121.06706170959058
 20
14.596289458763465
 11
122.20892329003846
 21
13.454427878315585
  0
LINE
  8
_0-1_
  6
CONTINUOUS
 62
    4
 10
121.13562963988761
 20
14.81056424094146
 11
122.40974023521113
 21
13.536453645617883
  0
LINE
  8
_0-1_
  6
CONTINUOUS
 62
    4
 10
121.20419757018402
 20
15.024839023118318
 11
122.60939391460403
 21
13.619642678698199
  0
LINE
  8
_0-1_
  6
CONTINUOUS
 62
    4
 10
121.31077404743951
 20
15.201105258337805
 11
122.80456879607783
 21
13.707310509699425
  0
LINE
  8
_0-1_
  6
CONTINUOUS
 62
    4
 10
121.42701077859368
 20
15.367711239658718
 11
122.92743486798634
 21
13.867287150266009
  0
LINE
  8
_0-1_
  6
CONTINUOUS
 62
    4
 10
121.5432475097478
 20
15.534317220979574
 11
123.05030093989484
 21
14.027263790832592
  0
LINE
  8
_0-1_
  6
CONTINUOUS
 62
    4
 10
121.65948424090124
 20
15.700923202299407
 11
123.1731670118026
 21
14.187240431397981
  0
LINE
  8
_0-1_
  6
CONTINUOUS
 62
    4
 10
121.7757209720553
 20
15.86752918362032
 11
123.29603308371094
 21
14.347217071964621
  0
LINE
  8
_0-1_
  6
CONTINUOUS
 62
    4
 10
121.89195770320936
 20
16.034135164941347
 11
123.4188991556195
 21
14.507193712531205
  0
LINE
  8
_0-1_
  6
CONTINUOUS
 62
    4
 10
122.0113411019089
 20
16.197594478716894
 11
123.54176522752795
 21
14.667170353097845
  0
LINE
  8
_0-1_
  6
CONTINUOUS
 62
    4
 10
122.13149608878666
 20
16.360282204312227
 11
123.66463129943571
 21
14.827146993663234
  0
LINE
  8
_0-1_
  6
CONTINUOUS
 62
    4
 10
122.25165107566517
 20
16.522969929908754
 11
123.7874973713441
 21
14.987123634229818
  0
LINE
  8
_0-1_
  6
CONTINUOUS
 62
    4
 10
122.37180606254367
 20
16.685657655505395
 11
123.91036344325255
 21
15.147100274796287
  0
LINE
  8
_0-1_
  6
CONTINUOUS
 62
    4
 10
122.49196104942206
 20
16.848345381101865
 11
124.03322951516111
 21
15.30707691536287
  0
LINE
  8
_0-1_
  6
CONTINUOUS
 62
    4
 10
122.61211603630062
 20
17.011033106698449
 11
124.15609558706961
 21
15.467053555929454
  0
LINE
  8
_0-1_
  6
CONTINUOUS
 62
    4
 10
122.73227102317838
 20
17.173720832293895
 11
124.27896165897732
 21
15.62703019649507
  0
LINE
  8
_0-1_
  6
CONTINUOUS
 62
    4
 10
122.85242601005683
 20
17.336408557890479
 11
124.40182773088571
 21
15.787006837061654
  0
LINE
  8
_0-1_
  6
CONTINUOUS
 62
    4
 10
122.97258099693528
 20
17.499096283487063
 11
124.52469380279422
 21
15.946983477628066
  0
LINE
  8
_0-1_
  6
CONTINUOUS
 62
    4
 10
123.09273598381378
 20
17.661784009083533
 11
124.64755987470272
 21
16.10696011819465
  0
LINE
  8
_0-1_
  6
CONTINUOUS
 62
    4
 10
123.21289097069155
 20
17.82447173467898
 11
124.77042594661043
 21
16.266936758760096
  0
LINE
  8
_0-1_
  6
CONTINUOUS
 62
    4
 10
123.33304595756999
 20
17.987159460275564
 11
124.89329201851882
 21
16.426913399326679
  0
LINE
  8
_0-1_
  6
CONTINUOUS
 62
    4
 10
123.4532009444485
 20
18.149847185872147
 11
125.01615809042733
 21
16.586890039893262
  0
LINE
  8
_0-1_
  6
CONTINUOUS
 62
    4
 10
123.573355931327
 20
18.312534911468731
 11
125.13902416233589
 21
16.746866680459846
  0
LINE
  8
_0-1_
  6
CONTINUOUS
 62
    4
 10
123.6935109182055
 20
18.475222637065201
 11
125.26189023424433
 21
16.906843321026429
  0
LINE
  8
_0-1_
  6
CONTINUOUS
 62
    4
 10
123.81366590508327
 20
18.637910362660648
 11
125.38475630615204
 21
17.066819961591875
  0
LINE
  8
_0-1_
  6
CONTINUOUS
 62
    4
 10
123.93382089196172
 20
18.800598088257232
 11
125.50762237806043
 21
17.226796602158458
  0
LINE
  8
_0-1_
  6
CONTINUOUS
 62
    4
 10
124.05397587884022
 20
18.963285813853815
 11
125.63048844996899
 21
17.386773242725042
  0
LINE
  8
_0-1_
  6
CONTINUOUS
 62
    4
 10
124.17413086571867
 20
19.125973539450172
 11
125.7533545218775
 21
17.546749883291511
  0
LINE
  8
_0-1_
  6
CONTINUOUS
 62
    4
 10
124.29428585259643
 20
19.288661265045903
 11
125.87622059378515
 21
17.706726523857071
  0
LINE
  8
_0-1_
  6
CONTINUOUS
 62
    4
 10
124.41444083947493
 20
19.451348990642202
 11
125.9990866656936
 21
17.866703164423654
  0
LINE
  8
_0-1_
  6
CONTINUOUS
 62
    4
 10
124.53459582635338
 20
19.6140367162389
 11
126.1219527376021
 21
18.026679804990238
  0
LINE
  8
_0-1_
  6
CONTINUOUS
 62
    4
 10
124.65475081323189
 20
19.776724441835484
 11
126.2448188095106
 21
18.186656445556707
  0
LINE
  8
_0-1_
  6
CONTINUOUS
 62
    4
 10
124.77490580011039
 20
19.939412167431811
 11
126.36768488141905
 21
18.346633086123234
  0
LINE
  8
_0-1_
  6
CONTINUOUS
 62
    4
 10
124.89506078698815
 20
20.102099893027372
 11
126.49055095332676
 21
18.506609726688851
  0
LINE
  8
_0-1_
  6
CONTINUOUS
 62
    4
 10
125.0152157738666
 20
20.26478761862387
 11
126.61341702523521
 21
18.66658636725532
  0
LINE
  8
_0-1_
  6
CONTINUOUS
 62
    4
 10
125.1353707607451
 20
20.427475344220426
 11
126.73628309714371
 21
18.826563007821903
  0
LINE
  8
_0-1_
  6
CONTINUOUS
 62
    4
 10
125.25552574762355
 20
20.59016306981701
 11
126.85914916905222
 21
18.986539648388373
  0
LINE
  8
_0-1_
  6
CONTINUOUS
 62
    4
 10
125.37568073450132
 20
20.752850795412542
 11
126.98201524095987
 21
19.146516288954047
  0
LINE
  8
_0-1_
  6
CONTINUOUS
 62
    4
 10
125.49583572137982
 20
20.91553852100904
 11
127.10488131286832
 21
19.30649292952063
  0
LINE
  8
_0-1_
  6
CONTINUOUS
 62
    4
 10
125.61599070825832
 20
21.078226246605595
 11
127.22774738477682
 21
19.466469570087042
  0
LINE
  8
_0-1_
  6
CONTINUOUS
 62
    4
 10
125.73614569513677
 20
21.240913972202094
 11
127.35061345668532
 21
19.626446210653455
  0
LINE
  8
_0-1_
  6
CONTINUOUS
 62
    4
 10
131.98487033006245
 20
14.992189337276443
 11
133.08181508227023
 21
13.89524458506861
  0
LINE
  8
_0-1_
  6
CONTINUOUS
 62
    4
 10
125.85630068201533
 20
21.403601697798678
 11
127.47347952859377
 21
19.78642285122001
  0
LINE
  8
_0-1_
  6
CONTINUOUS
 62
    4
 10
131.96662241312794
 20
15.293279966686043
 11
133.48948097834648
 21
13.770421401467502
  0
LINE
  8
_0-1_
  6
CONTINUOUS
 62
    4
 10
125.97645566889298
 20
21.566289423394238
 11
127.59634560050148
 21
19.946399491785684
  0
LINE
  8
_0-1_
  6
CONTINUOUS
 62
    4
 10
131.71503536763362
 20
15.827709724653573
 11
133.69789139806358
 21
13.844853694223673
  0
LINE
  8
_0-1_
  6
CONTINUOUS
 62
    4
 10
126.09661065577154
 20
21.728977148990595
 11
127.71921167240998
 21
20.106376132352182
  0
LINE
  8
_0-1_
  6
CONTINUOUS
 62
    4
 10
131.27008431409831
 20
16.555503490663853
 11
133.90630181778198
 21
13.919285986980242
  0
LINE
  8
_0-1_
  6
CONTINUOUS
 62
    4
 10
126.21676564264999
 20
21.891664874587178
 11
127.84207774431843
 21
20.266352772918736
  0
LINE
  8
_0-1_
  6
CONTINUOUS
 62
    4
 10
130.82513326056312
 20
17.283297256674075
 11
134.11610169484163
 21
13.992328822395621
  0
LINE
  8
_0-1_
  6
CONTINUOUS
 62
    4
 10
126.33692062952849
 20
22.054352600183677
 11
127.96494381622693
 21
20.42632941348532
  0
LINE
  8
_0-1_
  6
CONTINUOUS
 62
    4
 10
130.38018220702452
 20
18.011091022687708
 11
134.33367301212996
 21
14.057600217582205
  0
LINE
  8
_0-1_
  6
CONTINUOUS
 62
    4
 10
126.4570756164062
 20
22.217040325779209
 11
128.08780988813459
 21
20.58630605405088
  0
LINE
  8
_0-1_
  6
CONTINUOUS
 62
    4
 10
129.93523115349177
 20
18.738884788693724
 11
134.55124432941739
 21
14.122871612768051
  0
LINE
  8
_0-1_
  6
CONTINUOUS
 62
    4
 10
126.5772306032847
 20
22.379728051375764
 11
128.21067596004309
 21
20.746282694617491
  0
LINE
  8
_0-1_
  6
CONTINUOUS
 62
    4
 10
129.49028009995658
 20
19.466678554703833
 11
134.76881564670578
 21
14.188143007954693
  0
LINE
  8
_0-1_
  6
CONTINUOUS
 62
    4
 10
126.69738559016321
 20
22.542415776972263
 11
128.33354203195154
 21
20.906259335183933
  0
LINE
  8
_0-1_
  6
CONTINUOUS
 62
    4
 10
129.04532904642133
 20
20.194472320714226
 11
134.98638696399411
 21
14.253414403141392
  0
LINE
  8
_0-1_
  6
CONTINUOUS
 62
    4
 10
126.81754057704165
 20
22.705103502568846
 11
128.4564081038601
 21
21.066235975750516
  0
LINE
  8
_0-1_
  6
CONTINUOUS
 62
    4
 10
128.60037799288597
 20
20.922266086724477
 11
135.18431952057244
 21
14.338324559038085
  0
LINE
  8
_0-1_
  6
CONTINUOUS
 62
    4
 10
126.93769556392016
 20
22.867791228165316
 11
135.30271879556193
 21
14.50276799652363
  0
LINE
  8
_0-1_
  6
CONTINUOUS
 62
    4
 10
127.05785055079787
 20
23.030478953760877
 11
135.42111807055056
 21
14.667211434008152
  0
LINE
  8
_0-1_
  6
CONTINUOUS
 62
    4
 10
127.16372799710308
 20
23.207444219930636
 11
130.89778411246289
 21
19.473388104570915
  0
LINE
  8
_0-1_
  6
CONTINUOUS
 62
    4
 10
130.96871582421096
 20
19.402456392822899
 11
135.498634215094
 21
14.872538001939859
  0
LINE
  8
_0-1_
  6
CONTINUOUS
 62
    4
 10
127.16372799710268
 20
23.490286932406008
 11
131.00131173050414
 21
19.652703199004748
  0
LINE
  8
_0-1_
  6
CONTINUOUS
 62
    4
 10
131.25155853668582
 20
19.402456392823012
 11
135.4312490596206
 21
15.222765869888292
  0
LINE
  8
_0-1_
  6
CONTINUOUS
 62
    4
 10
127.19023044844135
 20
23.746627193542423
 11
131.10483934854534
 21
19.832018293438551
  0
LINE
  8
_0-1_
  6
CONTINUOUS
 62
    4
 10
131.53440124916062
 20
19.40245639282324
 11
135.17726100255641
 21
15.759596639427457
  0
LINE
  8
_0-1_
  6
CONTINUOUS
 62
    4
 10
127.2750832621831
 20
23.944617092274058
 11
131.2083669665858
 21
20.011333387871247
  0
LINE
  8
_0-1_
  6
CONTINUOUS
 62
    4
 10
131.81724396163401
 20
19.402456392823012
 11
134.78779645897589
 21
16.431903895481184
  0
LINE
  8
_0-1_
  6
CONTINUOUS
 62
    4
 10
127.39226667537787
 20
24.110276391554208
 11
131.31189458462688
 21
20.190648482305193
  0
LINE
  8
_0-1_
  6
CONTINUOUS
 62
    4
 10
132.10008667410932
 20
19.402456392822785
 11
134.39833191539253
 21
17.104211151539687
  0
LINE
  8
_0-1_
  6
CONTINUOUS
 62
    4
 10
127.52536912830732
 20
24.260016651099846
 11
131.41542220266814
 21
20.369963576739025
  0
LINE
  8
_0-1_
  6
CONTINUOUS
 62
    4
 10
132.38292938658418
 20
19.402456392822955
 11
134.00886737180917
 21
17.776518407597962
  0
LINE
  8
_0-1_
  6
CONTINUOUS
 62
    4
 10
127.65847158123671
 20
24.409756910645456
 11
131.51894982070928
 21
20.549278671172857
  0
LINE
  8
_0-1_
  6
CONTINUOUS
 62
    4
 10
132.66577209905898
 20
19.402456392823183
 11
133.6194028282253
 21
18.448825663656919
  0
LINE
  8
_0-1_
  6
CONTINUOUS
 62
    4
 10
127.7974119995871
 20
24.553659204768252
 11
131.6224774387498
 21
20.728593765605524
  0
LINE
  8
_0-1_
  6
CONTINUOUS
 62
    4
 10
132.94861481153237
 20
19.402456392823012
 11
133.22993828464155
 21
19.121132919713887
  0
LINE
  8
_0-1_
  6
CONTINUOUS
 62
    4
 10
127.91312038196315
 20
24.720793534867141
 11
131.72600505679088
 21
20.907908860039527
  0
LINE
  8
_0-1_
  6
CONTINUOUS
 62
    4
 10
128.06237299561161
 20
24.854383633693857
 11
131.82953267483214
 21
21.08722395447333
  0
LINE
  8
_0-1_
  6
CONTINUOUS
 62
    4
 10
128.31194009485409
 20
24.887659246926376
 11
131.93306029287334
 21
21.266539048907049
  0
LINE
  8
_0-1_
  6
CONTINUOUS
 62
    4
 10
128.55095700771631
 20
24.931485046539279
 11
131.5828147878866
 21
21.899627266368952
  0
LINE
  8
_0-1_
  6
CONTINUOUS
 62
    4
 10
128.78817992785503
 20
24.977104838873686
 11
131.15540802236814
 21
22.60987674436052
  0
LINE
  8
_0-1_
  6
CONTINUOUS
 62
    4
 10
129.04922246816835
 20
24.998905011035419
 11
130.72800125685069
 21
23.320126222353139
  0
LINE
  8
_0-1_
  6
CONTINUOUS
 62
    4
 10
129.42620420183619
 20
24.904765989842559
 11
130.22694745556805
 21
24.104022736110579
  0
LINE
  8
_0-1_
  6
CONTINUOUS
 62
    7
 10
136.18781321793682
 20
22.460123784416538
 11
136.18781321793682
 21
25.38414742978631
  0
LINE
  8
_0-1_
  6
CONTINUOUS
 62
    7
 10
135.98781321793678
 20
22.502007653380389
 11
135.98781321793678
 21
25.342263560822431
  0
LINE
  8
_0-1_
  6
CONTINUOUS
 62
    7
 10
135.78781321793679
 20
22.5745272662937
 11
135.78781321793679
 21
25.26974394790912
  0
LINE
  8
_0-1_
  6
CONTINUOUS
 62
    7
 10
135.5878132179368
 20
22.683050026729944
 11
135.5878132179368
 21
25.161221187472904
  0
LINE
  8
_0-1_
  6
CONTINUOUS
 62
    7
 10
135.38781321793681
 20
22.838337696625132
 11
135.38781321793681
 21
25.005933517577716
  0
LINE
  8
_0-1_
  6
CONTINUOUS
 62
    7
 10
135.18781321793682
 20
23.065454367652194
 11
135.18781321793682
 21
24.778816846550654
  0
LINE
  8
_0-1_
  6
CONTINUOUS
 62
    7
 10
134.98781321793683
 20
23.460413199920708
 11
134.98781321793683
 21
24.383858014282197
  0
TEXT
  8
_0-1_
 62
    3
 10
196.77357420521184
 20
17.953370446315432
 40
6
 41
1
 50
0
  1
アドヴァン
  0
TEXT
  8
_0-1_
 62
    7
 10
172.27357420521162
 20
13.938380714661548
 40
3
 41
1
 50
0
  1
TEL 03-3475-0281　　FAX 03-3475-0429
  0
TEXT
  8
_0-1_
 62
    3
 10
173.27357420521184
 20
18.453370446315432
 40
5
 41
1
 50
0
  1
株式会社
  0
LINE
  8
_0-1_
  6
CONTINUOUS
 62
    2
 10
306.75121158683709
 20
19.338966595907266
 11
241.75121158683709
 21
19.338966595907266
  0
LINE
  8
_0-0_
  6
CONTINUOUS
 62
    7
 10
208.36011463496368
 20
101.45512880959042
 11
208.36011463496368
 21
94.470197809590431
  0
LINE
  8
_0-0_
  6
CONTINUOUS
 62
    7
 10
208.36011463496368
 20
93.454238809590422
 11
208.36011463496368
 21
92.459295809590429
  0
LINE
  8
_0-0_
  6
CONTINUOUS
 62
    7
 10
208.36011463496368
 20
91.44333680959042
 11
208.36011463496368
 21
84.458405809590431
  0
LINE
  8
_0-0_
  6
CONTINUOUS
 62
    7
 10
208.36011463496368
 20
83.442446809590422
 11
208.36011463496368
 21
82.447503809590444
  0
LINE
  8
_0-0_
  6
CONTINUOUS
 62
    7
 10
208.36011463496368
 20
81.431544809590434
 11
208.36011463496368
 21
74.446613809590417
  0
LINE
  8
_0-0_
  6
CONTINUOUS
 62
    7
 10
208.36011463496368
 20
73.430310809590424
 11
208.36011463496368
 21
72.43571180959043
  0
LINE
  8
_0-0_
  6
CONTINUOUS
 62
    7
 10
208.36011463496368
 20
71.41975280959042
 11
208.36011463496368
 21
66.699627809590424
  0
LINE
  8
_0-0_
  6
CONTINUOUS
 62
    7
 10
211.68325363496368
 20
68.202377809590445
 11
211.64087863496368
 21
68.689169809590425
  0
LINE
  8
_0-0_
  6
CONTINUOUS
 62
    7
 10
211.64087863496368
 20
68.689169809590425
 11
211.53511463496366
 21
69.175961809590433
  0
LINE
  8
_0-0_
  6
CONTINUOUS
 62
    7
 10
211.53511463496366
 20
69.175961809590433
 11
211.34460063496368
 21
69.641738809590436
  0
LINE
  8
_0-0_
  6
CONTINUOUS
 62
    7
 10
211.34460063496368
 20
69.641738809590436
 11
211.09035263496366
 21
70.08615680959042
  0
LINE
  8
_0-0_
  6
CONTINUOUS
 62
    7
 10
211.09035263496366
 20
70.08615680959042
 11
210.79407463496366
 21
70.467183809590438
  0
LINE
  8
_0-0_
  6
CONTINUOUS
 62
    7
 10
210.79407463496366
 20
70.467183809590438
 11
210.43440663496366
 21
70.805836809590431
  0
LINE
  8
_0-0_
  6
CONTINUOUS
 62
    7
 10
210.43440663496366
 20
70.805836809590431
 11
210.01100363496366
 21
71.081099809590427
  0
LINE
  8
_0-0_
  6
CONTINUOUS
 62
    7
 10
210.01100363496366
 20
71.081099809590427
 11
209.56658663496367
 21
71.29262880959044
  0
LINE
  8
_0-0_
  6
CONTINUOUS
 62
    7
 10
209.56658663496367
 20
71.29262880959044
 11
209.10080963496367
 21
71.440767809590426
  0
LINE
  8
_0-0_
  6
CONTINUOUS
 62
    7
 10
209.10080963496367
 20
71.440767809590426
 11
208.59265863496367
 21
71.52551780959044
  0
LINE
  8
_0-0_
  6
CONTINUOUS
 62
    7
 10
208.59265863496367
 20
71.52551780959044
 11
208.10586663496366
 21
71.52551780959044
  0
LINE
  8
_0-0_
  6
CONTINUOUS
 62
    7
 10
208.10586663496366
 20
71.52551780959044
 11
207.61907463496368
 21
71.440767809590426
  0
LINE
  8
_0-0_
  6
CONTINUOUS
 62
    7
 10
207.61907463496368
 20
71.440767809590426
 11
207.13228263496367
 21
71.29262880959044
  0
LINE
  8
_0-0_
  6
CONTINUOUS
 62
    7
 10
207.13228263496367
 20
71.29262880959044
 11
206.68786463496366
 21
71.081099809590427
  0
LINE
  8
_0-0_
  6
CONTINUOUS
 62
    7
 10
206.68786463496366
 20
71.081099809590427
 11
206.28564963496368
 21
70.805836809590431
  0
LINE
  8
_0-0_
  6
CONTINUOUS
 62
    7
 10
206.28564963496368
 20
70.805836809590431
 11
205.90462263496366
 21
70.467183809590438
  0
LINE
  8
_0-0_
  6
CONTINUOUS
 62
    7
 10
205.90462263496366
 20
70.467183809590438
 11
205.60834463496366
 21
70.08615680959042
  0
LINE
  8
_0-0_
  6
CONTINUOUS
 62
    7
 10
205.60834463496366
 20
70.08615680959042
 11
205.35426863496366
 21
69.641738809590436
  0
LINE
  8
_0-0_
  6
CONTINUOUS
 62
    7
 10
205.35426863496366
 20
69.641738809590436
 11
205.16375463496368
 21
69.175961809590433
  0
LINE
  8
_0-0_
  6
CONTINUOUS
 62
    7
 10
205.16375463496368
 20
69.175961809590433
 11
205.05799063496366
 21
68.689169809590425
  0
LINE
  8
_0-0_
  6
CONTINUOUS
 62
    7
 10
205.05799063496366
 20
68.689169809590425
 11
205.01561563496367
 21
68.202377809590445
  0
LINE
  8
_0-0_
  6
CONTINUOUS
 62
    7
 10
246.60825363496366
 20
68.202377809590445
 11
239.62332263496367
 21
68.202377809590445
  0
LINE
  8
_0-0_
  6
CONTINUOUS
 62
    7
 10
238.60701963496368
 20
68.202377809590445
 11
237.61241963496366
 21
68.202377809590445
  0
LINE
  8
_0-0_
  6
CONTINUOUS
 62
    7
 10
236.59646163496367
 20
68.202377809590445
 11
229.61118563496368
 21
68.202377809590445
  0
LINE
  8
_0-0_
  6
CONTINUOUS
 62
    7
 10
228.59522763496366
 20
68.202377809590445
 11
227.60062763496367
 21
68.202377809590445
  0
LINE
  8
_0-0_
  6
CONTINUOUS
 62
    7
 10
226.58432463496368
 20
68.202377809590445
 11
219.59939363496366
 21
68.202377809590445
  0
LINE
  8
_0-0_
  6
CONTINUOUS
 62
    7
 10
218.58343563496368
 20
68.202377809590445
 11
217.58849163496367
 21
68.202377809590445
  0
LINE
  8
_0-0_
  6
CONTINUOUS
 62
    7
 10
216.57253263496366
 20
68.202377809590445
 11
209.58760163496368
 21
68.202377809590445
  0
LINE
  8
_0-0_
  6
CONTINUOUS
 62
    7
 10
208.57164363496366
 20
68.202377809590445
 11
207.57687163496368
 21
68.202377809590445
  0
LINE
  8
_0-0_
  6
CONTINUOUS
 62
    7
 10
206.56074063496368
 20
68.202377809590445
 11
199.57580963496366
 21
68.202377809590445
  0
LINE
  8
_0-0_
  6
CONTINUOUS
 62
    7
 10
198.55985163496368
 20
68.202377809590445
 11
197.56490763496367
 21
68.202377809590445
  0
LINE
  8
_0-0_
  6
CONTINUOUS
 62
    7
 10
196.54894863496366
 20
68.202377809590445
 11
189.56401763496368
 21
68.202377809590445
  0
LINE
  8
_0-0_
  6
CONTINUOUS
 62
    7
 10
188.54805963496366
 20
68.202377809590445
 11
187.55311563496366
 21
68.202377809590445
  0
LINE
  8
_0-0_
  6
CONTINUOUS
 62
    7
 10
186.53715663496368
 20
68.202377809590445
 11
179.55222563496366
 21
68.202377809590445
  0
LINE
  8
_0-0_
  6
CONTINUOUS
 62
    7
 10
178.53609463496366
 20
68.202377809590445
 11
177.54132363496367
 21
68.202377809590445
  0
LINE
  8
_0-0_
  6
CONTINUOUS
 62
    7
 10
176.52536463496367
 20
68.202377809590445
 11
170.59859463496366
 21
68.202377809590445
  0
LINE
  8
_0-0_
  6
CONTINUOUS
 62
    7
 10
227.07146163496367
 20
68.202377809590445
 11
227.02908663496368
 21
69.408850809590433
  0
LINE
  8
_0-0_
  6
CONTINUOUS
 62
    7
 10
227.02908663496368
 20
69.408850809590433
 11
226.92332263496368
 21
70.594307809590418
  0
LINE
  8
_0-0_
  6
CONTINUOUS
 62
    7
 10
226.92332263496368
 20
70.594307809590418
 11
226.73280863496367
 21
71.77942080959042
  0
LINE
  8
_0-0_
  6
CONTINUOUS
 62
    7
 10
226.73280863496367
 20
71.77942080959042
 11
226.45754563496368
 21
72.943518809590444
  0
LINE
  8
_0-0_
  6
CONTINUOUS
 62
    7
 10
226.45754563496368
 20
72.943518809590444
 11
226.11889263496366
 21
74.107960809590423
  0
LINE
  8
_0-0_
  6
CONTINUOUS
 62
    7
 10
226.11889263496366
 20
74.107960809590423
 11
225.69549063496368
 21
75.229683809590426
  0
LINE
  8
_0-0_
  6
CONTINUOUS
 62
    7
 10
225.69549063496368
 20
75.229683809590426
 11
225.20869863496367
 21
76.330391809590424
  0
LINE
  8
_0-0_
  6
CONTINUOUS
 62
    7
 10
225.20869863496367
 20
76.330391809590424
 11
224.65817163496368
 21
77.388725809590426
  0
LINE
  8
_0-0_
  6
CONTINUOUS
 62
    7
 10
224.65817163496368
 20
77.388725809590426
 11
224.04460063496367
 21
78.425698809590443
  0
LINE
  8
_0-0_
  6
CONTINUOUS
 62
    7
 10
224.04460063496367
 20
78.425698809590443
 11
223.34593563496367
 21
79.399627809590442
  0
LINE
  8
_0-0_
  6
CONTINUOUS
 62
    7
 10
223.34593563496367
 20
79.399627809590442
 11
222.60523963496368
 21
80.330836809590437
  0
LINE
  8
_0-0_
  6
CONTINUOUS
 62
    7
 10
222.60523963496368
 20
80.330836809590437
 11
221.80080963496368
 21
81.219671809590437
  0
LINE
  8
_0-0_
  6
CONTINUOUS
 62
    7
 10
221.80080963496368
 20
81.219671809590437
 11
220.93299063496366
 21
82.066475809590429
  0
LINE
  8
_0-0_
  6
CONTINUOUS
 62
    7
 10
220.93299063496366
 20
82.066475809590429
 11
220.02279563496367
 21
82.849545809590438
  0
LINE
  8
_0-0_
  6
CONTINUOUS
 62
    7
 10
220.02279563496367
 20
82.849545809590438
 11
219.07022763496366
 21
83.548211809590441
  0
LINE
  8
_0-0_
  6
CONTINUOUS
 62
    7
 10
219.07022763496366
 20
83.548211809590441
 11
218.05426863496368
 21
84.204157809590441
  0
LINE
  8
_0-0_
  6
CONTINUOUS
 62
    7
 10
218.05426863496368
 20
84.204157809590441
 11
217.01729463496366
 21
84.797058809590425
  0
LINE
  8
_0-0_
  6
CONTINUOUS
 62
    7
 10
217.01729463496366
 20
84.797058809590425
 11
215.93760163496367
 21
85.326225809590426
  0
LINE
  8
_0-0_
  6
CONTINUOUS
 62
    7
 10
215.93760163496367
 20
85.326225809590426
 11
214.81587863496367
 21
85.770642809590441
  0
LINE
  8
_0-0_
  6
CONTINUOUS
 62
    7
 10
214.81587863496367
 20
85.770642809590441
 11
213.67279563496368
 21
86.15166980959043
  0
LINE
  8
_0-0_
  6
CONTINUOUS
 62
    7
 10
213.67279563496368
 20
86.15166980959043
 11
212.50869863496368
 21
86.447948809590429
  0
LINE
  8
_0-0_
  6
CONTINUOUS
 62
    7
 10
212.50869863496368
 20
86.447948809590429
 11
211.34460063496368
 21
86.680836809590431
  0
LINE
  8
_0-0_
  6
CONTINUOUS
 62
    7
 10
211.34460063496368
 20
86.680836809590431
 11
210.13812763496367
 21
86.828975809590418
  0
LINE
  8
_0-0_
  6
CONTINUOUS
 62
    7
 10
210.13812763496367
 20
86.828975809590418
 11
208.95267063496368
 21
86.913725809590431
  0
LINE
  8
_0-0_
  6
CONTINUOUS
 62
    7
 10
208.95267063496368
 20
86.913725809590431
 11
207.74619863496366
 21
86.913725809590431
  0
LINE
  8
_0-0_
  6
CONTINUOUS
 62
    7
 10
207.74619863496366
 20
86.913725809590431
 11
206.56074063496368
 21
86.828975809590418
  0
LINE
  8
_0-0_
  6
CONTINUOUS
 62
    7
 10
206.56074063496368
 20
86.828975809590418
 11
205.35426863496366
 21
86.680836809590431
  0
LINE
  8
_0-0_
  6
CONTINUOUS
 62
    7
 10
205.35426863496366
 20
86.680836809590431
 11
204.19017063496366
 21
86.447948809590429
  0
LINE
  8
_0-0_
  6
CONTINUOUS
 62
    7
 10
204.19017063496366
 20
86.447948809590429
 11
203.02607263496367
 21
86.15166980959043
  0
LINE
  8
_0-0_
  6
CONTINUOUS
 62
    7
 10
203.02607263496367
 20
86.15166980959043
 11
201.88299063496368
 21
85.770642809590441
  0
LINE
  8
_0-0_
  6
CONTINUOUS
 62
    7
 10
201.88299063496368
 20
85.770642809590441
 11
200.78228263496368
 21
85.326225809590426
  0
LINE
  8
_0-0_
  6
CONTINUOUS
 62
    7
 10
200.78228263496368
 20
85.326225809590426
 11
199.68157463496368
 21
84.797058809590425
  0
LINE
  8
_0-0_
  6
CONTINUOUS
 62
    7
 10
199.68157463496368
 20
84.797058809590425
 11
198.64442863496367
 21
84.204157809590441
  0
LINE
  8
_0-0_
  6
CONTINUOUS
 62
    7
 10
198.64442863496367
 20
84.204157809590441
 11
197.64965663496366
 21
83.548211809590441
  0
LINE
  8
_0-0_
  6
CONTINUOUS
 62
    7
 10
197.64965663496366
 20
83.548211809590441
 11
196.67607263496367
 21
82.849545809590438
  0
LINE
  8
_0-0_
  6
CONTINUOUS
 62
    7
 10
196.67607263496367
 20
82.849545809590438
 11
195.76587863496368
 21
82.066475809590429
  0
LINE
  8
_0-0_
  6
CONTINUOUS
 62
    7
 10
195.76587863496368
 20
82.066475809590429
 11
194.89805963496366
 21
81.219671809590437
  0
LINE
  8
_0-0_
  6
CONTINUOUS
 62
    7
 10
194.89805963496366
 20
81.219671809590437
 11
194.09362963496366
 21
80.330836809590437
  0
LINE
  8
_0-0_
  6
CONTINUOUS
 62
    7
 10
194.09362963496366
 20
80.330836809590437
 11
193.35276163496368
 21
79.399627809590442
  0
LINE
  8
_0-0_
  6
CONTINUOUS
 62
    7
 10
193.35276163496368
 20
79.399627809590442
 11
192.65426863496367
 21
78.425698809590443
  0
LINE
  8
_0-0_
  6
CONTINUOUS
 62
    7
 10
192.65426863496367
 20
78.425698809590443
 11
192.04052463496367
 21
77.388725809590426
  0
LINE
  8
_0-0_
  6
CONTINUOUS
 62
    7
 10
192.04052463496367
 20
77.388725809590426
 11
191.49017063496368
 21
76.330391809590424
  0
LINE
  8
_0-0_
  6
CONTINUOUS
 62
    7
 10
191.49017063496368
 20
76.330391809590424
 11
191.00337863496367
 21
75.229683809590426
  0
LINE
  8
_0-0_
  6
CONTINUOUS
 62
    7
 10
191.00337863496367
 20
75.229683809590426
 11
190.57997663496366
 21
74.107960809590423
  0
LINE
  8
_0-0_
  6
CONTINUOUS
 62
    7
 10
190.57997663496366
 20
74.107960809590423
 11
190.24132363496366
 21
72.943518809590444
  0
LINE
  8
_0-0_
  6
CONTINUOUS
 62
    7
 10
190.24132363496366
 20
72.943518809590444
 11
189.96623263496366
 21
71.77942080959042
  0
LINE
  8
_0-0_
  6
CONTINUOUS
 62
    7
 10
189.96623263496366
 20
71.77942080959042
 11
189.77571863496368
 21
70.594307809590418
  0
LINE
  8
_0-0_
  6
CONTINUOUS
 62
    7
 10
189.77571863496368
 20
70.594307809590418
 11
189.66978263496367
 21
69.408850809590433
  0
LINE
  8
_0-0_
  6
CONTINUOUS
 62
    7
 10
189.66978263496367
 20
69.408850809590433
 11
189.62740763496367
 21
68.202377809590445
  0
LINE
  8
_0-0_
  6
CONTINUOUS
 62
    7
 10
225.37785263496366
 20
68.202377809590445
 11
225.33582263496368
 21
69.36647580959044
  0
LINE
  8
_0-0_
  6
CONTINUOUS
 62
    7
 10
225.33582263496368
 20
69.36647580959044
 11
225.20869863496367
 21
70.50955880959043
  0
LINE
  8
_0-0_
  6
CONTINUOUS
 62
    7
 10
225.20869863496367
 20
70.50955880959043
 11
225.01818463496366
 21
71.673656809590426
  0
LINE
  8
_0-0_
  6
CONTINUOUS
 62
    7
 10
225.01818463496366
 20
71.673656809590426
 11
224.74292163496366
 21
72.795379809590429
  0
LINE
  8
_0-0_
  6
CONTINUOUS
 62
    7
 10
224.74292163496366
 20
72.795379809590429
 11
224.38325363496367
 21
73.896087809590426
  0
LINE
  8
_0-0_
  6
CONTINUOUS
 62
    7
 10
224.38325363496367
 20
73.896087809590426
 11
223.95985163496368
 21
74.975780809590418
  0
LINE
  8
_0-0_
  6
CONTINUOUS
 62
    7
 10
223.95985163496368
 20
74.975780809590418
 11
223.45169963496366
 21
76.034113809590423
  0
LINE
  8
_0-0_
  6
CONTINUOUS
 62
    7
 10
223.45169963496366
 20
76.034113809590423
 11
222.90151763496368
 21
77.050072809590432
  0
LINE
  8
_0-0_
  6
CONTINUOUS
 62
    7
 10
222.90151763496368
 20
77.050072809590432
 11
222.24522763496367
 21
78.02365680959042
  0
LINE
  8
_0-0_
  6
CONTINUOUS
 62
    7
 10
222.24522763496367
 20
78.02365680959042
 11
221.54690663496368
 21
78.933850809590439
  0
LINE
  8
_0-0_
  6
CONTINUOUS
 62
    7
 10
221.54690663496368
 20
78.933850809590439
 11
220.78485163496367
 21
79.822685809590439
  0
LINE
  8
_0-0_
  6
CONTINUOUS
 62
    7
 10
220.78485163496367
 20
79.822685809590439
 11
219.95940663496367
 21
80.648474809590425
  0
LINE
  8
_0-0_
  6
CONTINUOUS
 62
    7
 10
219.95940663496367
 20
80.648474809590425
 11
219.09158663496368
 21
81.410185809590445
  0
LINE
  8
_0-0_
  6
CONTINUOUS
 62
    7
 10
219.09158663496368
 20
81.410185809590445
 11
218.16003263496367
 21
82.108850809590422
  0
LINE
  8
_0-0_
  6
CONTINUOUS
 62
    7
 10
218.16003263496367
 20
82.108850809590422
 11
217.18644863496368
 21
82.743781809590445
  0
LINE
  8
_0-0_
  6
CONTINUOUS
 62
    7
 10
217.18644863496368
 20
82.743781809590445
 11
216.17049063496367
 21
83.315322809590441
  0
LINE
  8
_0-0_
  6
CONTINUOUS
 62
    7
 10
216.17049063496367
 20
83.315322809590441
 11
215.13317163496367
 21
83.802114809590421
  0
LINE
  8
_0-0_
  6
CONTINUOUS
 62
    7
 10
215.13317163496367
 20
83.802114809590421
 11
214.05382363496366
 21
84.246532809590434
  0
LINE
  8
_0-0_
  6
CONTINUOUS
 62
    7
 10
214.05382363496366
 20
84.246532809590434
 11
212.93210063496366
 21
84.585185809590428
  0
LINE
  8
_0-0_
  6
CONTINUOUS
 62
    7
 10
212.93210063496366
 20
84.585185809590428
 11
211.81003263496368
 21
84.860448809590423
  0
LINE
  8
_0-0_
  6
CONTINUOUS
 62
    7
 10
211.81003263496368
 20
84.860448809590423
 11
210.66729463496367
 21
85.071977809590436
  0
LINE
  8
_0-0_
  6
CONTINUOUS
 62
    7
 10
210.66729463496367
 20
85.071977809590436
 11
209.50285263496366
 21
85.178085809590442
  0
LINE
  8
_0-0_
  6
CONTINUOUS
 62
    7
 10
209.50285263496366
 20
85.178085809590442
 11
208.36011463496368
 21
85.220460809590435
  0
LINE
  8
_0-0_
  6
CONTINUOUS
 62
    7
 10
208.36011463496368
 20
85.220460809590435
 11
207.19584463496366
 21
85.178085809590442
  0
LINE
  8
_0-0_
  6
CONTINUOUS
 62
    7
 10
207.19584463496366
 20
85.178085809590442
 11
206.03157463496368
 21
85.071977809590436
  0
LINE
  8
_0-0_
  6
CONTINUOUS
 62
    7
 10
206.03157463496368
 20
85.071977809590436
 11
204.88866363496368
 21
84.860448809590423
  0
LINE
  8
_0-0_
  6
CONTINUOUS
 62
    7
 10
204.88866363496368
 20
84.860448809590423
 11
203.76676863496368
 21
84.585185809590428
  0
LINE
  8
_0-0_
  6
CONTINUOUS
 62
    7
 10
203.76676863496368
 20
84.585185809590428
 11
202.64504563496368
 21
84.246532809590434
  0
LINE
  8
_0-0_
  6
CONTINUOUS
 62
    7
 10
202.64504563496368
 20
84.246532809590434
 11
201.56552463496368
 21
83.802114809590421
  0
LINE
  8
_0-0_
  6
CONTINUOUS
 62
    7
 10
201.56552463496368
 20
83.802114809590421
 11
200.52837863496367
 21
83.315322809590441
  0
LINE
  8
_0-0_
  6
CONTINUOUS
 62
    7
 10
200.52837863496367
 20
83.315322809590441
 11
199.51224763496367
 21
82.743781809590445
  0
LINE
  8
_0-0_
  6
CONTINUOUS
 62
    7
 10
199.51224763496367
 20
82.743781809590445
 11
198.53866363496368
 21
82.108850809590422
  0
LINE
  8
_0-0_
  6
CONTINUOUS
 62
    7
 10
198.53866363496368
 20
82.108850809590422
 11
197.60728263496367
 21
81.410185809590445
  0
LINE
  8
_0-0_
  6
CONTINUOUS
 62
    7
 10
197.60728263496367
 20
81.410185809590445
 11
196.73946263496367
 21
80.648474809590425
  0
LINE
  8
_0-0_
  6
CONTINUOUS
 62
    7
 10
196.73946263496367
 20
80.648474809590425
 11
195.91401763496367
 21
79.822685809590439
  0
LINE
  8
_0-0_
  6
CONTINUOUS
 62
    7
 10
195.91401763496367
 20
79.822685809590439
 11
195.15196263496367
 21
78.933850809590439
  0
LINE
  8
_0-0_
  6
CONTINUOUS
 62
    7
 10
195.15196263496367
 20
78.933850809590439
 11
194.45346963496368
 21
78.02365680959042
  0
LINE
  8
_0-0_
  6
CONTINUOUS
 62
    7
 10
194.45346963496368
 20
78.02365680959042
 11
193.81853863496366
 21
77.050072809590432
  0
LINE
  8
_0-0_
  6
CONTINUOUS
 62
    7
 10
193.81853863496366
 20
77.050072809590432
 11
193.24699763496366
 21
76.034113809590423
  0
LINE
  8
_0-0_
  6
CONTINUOUS
 62
    7
 10
193.24699763496366
 20
76.034113809590423
 11
192.73901763496366
 21
74.975780809590418
  0
LINE
  8
_0-0_
  6
CONTINUOUS
 62
    7
 10
192.73901763496366
 20
74.975780809590418
 11
192.31561563496368
 21
73.896087809590426
  0
LINE
  8
_0-0_
  6
CONTINUOUS
 62
    7
 10
192.31561563496368
 20
73.896087809590426
 11
191.95577563496366
 21
72.795379809590429
  0
LINE
  8
_0-0_
  6
CONTINUOUS
 62
    7
 10
191.95577563496366
 20
72.795379809590429
 11
191.68068463496368
 21
71.673656809590426
  0
LINE
  8
_0-0_
  6
CONTINUOUS
 62
    7
 10
191.68068463496368
 20
71.673656809590426
 11
191.49017063496368
 21
70.50955880959043
  0
LINE
  8
_0-0_
  6
CONTINUOUS
 62
    7
 10
191.49017063496368
 20
70.50955880959043
 11
191.36321863496366
 21
69.36647580959044
  0
LINE
  8
_0-0_
  6
CONTINUOUS
 62
    7
 10
191.36321863496366
 20
69.36647580959044
 11
191.32084463496366
 21
68.202377809590445
  0
LINE
  8
_0-0_
  6
CONTINUOUS
 62
    7
 10
198.36933763496367
 20
79.484032809590417
 11
197.58609463496367
 21
78.743336809590431
  0
LINE
  8
_0-0_
  6
CONTINUOUS
 62
    7
 10
197.58609463496367
 20
78.743336809590431
 11
196.84539963496368
 21
77.938906809590435
  0
LINE
  8
_0-0_
  6
CONTINUOUS
 62
    7
 10
196.84539963496368
 20
77.938906809590435
 11
196.18910863496367
 21
77.092446809590427
  0
LINE
  8
_0-0_
  6
CONTINUOUS
 62
    7
 10
196.18910863496367
 20
77.092446809590427
 11
195.57536463496368
 21
76.203267809590443
  0
LINE
  8
_0-0_
  6
CONTINUOUS
 62
    7
 10
195.57536463496368
 20
76.203267809590443
 11
195.04619863496367
 21
75.272058809590419
  0
LINE
  8
_0-0_
  6
CONTINUOUS
 62
    7
 10
195.04619863496367
 20
75.272058809590419
 11
194.58042163496367
 21
74.298474809590431
  0
LINE
  8
_0-0_
  6
CONTINUOUS
 62
    7
 10
194.58042163496367
 20
74.298474809590431
 11
194.17837863496368
 21
73.282171809590437
  0
LINE
  8
_0-0_
  6
CONTINUOUS
 62
    7
 10
194.17837863496368
 20
73.282171809590437
 11
193.83972563496366
 21
72.266212809590428
  0
LINE
  8
_0-0_
  6
CONTINUOUS
 62
    7
 10
193.83972563496366
 20
72.266212809590428
 11
193.58564963496366
 21
71.207879809590423
  0
LINE
  8
_0-0_
  6
CONTINUOUS
 62
    7
 10
200.14735163496368
 20
68.202377809590445
 11
200.12616363496366
 21
68.752559809590423
  0
LINE
  8
_0-0_
  6
CONTINUOUS
 62
    7
 10
200.12616363496366
 20
68.752559809590423
 11
199.99921163496367
 21
69.281726809590424
  0
LINE
  8
_0-0_
  6
CONTINUOUS
 62
    7
 10
199.99921163496367
 20
69.281726809590424
 11
199.82988563496366
 21
69.789877809590422
  0
LINE
  8
_0-0_
  6
CONTINUOUS
 62
    7
 10
199.82988563496366
 20
69.789877809590422
 11
199.57580963496366
 21
70.27666980959043
  0
LINE
  8
_0-0_
  6
CONTINUOUS
 62
    7
 10
199.57580963496366
 20
70.27666980959043
 11
199.25834463496366
 21
70.700072809590438
  0
LINE
  8
_0-0_
  6
CONTINUOUS
 62
    7
 10
199.25834463496366
 20
70.700072809590438
 11
198.89850363496367
 21
71.102114809590432
  0
LINE
  8
_0-0_
  6
CONTINUOUS
 62
    7
 10
198.89850363496367
 20
71.102114809590432
 11
198.47510163496366
 21
71.440767809590426
  0
LINE
  8
_0-0_
  6
CONTINUOUS
 62
    7
 10
198.47510163496366
 20
71.440767809590426
 11
198.00949763496368
 21
71.737045809590427
  0
LINE
  8
_0-0_
  6
CONTINUOUS
 62
    7
 10
198.00949763496368
 20
71.737045809590427
 11
197.52270563496367
 21
71.948919809590421
  0
LINE
  8
_0-0_
  6
CONTINUOUS
 62
    7
 10
197.52270563496367
 20
71.948919809590421
 11
196.99353863496367
 21
72.097058809590436
  0
LINE
  8
_0-0_
  6
CONTINUOUS
 62
    7
 10
196.99353863496367
 20
72.097058809590436
 11
196.46437163496367
 21
72.160448809590434
  0
LINE
  8
_0-0_
  6
CONTINUOUS
 62
    7
 10
196.46437163496367
 20
72.160448809590434
 11
195.91401763496367
 21
72.160448809590434
  0
LINE
  8
_0-0_
  6
CONTINUOUS
 62
    7
 10
195.91401763496367
 20
72.160448809590434
 11
195.38485163496367
 21
72.097058809590436
  0
LINE
  8
_0-0_
  6
CONTINUOUS
 62
    7
 10
195.38485163496367
 20
72.097058809590436
 11
194.85568463496367
 21
71.948919809590421
  0
LINE
  8
_0-0_
  6
CONTINUOUS
 62
    7
 10
194.85568463496367
 20
71.948919809590421
 11
194.34770563496366
 21
71.737045809590427
  0
LINE
  8
_0-0_
  6
CONTINUOUS
 62
    7
 10
194.34770563496366
 20
71.737045809590427
 11
193.88192863496366
 21
71.440767809590426
  0
LINE
  8
_0-0_
  6
CONTINUOUS
 62
    7
 10
193.88192863496366
 20
71.440767809590426
 11
193.47988563496367
 21
71.102114809590432
  0
LINE
  8
_0-0_
  6
CONTINUOUS
 62
    7
 10
193.47988563496367
 20
71.102114809590432
 11
193.09885763496368
 21
70.700072809590438
  0
LINE
  8
_0-0_
  6
CONTINUOUS
 62
    7
 10
193.09885763496368
 20
70.700072809590438
 11
192.78139263496368
 21
70.27666980959043
  0
LINE
  8
_0-0_
  6
CONTINUOUS
 62
    7
 10
192.78139263496368
 20
70.27666980959043
 11
192.54850363496368
 21
69.789877809590422
  0
LINE
  8
_0-0_
  6
CONTINUOUS
 62
    7
 10
192.54850363496368
 20
69.789877809590422
 11
192.35799063496367
 21
69.281726809590424
  0
LINE
  8
_0-0_
  6
CONTINUOUS
 62
    7
 10
192.35799063496367
 20
69.281726809590424
 11
192.25222563496368
 21
68.752559809590423
  0
LINE
  8
_0-0_
  6
CONTINUOUS
 62
    7
 10
192.25222563496368
 20
68.752559809590423
 11
192.20985163496368
 21
68.202377809590445
  0
LINE
  8
_0-0_
  6
CONTINUOUS
 62
    7
 10
224.48901763496366
 20
68.202377809590445
 11
224.44664363496366
 21
68.752559809590423
  0
LINE
  8
_0-0_
  6
CONTINUOUS
 62
    7
 10
224.44664363496366
 20
68.752559809590423
 11
224.34087863496367
 21
69.281726809590424
  0
LINE
  8
_0-0_
  6
CONTINUOUS
 62
    7
 10
224.34087863496367
 20
69.281726809590424
 11
224.17137963496367
 21
69.789877809590422
  0
LINE
  8
_0-0_
  6
CONTINUOUS
 62
    7
 10
224.17137963496367
 20
69.789877809590422
 11
223.91747663496366
 21
70.27666980959043
  0
LINE
  8
_0-0_
  6
CONTINUOUS
 62
    7
 10
223.91747663496366
 20
70.27666980959043
 11
223.59983863496367
 21
70.700072809590438
  0
LINE
  8
_0-0_
  6
CONTINUOUS
 62
    7
 10
223.59983863496367
 20
70.700072809590438
 11
223.21915563496367
 21
71.102114809590432
  0
LINE
  8
_0-0_
  6
CONTINUOUS
 62
    7
 10
223.21915563496367
 20
71.102114809590432
 11
222.81676863496367
 21
71.440767809590426
  0
LINE
  8
_0-0_
  6
CONTINUOUS
 62
    7
 10
222.81676863496367
 20
71.440767809590426
 11
222.35099163496366
 21
71.737045809590427
  0
LINE
  8
_0-0_
  6
CONTINUOUS
 62
    7
 10
222.35099163496366
 20
71.737045809590427
 11
221.84318463496368
 21
71.948919809590421
  0
LINE
  8
_0-0_
  6
CONTINUOUS
 62
    7
 10
221.84318463496368
 20
71.948919809590421
 11
221.33503263496368
 21
72.097058809590436
  0
LINE
  8
_0-0_
  6
CONTINUOUS
 62
    7
 10
221.33503263496368
 20
72.097058809590436
 11
220.78485163496367
 21
72.160448809590434
  0
LINE
  8
_0-0_
  6
CONTINUOUS
 62
    7
 10
220.78485163496367
 20
72.160448809590434
 11
220.25568463496367
 21
72.160448809590434
  0
LINE
  8
_0-0_
  6
CONTINUOUS
 62
    7
 10
220.25568463496367
 20
72.160448809590434
 11
219.70515863496368
 21
72.097058809590436
  0
LINE
  8
_0-0_
  6
CONTINUOUS
 62
    7
 10
219.70515863496368
 20
72.097058809590436
 11
219.19735163496367
 21
71.948919809590421
  0
LINE
  8
_0-0_
  6
CONTINUOUS
 62
    7
 10
219.19735163496367
 20
71.948919809590421
 11
218.68919963496367
 21
71.737045809590427
  0
LINE
  8
_0-0_
  6
CONTINUOUS
 62
    7
 10
218.68919963496367
 20
71.737045809590427
 11
218.22376763496368
 21
71.440767809590426
  0
LINE
  8
_0-0_
  6
CONTINUOUS
 62
    7
 10
218.22376763496368
 20
71.440767809590426
 11
217.80036463496367
 21
71.102114809590432
  0
LINE
  8
_0-0_
  6
CONTINUOUS
 62
    7
 10
217.80036463496367
 20
71.102114809590432
 11
217.44035263496366
 21
70.700072809590438
  0
LINE
  8
_0-0_
  6
CONTINUOUS
 62
    7
 10
217.44035263496366
 20
70.700072809590438
 11
217.12305963496368
 21
70.27666980959043
  0
LINE
  8
_0-0_
  6
CONTINUOUS
 62
    7
 10
217.12305963496368
 20
70.27666980959043
 11
216.86915563496368
 21
69.789877809590422
  0
LINE
  8
_0-0_
  6
CONTINUOUS
 62
    7
 10
216.86915563496368
 20
69.789877809590422
 11
216.69965663496367
 21
69.281726809590424
  0
LINE
  8
_0-0_
  6
CONTINUOUS
 62
    7
 10
216.69965663496367
 20
69.281726809590424
 11
216.57253263496366
 21
68.752559809590423
  0
LINE
  8
_0-0_
  6
CONTINUOUS
 62
    7
 10
216.57253263496366
 20
68.752559809590423
 11
216.55151763496366
 21
68.202377809590445
  0
LINE
  8
_0-0_
  6
CONTINUOUS
 62
    7
 10
210.98458763496367
 20
80.732879809590429
 11
210.75169963496367
 21
80.225072809590444
  0
LINE
  8
_0-0_
  6
CONTINUOUS
 62
    7
 10
210.75169963496367
 20
80.225072809590444
 11
210.58254563496368
 21
79.695905809590442
  0
LINE
  8
_0-0_
  6
CONTINUOUS
 62
    7
 10
210.58254563496368
 20
79.695905809590442
 11
210.47678063496366
 21
79.145379809590423
  0
LINE
  8
_0-0_
  6
CONTINUOUS
 62
    7
 10
210.47678063496366
 20
79.145379809590423
 11
210.45542163496367
 21
78.595197809590445
  0
LINE
  8
_0-0_
  6
CONTINUOUS
 62
    7
 10
210.45542163496367
 20
78.595197809590445
 11
210.51915563496368
 21
78.044671809590426
  0
LINE
  8
_0-0_
  6
CONTINUOUS
 62
    7
 10
210.51915563496368
 20
78.044671809590426
 11
210.64593563496368
 21
77.515504809590425
  0
LINE
  8
_0-0_
  6
CONTINUOUS
 62
    7
 10
210.64593563496368
 20
77.515504809590425
 11
210.85780863496367
 21
77.007697809590439
  0
LINE
  8
_0-0_
  6
CONTINUOUS
 62
    7
 10
210.85780863496367
 20
77.007697809590439
 11
211.13272763496366
 21
76.520905809590431
  0
LINE
  8
_0-0_
  6
CONTINUOUS
 62
    7
 10
211.13272763496366
 20
76.520905809590431
 11
211.47137963496368
 21
76.076143809590434
  0
LINE
  8
_0-0_
  6
CONTINUOUS
 62
    7
 10
211.47137963496368
 20
76.076143809590434
 11
211.87376763496368
 21
75.695460809590429
  0
LINE
  8
_0-0_
  6
CONTINUOUS
 62
    7
 10
211.87376763496368
 20
75.695460809590429
 11
212.31818463496367
 21
75.377822809590441
  0
LINE
  8
_0-0_
  6
CONTINUOUS
 62
    7
 10
212.31818463496367
 20
75.377822809590441
 11
212.82599163496366
 21
75.102559809590417
  0
LINE
  8
_0-0_
  6
CONTINUOUS
 62
    7
 10
212.82599163496366
 20
75.102559809590417
 11
213.33414363496368
 21
74.912045809590438
  0
LINE
  8
_0-0_
  6
CONTINUOUS
 62
    7
 10
213.33414363496368
 20
74.912045809590438
 11
213.88432463496366
 21
74.806281809590445
  0
LINE
  8
_0-0_
  6
CONTINUOUS
 62
    7
 10
213.88432463496366
 20
74.806281809590445
 11
214.43485163496368
 21
74.763906809590424
  0
LINE
  8
_0-0_
  6
CONTINUOUS
 62
    7
 10
214.43485163496368
 20
74.763906809590424
 11
214.98503263496366
 21
74.806281809590445
  0
LINE
  8
_0-0_
  6
CONTINUOUS
 62
    7
 10
214.98503263496366
 20
74.806281809590445
 11
215.53555963496368
 21
74.912045809590438
  0
LINE
  8
_0-0_
  6
CONTINUOUS
 62
    7
 10
215.53555963496368
 20
74.912045809590438
 11
216.04336663496366
 21
75.102559809590417
  0
LINE
  8
_0-0_
  6
CONTINUOUS
 62
    7
 10
216.04336663496366
 20
75.102559809590417
 11
216.53015863496367
 21
75.377822809590441
  0
LINE
  8
_0-0_
  6
CONTINUOUS
 62
    7
 10
216.53015863496367
 20
75.377822809590441
 11
216.99593563496367
 21
75.695460809590429
  0
LINE
  8
_0-0_
  6
CONTINUOUS
 62
    7
 10
216.99593563496367
 20
75.695460809590429
 11
217.37696263496366
 21
76.076143809590434
  0
LINE
  8
_0-0_
  6
CONTINUOUS
 62
    7
 10
217.37696263496366
 20
76.076143809590434
 11
217.73697563496367
 21
76.520905809590431
  0
LINE
  8
_0-0_
  6
CONTINUOUS
 62
    7
 10
217.73697563496367
 20
76.520905809590431
 11
218.01189363496368
 21
77.007697809590439
  0
LINE
  8
_0-0_
  6
CONTINUOUS
 62
    7
 10
218.01189363496368
 20
77.007697809590439
 11
218.20240763496366
 21
77.515504809590425
  0
LINE
  8
_0-0_
  6
CONTINUOUS
 62
    7
 10
218.20240763496366
 20
77.515504809590425
 11
218.35054663496368
 21
78.044671809590426
  0
LINE
  8
_0-0_
  6
CONTINUOUS
 62
    7
 10
218.35054663496368
 20
78.044671809590426
 11
218.41428063496366
 21
78.595197809590445
  0
LINE
  8
_0-0_
  6
CONTINUOUS
 62
    7
 10
218.41428063496366
 20
78.595197809590445
 11
218.39292163496367
 21
79.145379809590423
  0
LINE
  8
_0-0_
  6
CONTINUOUS
 62
    7
 10
218.39292163496367
 20
79.145379809590423
 11
218.28715663496368
 21
79.695905809590442
  0
LINE
  8
_0-0_
  6
CONTINUOUS
 62
    7
 10
218.28715663496368
 20
79.695905809590442
 11
218.11765863496368
 21
80.225072809590444
  0
LINE
  8
_0-0_
  6
CONTINUOUS
 62
    7
 10
218.11765863496368
 20
80.225072809590444
 11
217.86375463496367
 21
80.732879809590429
  0
LINE
  8
_0-0_
  6
CONTINUOUS
 62
    7
 10
217.86375463496367
 20
80.732879809590429
 11
217.56747663496367
 21
81.177641809590426
  0
LINE
  8
_0-0_
  6
CONTINUOUS
 62
    7
 10
217.56747663496367
 20
81.177641809590426
 11
217.18644863496368
 21
81.600698809590426
  0
LINE
  8
_0-0_
  6
CONTINUOUS
 62
    7
 10
217.18644863496368
 20
81.600698809590426
 11
216.76304663496367
 21
81.960711809590435
  0
LINE
  8
_0-0_
  6
CONTINUOUS
 62
    7
 10
216.76304663496367
 20
81.960711809590435
 11
216.29761463496368
 21
82.256989809590436
  0
LINE
  8
_0-0_
  6
CONTINUOUS
 62
    7
 10
216.29761463496368
 20
82.256989809590436
 11
215.78946263496368
 21
82.468518809590421
  0
LINE
  8
_0-0_
  6
CONTINUOUS
 62
    7
 10
215.78946263496368
 20
82.468518809590421
 11
215.26029563496368
 21
82.616657809590436
  0
LINE
  8
_0-0_
  6
CONTINUOUS
 62
    7
 10
215.26029563496368
 20
82.616657809590436
 11
214.71011463496367
 21
82.701406809590424
  0
LINE
  8
_0-0_
  6
CONTINUOUS
 62
    7
 10
214.71011463496367
 20
82.701406809590424
 11
214.15958763496366
 21
82.701406809590424
  0
LINE
  8
_0-0_
  6
CONTINUOUS
 62
    7
 10
214.15958763496366
 20
82.701406809590424
 11
213.60940663496368
 21
82.616657809590436
  0
LINE
  8
_0-0_
  6
CONTINUOUS
 62
    7
 10
213.60940663496368
 20
82.616657809590436
 11
213.08023963496368
 21
82.468518809590421
  0
LINE
  8
_0-0_
  6
CONTINUOUS
 62
    7
 10
213.08023963496368
 20
82.468518809590421
 11
212.57208763496368
 21
82.256989809590436
  0
LINE
  8
_0-0_
  6
CONTINUOUS
 62
    7
 10
212.57208763496368
 20
82.256989809590436
 11
212.10665563496366
 21
81.960711809590435
  0
LINE
  8
_0-0_
  6
CONTINUOUS
 62
    7
 10
212.10665563496366
 20
81.960711809590435
 11
211.68325363496368
 21
81.600698809590426
  0
LINE
  8
_0-0_
  6
CONTINUOUS
 62
    7
 10
211.68325363496368
 20
81.600698809590426
 11
211.30222563496366
 21
81.177641809590426
  0
LINE
  8
_0-0_
  6
CONTINUOUS
 62
    7
 10
211.30222563496366
 20
81.177641809590426
 11
210.98458763496367
 21
80.732879809590429
  0
LINE
  8
_0-0_
  6
CONTINUOUS
 62
    7
 10
198.83494163496368
 20
76.753793809590434
 11
199.13139263496367
 21
76.288017809590428
  0
LINE
  8
_0-0_
  6
CONTINUOUS
 62
    7
 10
199.13139263496367
 20
76.288017809590428
 11
199.51224763496367
 21
75.885974809590437
  0
LINE
  8
_0-0_
  6
CONTINUOUS
 62
    7
 10
199.51224763496367
 20
75.885974809590437
 11
199.93564963496368
 21
75.525961809590427
  0
LINE
  8
_0-0_
  6
CONTINUOUS
 62
    7
 10
199.93564963496368
 20
75.525961809590427
 11
200.40125463496366
 21
75.229683809590426
  0
LINE
  8
_0-0_
  6
CONTINUOUS
 62
    7
 10
200.40125463496366
 20
75.229683809590426
 11
200.90940663496366
 21
74.996795809590424
  0
LINE
  8
_0-0_
  6
CONTINUOUS
 62
    7
 10
200.90940663496366
 20
74.996795809590424
 11
201.43857263496366
 21
74.848656809590437
  0
LINE
  8
_0-0_
  6
CONTINUOUS
 62
    7
 10
201.43857263496366
 20
74.848656809590437
 11
201.98875463496367
 21
74.785266809590439
  0
LINE
  8
_0-0_
  6
CONTINUOUS
 62
    7
 10
201.98875463496367
 20
74.785266809590439
 11
202.53910863496367
 21
74.785266809590439
  0
LINE
  8
_0-0_
  6
CONTINUOUS
 62
    7
 10
202.53910863496367
 20
74.785266809590439
 11
203.08946263496367
 21
74.848656809590437
  0
LINE
  8
_0-0_
  6
CONTINUOUS
 62
    7
 10
203.08946263496367
 20
74.848656809590437
 11
203.61862963496367
 21
74.996795809590424
  0
LINE
  8
_0-0_
  6
CONTINUOUS
 62
    7
 10
203.61862963496367
 20
74.996795809590424
 11
204.12660863496367
 21
75.229683809590426
  0
LINE
  8
_0-0_
  6
CONTINUOUS
 62
    7
 10
204.12660863496367
 20
75.229683809590426
 11
204.59238563496368
 21
75.525961809590427
  0
LINE
  8
_0-0_
  6
CONTINUOUS
 62
    7
 10
204.59238563496368
 20
75.525961809590427
 11
205.03680263496366
 21
75.885974809590437
  0
LINE
  8
_0-0_
  6
CONTINUOUS
 62
    7
 10
205.03680263496366
 20
75.885974809590437
 11
205.39664363496368
 21
76.288017809590428
  0
LINE
  8
_0-0_
  6
CONTINUOUS
 62
    7
 10
205.39664363496368
 20
76.288017809590428
 11
205.71410863496368
 21
76.753793809590434
  0
LINE
  8
_0-0_
  6
CONTINUOUS
 62
    7
 10
205.71410863496368
 20
76.753793809590434
 11
205.94699763496368
 21
77.240585809590442
  0
LINE
  8
_0-0_
  6
CONTINUOUS
 62
    7
 10
205.94699763496368
 20
77.240585809590442
 11
206.11632363496366
 21
77.769752809590443
  0
LINE
  8
_0-0_
  6
CONTINUOUS
 62
    7
 10
206.11632363496366
 20
77.769752809590443
 11
206.22208763496366
 21
78.319934809590421
  0
LINE
  8
_0-0_
  6
CONTINUOUS
 62
    7
 10
206.22208763496366
 20
78.319934809590421
 11
206.24327563496368
 21
78.87046080959044
  0
LINE
  8
_0-0_
  6
CONTINUOUS
 62
    7
 10
206.24327563496368
 20
78.87046080959044
 11
206.17988563496368
 21
79.420642809590419
  0
LINE
  8
_0-0_
  6
CONTINUOUS
 62
    7
 10
206.17988563496368
 20
79.420642809590419
 11
206.05276163496367
 21
79.970824809590425
  0
LINE
  8
_0-0_
  6
CONTINUOUS
 62
    7
 10
206.05276163496367
 20
79.970824809590425
 11
205.84123263496366
 21
80.478975809590423
  0
LINE
  8
_0-0_
  6
CONTINUOUS
 62
    7
 10
205.84123263496366
 20
80.478975809590423
 11
205.56596963496366
 21
80.965767809590432
  0
LINE
  8
_0-0_
  6
CONTINUOUS
 62
    7
 10
205.56596963496366
 20
80.965767809590432
 11
205.22731663496367
 21
81.389169809590442
  0
LINE
  8
_0-0_
  6
CONTINUOUS
 62
    7
 10
205.22731663496367
 20
81.389169809590442
 11
204.82510163496366
 21
81.791212809590434
  0
LINE
  8
_0-0_
  6
CONTINUOUS
 62
    7
 10
204.82510163496366
 20
81.791212809590434
 11
204.38068463496367
 21
82.108850809590422
  0
LINE
  8
_0-0_
  6
CONTINUOUS
 62
    7
 10
204.38068463496367
 20
82.108850809590422
 11
203.87270563496367
 21
82.36275380959043
  0
LINE
  8
_0-0_
  6
CONTINUOUS
 62
    7
 10
203.87270563496367
 20
82.36275380959043
 11
203.36472563496366
 21
82.553267809590437
  0
LINE
  8
_0-0_
  6
CONTINUOUS
 62
    7
 10
203.36472563496366
 20
82.553267809590437
 11
202.81437163496366
 21
82.680391809590418
  0
LINE
  8
_0-0_
  6
CONTINUOUS
 62
    7
 10
202.81437163496366
 20
82.680391809590418
 11
202.26401763496366
 21
82.701406809590424
  0
LINE
  8
_0-0_
  6
CONTINUOUS
 62
    7
 10
202.26401763496366
 20
82.701406809590424
 11
201.71366363496367
 21
82.680391809590418
  0
LINE
  8
_0-0_
  6
CONTINUOUS
 62
    7
 10
201.71366363496367
 20
82.680391809590418
 11
201.16330963496367
 21
82.553267809590437
  0
LINE
  8
_0-0_
  6
CONTINUOUS
 62
    7
 10
201.16330963496367
 20
82.553267809590437
 11
200.65533063496366
 21
82.36275380959043
  0
LINE
  8
_0-0_
  6
CONTINUOUS
 62
    7
 10
200.65533063496366
 20
82.36275380959043
 11
200.16853863496368
 21
82.108850809590422
  0
LINE
  8
_0-0_
  6
CONTINUOUS
 62
    7
 10
200.16853863496368
 20
82.108850809590422
 11
199.70276163496368
 21
81.791212809590434
  0
LINE
  8
_0-0_
  6
CONTINUOUS
 62
    7
 10
199.70276163496368
 20
81.791212809590434
 11
199.32190663496368
 21
81.389169809590442
  0
LINE
  8
_0-0_
  6
CONTINUOUS
 62
    7
 10
199.32190663496368
 20
81.389169809590442
 11
198.98308163496367
 21
80.965767809590432
  0
LINE
  8
_0-0_
  6
CONTINUOUS
 62
    7
 10
198.98308163496367
 20
80.965767809590432
 11
198.68680263496367
 21
80.478975809590423
  0
LINE
  8
_0-0_
  6
CONTINUOUS
 62
    7
 10
198.68680263496367
 20
80.478975809590423
 11
198.49628963496366
 21
79.970824809590425
  0
LINE
  8
_0-0_
  6
CONTINUOUS
 62
    7
 10
198.49628963496366
 20
79.970824809590425
 11
198.34814963496368
 21
79.420642809590419
  0
LINE
  8
_0-0_
  6
CONTINUOUS
 62
    7
 10
198.34814963496368
 20
79.420642809590419
 11
198.30577563496368
 21
78.87046080959044
  0
LINE
  8
_0-0_
  6
CONTINUOUS
 62
    7
 10
198.30577563496368
 20
78.87046080959044
 11
198.30577563496368
 21
78.319934809590421
  0
LINE
  8
_0-0_
  6
CONTINUOUS
 62
    7
 10
198.30577563496368
 20
78.319934809590421
 11
198.41171163496367
 21
77.769752809590443
  0
LINE
  8
_0-0_
  6
CONTINUOUS
 62
    7
 10
198.41171163496367
 20
77.769752809590443
 11
198.58103863496368
 21
77.240585809590442
  0
LINE
  8
_0-0_
  6
CONTINUOUS
 62
    7
 10
198.58103863496368
 20
77.240585809590442
 11
198.83494163496368
 21
76.753793809590434
  0
LINE
  8
_0-0_
  6
CONTINUOUS
 62
    7
 10
223.11304663496367
 20
71.207879809590423
 11
222.85914363496366
 21
72.266212809590428
  0
LINE
  8
_0-0_
  6
CONTINUOUS
 62
    7
 10
222.85914363496366
 20
72.266212809590428
 11
222.52049063496366
 21
73.282171809590437
  0
LINE
  8
_0-0_
  6
CONTINUOUS
 62
    7
 10
222.52049063496366
 20
73.282171809590437
 11
222.11844763496367
 21
74.298474809590431
  0
LINE
  8
_0-0_
  6
CONTINUOUS
 62
    7
 10
222.11844763496367
 20
74.298474809590431
 11
221.65267063496367
 21
75.272058809590419
  0
LINE
  8
_0-0_
  6
CONTINUOUS
 62
    7
 10
221.65267063496367
 20
75.272058809590419
 11
221.12350363496367
 21
76.203267809590443
  0
LINE
  8
_0-0_
  6
CONTINUOUS
 62
    7
 10
221.12350363496367
 20
76.203267809590443
 11
220.50958763496368
 21
77.092446809590427
  0
LINE
  8
_0-0_
  6
CONTINUOUS
 62
    7
 10
220.50958763496368
 20
77.092446809590427
 11
219.85364163496368
 21
77.938906809590435
  0
LINE
  8
_0-0_
  6
CONTINUOUS
 62
    7
 10
219.85364163496368
 20
77.938906809590435
 11
219.11260163496368
 21
78.743336809590431
  0
LINE
  8
_0-0_
  6
CONTINUOUS
 62
    7
 10
219.11260163496368
 20
78.743336809590431
 11
218.32953163496367
 21
79.484032809590417
  0
LINE
  8
_0-0_
  6
CONTINUOUS
 62
    7
 10
213.12261463496367
 20
82.489877809590439
 11
212.08529563496367
 21
82.786156809590437
  0
LINE
  8
_0-0_
  6
CONTINUOUS
 62
    7
 10
212.08529563496367
 20
82.786156809590437
 11
211.02696263496367
 21
83.01904480959044
  0
LINE
  8
_0-0_
  6
CONTINUOUS
 62
    7
 10
211.02696263496367
 20
83.01904480959044
 11
209.96862963496366
 21
83.188198809590432
  0
LINE
  8
_0-0_
  6
CONTINUOUS
 62
    7
 10
209.96862963496366
 20
83.188198809590432
 11
208.88928063496368
 21
83.25193380959044
  0
LINE
  8
_0-0_
  6
CONTINUOUS
 62
    7
 10
208.88928063496368
 20
83.25193380959044
 11
207.80958763496366
 21
83.25193380959044
  0
LINE
  8
_0-0_
  6
CONTINUOUS
 62
    7
 10
207.80958763496366
 20
83.25193380959044
 11
206.73023963496368
 21
83.188198809590432
  0
LINE
  8
_0-0_
  6
CONTINUOUS
 62
    7
 10
206.73023963496368
 20
83.188198809590432
 11
205.67190663496368
 21
83.01904480959044
  0
LINE
  8
_0-0_
  6
CONTINUOUS
 62
    7
 10
205.67190663496368
 20
83.01904480959044
 11
204.61357263496367
 21
82.786156809590437
  0
LINE
  8
_0-0_
  6
CONTINUOUS
 62
    7
 10
204.61357263496367
 20
82.786156809590437
 11
203.57625463496368
 21
82.489877809590439
  0
LINE
  8
_0-0_
  6
CONTINUOUS
 62
    7
 10
239.64433763496368
 20
68.202377809590445
 11
239.60196263496366
 21
69.768518809590432
  0
LINE
  8
_0-0_
  6
CONTINUOUS
 62
    7
 10
239.60196263496366
 20
69.768518809590432
 11
239.47483863496367
 21
71.313643809590445
  0
LINE
  8
_0-0_
  6
CONTINUOUS
 62
    7
 10
239.47483863496367
 20
71.313643809590445
 11
239.28432463496367
 21
72.85911380959044
  0
LINE
  8
_0-0_
  6
CONTINUOUS
 62
    7
 10
239.28432463496367
 20
72.85911380959044
 11
239.00940663496365
 21
74.404238809590424
  0
LINE
  8
_0-0_
  6
CONTINUOUS
 62
    7
 10
239.00940663496365
 20
74.404238809590424
 11
238.67075363496366
 21
75.928004809590419
  0
LINE
  8
_0-0_
  6
CONTINUOUS
 62
    7
 10
238.67075363496366
 20
75.928004809590419
 11
238.24735163496365
 21
77.431099809590421
  0
LINE
  8
_0-0_
  6
CONTINUOUS
 62
    7
 10
238.24735163496365
 20
77.431099809590421
 11
237.73919963496365
 21
78.912490809590423
  0
LINE
  8
_0-0_
  6
CONTINUOUS
 62
    7
 10
237.73919963496365
 20
78.912490809590423
 11
237.18901763496368
 21
80.351851809590443
  0
LINE
  8
_0-0_
  6
CONTINUOUS
 62
    7
 10
237.18901763496368
 20
80.351851809590443
 11
236.53272763496366
 21
81.770197809590428
  0
LINE
  8
_0-0_
  6
CONTINUOUS
 62
    7
 10
236.53272763496366
 20
81.770197809590428
 11
235.83440663496367
 21
83.167183809590426
  0
LINE
  8
_0-0_
  6
CONTINUOUS
 62
    7
 10
235.83440663496367
 20
83.167183809590426
 11
235.05099163496365
 21
84.521795809590429
  0
LINE
  8
_0-0_
  6
CONTINUOUS
 62
    7
 10
235.05099163496365
 20
84.521795809590429
 11
234.20453163496367
 21
85.83403280959044
  0
LINE
  8
_0-0_
  6
CONTINUOUS
 62
    7
 10
234.20453163496367
 20
85.83403280959044
 11
233.29433763496365
 21
87.082879809590423
  0
LINE
  8
_0-0_
  6
CONTINUOUS
 62
    7
 10
233.29433763496365
 20
87.082879809590423
 11
232.32075363496367
 21
88.31071180959043
  0
LINE
  8
_0-0_
  6
CONTINUOUS
 62
    7
 10
232.32075363496367
 20
88.31071180959043
 11
231.28343563496367
 21
89.474809809590425
  0
LINE
  8
_0-0_
  6
CONTINUOUS
 62
    7
 10
231.28343563496367
 20
89.474809809590425
 11
230.20408663496366
 21
90.596532809590428
  0
LINE
  8
_0-0_
  6
CONTINUOUS
 62
    7
 10
230.20408663496366
 20
90.596532809590428
 11
229.06100363496367
 21
91.654865809590433
  0
LINE
  8
_0-0_
  6
CONTINUOUS
 62
    7
 10
229.06100363496367
 20
91.654865809590433
 11
227.85453163496368
 21
92.670824809590428
  0
LINE
  8
_0-0_
  6
CONTINUOUS
 62
    7
 10
227.85453163496368
 20
92.670824809590428
 11
226.60568463496367
 21
93.602377809590422
  0
LINE
  8
_0-0_
  6
CONTINUOUS
 62
    7
 10
226.60568463496367
 20
93.602377809590422
 11
225.31446263496366
 21
94.491212809590422
  0
LINE
  8
_0-0_
  6
CONTINUOUS
 62
    7
 10
225.31446263496366
 20
94.491212809590422
 11
224.00222563496368
 21
95.295642809590419
  0
LINE
  8
_0-0_
  6
CONTINUOUS
 62
    7
 10
224.00222563496368
 20
95.295642809590419
 11
222.62625463496366
 21
96.036337809590421
  0
LINE
  8
_0-0_
  6
CONTINUOUS
 62
    7
 10
222.62625463496366
 20
96.036337809590421
 11
221.20825363496368
 21
96.713643809590423
  0
LINE
  8
_0-0_
  6
CONTINUOUS
 62
    7
 10
221.20825363496368
 20
96.713643809590423
 11
219.78990763496367
 21
97.327559809590426
  0
LINE
  8
_0-0_
  6
CONTINUOUS
 62
    7
 10
219.78990763496367
 20
97.327559809590426
 11
218.30817163496366
 21
97.856726809590427
  0
LINE
  8
_0-0_
  6
CONTINUOUS
 62
    7
 10
218.30817163496366
 20
97.856726809590427
 11
216.82678063496368
 21
98.32250380959043
  0
LINE
  8
_0-0_
  6
CONTINUOUS
 62
    7
 10
216.82678063496368
 20
98.32250380959043
 11
215.30267063496368
 21
98.703530809590418
  0
LINE
  8
_0-0_
  6
CONTINUOUS
 62
    7
 10
215.30267063496368
 20
98.703530809590418
 11
213.77856063496367
 21
99.020824809590422
  0
LINE
  8
_0-0_
  6
CONTINUOUS
 62
    7
 10
213.77856063496367
 20
99.020824809590422
 11
212.23343563496368
 21
99.253712809590425
  0
LINE
  8
_0-0_
  6
CONTINUOUS
 62
    7
 10
212.23343563496368
 20
99.253712809590425
 11
210.68830963496367
 21
99.401851809590426
  0
LINE
  8
_0-0_
  6
CONTINUOUS
 62
    7
 10
210.68830963496367
 20
99.401851809590426
 11
209.12182463496367
 21
99.486601809590425
  0
LINE
  8
_0-0_
  6
CONTINUOUS
 62
    7
 10
209.12182463496367
 20
99.486601809590425
 11
207.57687163496368
 21
99.486601809590425
  0
LINE
  8
_0-0_
  6
CONTINUOUS
 62
    7
 10
207.57687163496368
 20
99.486601809590425
 11
206.01055963496367
 21
99.401851809590426
  0
LINE
  8
_0-0_
  6
CONTINUOUS
 62
    7
 10
206.01055963496367
 20
99.401851809590426
 11
204.46526163496367
 21
99.253712809590425
  0
LINE
  8
_0-0_
  6
CONTINUOUS
 62
    7
 10
204.46526163496367
 20
99.253712809590425
 11
202.92013663496368
 21
99.020824809590422
  0
LINE
  8
_0-0_
  6
CONTINUOUS
 62
    7
 10
202.92013663496368
 20
99.020824809590422
 11
201.39619863496367
 21
98.703530809590418
  0
LINE
  8
_0-0_
  6
CONTINUOUS
 62
    7
 10
201.39619863496367
 20
98.703530809590418
 11
199.87208763496366
 21
98.32250380959043
  0
LINE
  8
_0-0_
  6
CONTINUOUS
 62
    7
 10
199.87208763496366
 20
98.32250380959043
 11
198.39052463496367
 21
97.856726809590427
  0
LINE
  8
_0-0_
  6
CONTINUOUS
 62
    7
 10
198.39052463496367
 20
97.856726809590427
 11
196.92997663496368
 21
97.327559809590426
  0
LINE
  8
_0-0_
  6
CONTINUOUS
 62
    7
 10
196.92997663496368
 20
97.327559809590426
 11
195.49061563496366
 21
96.713643809590423
  0
LINE
  8
_0-0_
  6
CONTINUOUS
 62
    7
 10
195.49061563496366
 20
96.713643809590423
 11
194.07244163496367
 21
96.036337809590421
  0
LINE
  8
_0-0_
  6
CONTINUOUS
 62
    7
 10
194.07244163496367
 20
96.036337809590421
 11
192.71783063496366
 21
95.295642809590419
  0
LINE
  8
_0-0_
  6
CONTINUOUS
 62
    7
 10
192.71783063496366
 20
95.295642809590419
 11
191.38440663496368
 21
94.491212809590422
  0
LINE
  8
_0-0_
  6
CONTINUOUS
 62
    7
 10
191.38440663496368
 20
94.491212809590422
 11
190.09318463496368
 21
93.602377809590422
  0
LINE
  8
_0-0_
  6
CONTINUOUS
 62
    7
 10
190.09318463496368
 20
93.602377809590422
 11
188.84433763496367
 21
92.670824809590428
  0
LINE
  8
_0-0_
  6
CONTINUOUS
 62
    7
 10
188.84433763496367
 20
92.670824809590428
 11
187.65905263496367
 21
91.654865809590433
  0
LINE
  8
_0-0_
  6
CONTINUOUS
 62
    7
 10
187.65905263496367
 20
91.654865809590433
 11
186.49478263496368
 21
90.596532809590428
  0
LINE
  8
_0-0_
  6
CONTINUOUS
 62
    7
 10
186.49478263496368
 20
90.596532809590428
 11
185.41526163496368
 21
89.474809809590425
  0
LINE
  8
_0-0_
  6
CONTINUOUS
 62
    7
 10
185.41526163496368
 20
89.474809809590425
 11
184.37811563496368
 21
88.31071180959043
  0
LINE
  8
_0-0_
  6
CONTINUOUS
 62
    7
 10
184.37811563496368
 20
88.31071180959043
 11
183.40453163496366
 21
87.082879809590423
  0
LINE
  8
_0-0_
  6
CONTINUOUS
 62
    7
 10
183.40453163496366
 20
87.082879809590423
 11
182.49433763496367
 21
85.83403280959044
  0
LINE
  8
_0-0_
  6
CONTINUOUS
 62
    7
 10
182.49433763496367
 20
85.83403280959044
 11
181.64770563496367
 21
84.521795809590429
  0
LINE
  8
_0-0_
  6
CONTINUOUS
 62
    7
 10
181.64770563496367
 20
84.521795809590429
 11
180.86446263496367
 21
83.167183809590426
  0
LINE
  8
_0-0_
  6
CONTINUOUS
 62
    7
 10
180.86446263496367
 20
83.167183809590426
 11
180.16596963496366
 21
81.770197809590428
  0
LINE
  8
_0-0_
  6
CONTINUOUS
 62
    7
 10
180.16596963496366
 20
81.770197809590428
 11
179.53103863496366
 21
80.351851809590443
  0
LINE
  8
_0-0_
  6
CONTINUOUS
 62
    7
 10
179.53103863496366
 20
80.351851809590443
 11
178.95949763496367
 21
78.912490809590423
  0
LINE
  8
_0-0_
  6
CONTINUOUS
 62
    7
 10
178.95949763496367
 20
78.912490809590423
 11
178.45151763496366
 21
77.431099809590421
  0
LINE
  8
_0-0_
  6
CONTINUOUS
 62
    7
 10
178.45151763496366
 20
77.431099809590421
 11
178.02811563496368
 21
75.928004809590419
  0
LINE
  8
_0-0_
  6
CONTINUOUS
 62
    7
 10
178.02811563496368
 20
75.928004809590419
 11
177.68946263496366
 21
74.404238809590424
  0
LINE
  8
_0-0_
  6
CONTINUOUS
 62
    7
 10
177.68946263496366
 20
74.404238809590424
 11
177.41437163496366
 21
72.85911380959044
  0
LINE
  8
_0-0_
  6
CONTINUOUS
 62
    7
 10
177.41437163496366
 20
72.85911380959044
 11
177.22385763496368
 21
71.313643809590445
  0
LINE
  8
_0-0_
  6
CONTINUOUS
 62
    7
 10
177.22385763496368
 20
71.313643809590445
 11
177.09690663496366
 21
69.768518809590432
  0
LINE
  8
_0-0_
  6
CONTINUOUS
 62
    7
 10
177.09690663496366
 20
69.768518809590432
 11
177.05453163496367
 21
68.202377809590445
  0
LINE
  8
_0-0_
  6
CONTINUOUS
 62
    7
 10
228.53183763496367
 20
68.202377809590445
 11
228.48946263496367
 21
69.451225809590426
  0
LINE
  8
_0-0_
  6
CONTINUOUS
 62
    7
 10
228.48946263496367
 20
69.451225809590426
 11
228.38369863496368
 21
70.678712809590422
  0
LINE
  8
_0-0_
  6
CONTINUOUS
 62
    7
 10
228.38369863496368
 20
70.678712809590422
 11
228.19318463496367
 21
71.906544809590429
  0
LINE
  8
_0-0_
  6
CONTINUOUS
 62
    7
 10
228.19318463496367
 20
71.906544809590429
 11
227.91792163496368
 21
73.134032809590423
  0
LINE
  8
_0-0_
  6
CONTINUOUS
 62
    7
 10
227.91792163496368
 20
73.134032809590423
 11
227.57926863496368
 21
74.319489809590436
  0
LINE
  8
_0-0_
  6
CONTINUOUS
 62
    7
 10
227.57926863496368
 20
74.319489809590436
 11
227.17722563496366
 21
75.483587809590432
  0
LINE
  8
_0-0_
  6
CONTINUOUS
 62
    7
 10
227.17722563496366
 20
75.483587809590432
 11
226.69043363496368
 21
76.626669809590425
  0
LINE
  8
_0-0_
  6
CONTINUOUS
 62
    7
 10
226.69043363496368
 20
76.626669809590425
 11
226.13990763496366
 21
77.748393809590425
  0
LINE
  8
_0-0_
  6
CONTINUOUS
 62
    7
 10
226.13990763496366
 20
77.748393809590425
 11
225.50497663496367
 21
78.828085809590419
  0
LINE
  8
_0-0_
  6
CONTINUOUS
 62
    7
 10
225.50497663496367
 20
78.828085809590419
 11
224.82767063496368
 21
79.865059809590434
  0
LINE
  8
_0-0_
  6
CONTINUOUS
 62
    7
 10
224.82767063496368
 20
79.865059809590434
 11
224.06561563496368
 21
80.860003809590438
  0
LINE
  8
_0-0_
  6
CONTINUOUS
 62
    7
 10
224.06561563496368
 20
80.860003809590438
 11
223.26118563496368
 21
81.791212809590434
  0
LINE
  8
_0-0_
  6
CONTINUOUS
 62
    7
 10
223.26118563496368
 20
81.791212809590434
 11
222.39336663496368
 21
82.680391809590418
  0
LINE
  8
_0-0_
  6
CONTINUOUS
 62
    7
 10
222.39336663496368
 20
82.680391809590418
 11
221.48317163496367
 21
83.526851809590426
  0
LINE
  8
_0-0_
  6
CONTINUOUS
 62
    7
 10
221.48317163496367
 20
83.526851809590426
 11
220.50958763496368
 21
84.310266809590445
  0
LINE
  8
_0-0_
  6
CONTINUOUS
 62
    7
 10
220.50958763496368
 20
84.310266809590445
 11
219.49362963496367
 21
85.029946809590427
  0
LINE
  8
_0-0_
  6
CONTINUOUS
 62
    7
 10
219.49362963496367
 20
85.029946809590427
 11
218.43529563496367
 21
85.685893809590425
  0
LINE
  8
_0-0_
  6
CONTINUOUS
 62
    7
 10
218.43529563496367
 20
85.685893809590425
 11
217.35594763496368
 21
86.278793809590439
  0
LINE
  8
_0-0_
  6
CONTINUOUS
 62
    7
 10
217.35594763496368
 20
86.278793809590439
 11
216.21286463496367
 21
86.786601809590422
  0
LINE
  8
_0-0_
  6
CONTINUOUS
 62
    7
 10
216.21286463496367
 20
86.786601809590422
 11
215.04876763496367
 21
87.231018809590438
  0
LINE
  8
_0-0_
  6
CONTINUOUS
 62
    7
 10
215.04876763496367
 20
87.231018809590438
 11
213.86330963496368
 21
87.612045809590427
  0
LINE
  8
_0-0_
  6
CONTINUOUS
 62
    7
 10
213.86330963496368
 20
87.612045809590427
 11
212.67785263496367
 21
87.908324809590425
  0
LINE
  8
_0-0_
  6
CONTINUOUS
 62
    7
 10
212.67785263496367
 20
87.908324809590425
 11
211.45036463496368
 21
88.141212809590428
  0
LINE
  8
_0-0_
  6
CONTINUOUS
 62
    7
 10
211.45036463496368
 20
88.141212809590428
 11
210.22253263496367
 21
88.289351809590443
  0
LINE
  8
_0-0_
  6
CONTINUOUS
 62
    7
 10
210.22253263496367
 20
88.289351809590443
 11
208.97368563496366
 21
88.374101809590428
  0
LINE
  8
_0-0_
  6
CONTINUOUS
 62
    7
 10
208.97368563496366
 20
88.374101809590428
 11
207.72501063496367
 21
88.374101809590428
  0
LINE
  8
_0-0_
  6
CONTINUOUS
 62
    7
 10
207.72501063496367
 20
88.374101809590428
 11
206.49735163496368
 21
88.289351809590443
  0
LINE
  8
_0-0_
  6
CONTINUOUS
 62
    7
 10
206.49735163496368
 20
88.289351809590443
 11
205.24850363496367
 21
88.141212809590428
  0
LINE
  8
_0-0_
  6
CONTINUOUS
 62
    7
 10
205.24850363496367
 20
88.141212809590428
 11
204.04203163496368
 21
87.908324809590425
  0
LINE
  8
_0-0_
  6
CONTINUOUS
 62
    7
 10
204.04203163496368
 20
87.908324809590425
 11
202.83555963496366
 21
87.612045809590427
  0
LINE
  8
_0-0_
  6
CONTINUOUS
 62
    7
 10
202.83555963496366
 20
87.612045809590427
 11
201.65010163496368
 21
87.231018809590438
  0
LINE
  8
_0-0_
  6
CONTINUOUS
 62
    7
 10
201.65010163496368
 20
87.231018809590438
 11
200.48600363496368
 21
86.786601809590422
  0
LINE
  8
_0-0_
  6
CONTINUOUS
 62
    7
 10
200.48600363496368
 20
86.786601809590422
 11
199.36410863496366
 21
86.278793809590439
  0
LINE
  8
_0-0_
  6
CONTINUOUS
 62
    7
 10
199.36410863496366
 20
86.278793809590439
 11
198.26357263496368
 21
85.685893809590425
  0
LINE
  8
_0-0_
  6
CONTINUOUS
 62
    7
 10
198.26357263496368
 20
85.685893809590425
 11
197.20523963496368
 21
85.029946809590427
  0
LINE
  8
_0-0_
  6
CONTINUOUS
 62
    7
 10
197.20523963496368
 20
85.029946809590427
 11
196.18910863496367
 21
84.310266809590445
  0
LINE
  8
_0-0_
  6
CONTINUOUS
 62
    7
 10
196.18910863496367
 20
84.310266809590445
 11
195.21552463496366
 21
83.526851809590426
  0
LINE
  8
_0-0_
  6
CONTINUOUS
 62
    7
 10
195.21552463496366
 20
83.526851809590426
 11
194.30533063496367
 21
82.680391809590418
  0
LINE
  8
_0-0_
  6
CONTINUOUS
 62
    7
 10
194.30533063496367
 20
82.680391809590418
 11
193.43751063496367
 21
81.791212809590434
  0
LINE
  8
_0-0_
  6
CONTINUOUS
 62
    7
 10
193.43751063496367
 20
81.791212809590434
 11
192.63308163496367
 21
80.860003809590438
  0
LINE
  8
_0-0_
  6
CONTINUOUS
 62
    7
 10
192.63308163496367
 20
80.860003809590438
 11
191.87119863496366
 21
79.865059809590434
  0
LINE
  8
_0-0_
  6
CONTINUOUS
 62
    7
 10
191.87119863496366
 20
79.865059809590434
 11
191.19389263496367
 21
78.828085809590419
  0
LINE
  8
_0-0_
  6
CONTINUOUS
 62
    7
 10
191.19389263496367
 20
78.828085809590419
 11
190.57997663496366
 21
77.748393809590425
  0
LINE
  8
_0-0_
  6
CONTINUOUS
 62
    7
 10
190.57997663496366
 20
77.748393809590425
 11
190.00843563496366
 21
76.626669809590425
  0
LINE
  8
_0-0_
  6
CONTINUOUS
 62
    7
 10
190.00843563496366
 20
76.626669809590425
 11
189.52164363496368
 21
75.483587809590432
  0
LINE
  8
_0-0_
  6
CONTINUOUS
 62
    7
 10
189.52164363496368
 20
75.483587809590432
 11
189.11942863496367
 21
74.319489809590436
  0
LINE
  8
_0-0_
  6
CONTINUOUS
 62
    7
 10
189.11942863496367
 20
74.319489809590436
 11
188.78077563496367
 21
73.134032809590423
  0
LINE
  8
_0-0_
  6
CONTINUOUS
 62
    7
 10
188.78077563496367
 20
73.134032809590423
 11
188.50568463496367
 21
71.906544809590429
  0
LINE
  8
_0-0_
  6
CONTINUOUS
 62
    7
 10
188.50568463496367
 20
71.906544809590429
 11
188.31517063496366
 21
70.678712809590422
  0
LINE
  8
_0-0_
  6
CONTINUOUS
 62
    7
 10
188.31517063496366
 20
70.678712809590422
 11
188.20940663496367
 21
69.451225809590426
  0
LINE
  8
_0-0_
  6
CONTINUOUS
 62
    7
 10
188.20940663496367
 20
69.451225809590426
 11
188.16703163496368
 21
68.202377809590445
  0
LINE
  8
_0-0_
  6
CONTINUOUS
 62
    7
 10
237.59106063496367
 20
168.02436480959042
 11
228.95523963496368
 21
168.02436480959042
  0
LINE
  8
_0-0_
  6
CONTINUOUS
 62
    7
 10
228.95523963496368
 20
163.07135080959043
 11
237.59106063496367
 21
163.07135080959043
  0
LINE
  8
_0-0_
  6
CONTINUOUS
 62
    7
 10
178.98068463496367
 20
163.07135080959043
 11
178.98068463496367
 21
168.02436480959042
  0
LINE
  8
_0-0_
  6
CONTINUOUS
 62
    7
 10
229.65356063496367
 20
163.07135080959043
 11
229.65356063496367
 21
168.02436480959042
  0
LINE
  8
_0-0_
  6
CONTINUOUS
 62
    7
 10
178.98068463496367
 20
168.02436480959042
 11
187.61667763496368
 21
168.02436480959042
  0
LINE
  8
_0-0_
  6
CONTINUOUS
 62
    7
 10
187.63786463496368
 20
163.07135080959043
 11
178.98068463496367
 21
163.07135080959043
  0
LINE
  8
_0-0_
  6
CONTINUOUS
 62
    7
 10
178.98068463496367
 20
163.07135080959043
 11
178.98068463496367
 21
168.02436480959042
  0
LINE
  8
_0-0_
  6
CONTINUOUS
 62
    7
 10
235.02997663496367
 20
163.07135080959043
 11
230.05594763496367
 21
168.02436480959042
  0
LINE
  8
_0-0_
  6
CONTINUOUS
 62
    7
 10
229.65356063496367
 20
165.63243480959042
 11
232.21498863496367
 21
163.07135080959043
  0
LINE
  8
_0-0_
  6
CONTINUOUS
 62
    7
 10
237.59106063496367
 20
163.30423880959043
 11
232.87093563496367
 21
168.02436480959042
  0
LINE
  8
_0-0_
  6
CONTINUOUS
 62
    7
 10
235.68626763496366
 20
168.02436480959042
 11
237.59106063496367
 21
166.11922680959043
  0
LINE
  8
_0-0_
  6
CONTINUOUS
 62
    7
 10
237.59106063496367
 20
165.03987780959042
 11
235.62253263496368
 21
163.07135080959043
  0
LINE
  8
_0-0_
  6
CONTINUOUS
 62
    7
 10
232.80754563496367
 20
163.07135080959043
 11
237.59106063496367
 21
167.83385080959042
  0
LINE
  8
_0-0_
  6
CONTINUOUS
 62
    7
 10
234.96658663496368
 20
168.02436480959042
 11
230.01357263496368
 21
163.07135080959043
  0
LINE
  8
_0-0_
  6
CONTINUOUS
 62
    7
 10
229.65356063496367
 20
165.50548280959043
 11
232.15125463496366
 21
168.02436480959042
  0
LINE
  8
_0-0_
  6
CONTINUOUS
 62
    7
 10
238.83990763496365
 20
159.13429580959041
 11
228.95523963496368
 21
159.13429580959041
  0
LINE
  8
_0-0_
  6
CONTINUOUS
 62
    7
 10
238.83990763496365
 20
159.13429580959041
 11
238.83990763496365
 21
156.63660180959042
  0
LINE
  8
_0-0_
  6
CONTINUOUS
 62
    7
 10
238.07785263496368
 20
156.63660180959042
 11
238.83990763496365
 21
156.63660180959042
  0
LINE
  8
_0-0_
  6
CONTINUOUS
 62
    7
 10
234.11978263496366
 20
154.66807380959042
 11
228.95523963496368
 21
154.66807380959042
  0
LINE
  8
_0-0_
  6
CONTINUOUS
 62
    7
 10
229.39965663496366
 20
159.13429580959041
 11
229.39965663496366
 21
156.63660180959042
  0
LINE
  8
_0-0_
  6
CONTINUOUS
 62
    7
 10
238.07785263496368
 20
156.63660180959042
 11
237.69682463496366
 21
156.17099680959043
  0
LINE
  8
_0-0_
  6
CONTINUOUS
 62
    7
 10
237.69682463496366
 20
156.17099680959043
 11
237.23139263496367
 21
155.76878180959042
  0
LINE
  8
_0-0_
  6
CONTINUOUS
 62
    7
 10
237.23139263496367
 20
155.76878180959042
 11
236.74460063496366
 21
155.40894180959043
  0
LINE
  8
_0-0_
  6
CONTINUOUS
 62
    7
 10
236.74460063496366
 20
155.40894180959043
 11
236.19407463496367
 21
155.11266380959043
  0
LINE
  8
_0-0_
  6
CONTINUOUS
 62
    7
 10
236.19407463496367
 20
155.11266380959043
 11
235.62253263496368
 21
154.90096180959043
  0
LINE
  8
_0-0_
  6
CONTINUOUS
 62
    7
 10
235.62253263496368
 20
154.90096180959043
 11
235.02997663496367
 21
154.75282280959041
  0
LINE
  8
_0-0_
  6
CONTINUOUS
 62
    7
 10
235.02997663496367
 20
154.75282280959041
 11
234.41606063496366
 21
154.66807380959042
  0
LINE
  8
_0-0_
  6
CONTINUOUS
 62
    7
 10
234.41606063496366
 20
154.66807380959042
 11
233.80248863496365
 21
154.66807380959042
  0
LINE
  8
_0-0_
  6
CONTINUOUS
 62
    7
 10
233.80248863496365
 20
154.66807380959042
 11
233.18857263496366
 21
154.75282280959041
  0
LINE
  8
_0-0_
  6
CONTINUOUS
 62
    7
 10
233.18857263496366
 20
154.75282280959041
 11
232.59567163496365
 21
154.90096180959043
  0
LINE
  8
_0-0_
  6
CONTINUOUS
 62
    7
 10
232.59567163496365
 20
154.90096180959043
 11
232.02447563496366
 21
155.11266380959043
  0
LINE
  8
_0-0_
  6
CONTINUOUS
 62
    7
 10
232.02447563496366
 20
155.11266380959043
 11
231.49530863496366
 21
155.40894180959043
  0
LINE
  8
_0-0_
  6
CONTINUOUS
 62
    7
 10
231.49530863496366
 20
155.40894180959043
 11
230.98715663496367
 21
155.76878180959042
  0
LINE
  8
_0-0_
  6
CONTINUOUS
 62
    7
 10
230.98715663496367
 20
155.76878180959042
 11
230.54273963496368
 21
156.17099680959043
  0
LINE
  8
_0-0_
  6
CONTINUOUS
 62
    7
 10
230.54273963496368
 20
156.17099680959043
 11
230.14035263496368
 21
156.63660180959042
  0
LINE
  8
_0-0_
  6
CONTINUOUS
 62
    7
 10
228.95523963496368
 20
156.63660180959042
 11
230.14035263496368
 21
156.63660180959042
  0
LINE
  8
_0-0_
  6
CONTINUOUS
 62
    7
 10
187.63786463496368
 20
156.63660180959042
 11
176.25010163496367
 21
156.63660180959042
  0
LINE
  8
_0-0_
  6
CONTINUOUS
 62
    7
 10
176.25010163496367
 20
159.13429580959041
 11
176.25010163496367
 21
156.63660180959042
  0
LINE
  8
_0-0_
  6
CONTINUOUS
 62
    7
 10
176.25010163496367
 20
159.13429580959041
 11
187.63786463496368
 21
159.13429580959041
  0
LINE
  8
_0-0_
  6
CONTINUOUS
 62
    7
 10
177.01215663496367
 20
156.63660180959042
 11
177.37199763496366
 21
156.21337180959043
  0
LINE
  8
_0-0_
  6
CONTINUOUS
 62
    7
 10
177.37199763496366
 20
156.21337180959043
 11
177.79539963496367
 21
155.81115680959041
  0
LINE
  8
_0-0_
  6
CONTINUOUS
 62
    7
 10
177.79539963496367
 20
155.81115680959041
 11
178.26100363496366
 21
155.47250380959042
  0
LINE
  8
_0-0_
  6
CONTINUOUS
 62
    7
 10
178.26100363496366
 20
155.47250380959042
 11
178.74779563496367
 21
155.17622580959042
  0
LINE
  8
_0-0_
  6
CONTINUOUS
 62
    7
 10
178.74779563496367
 20
155.17622580959042
 11
179.27696263496367
 21
154.96452380959042
  0
LINE
  8
_0-0_
  6
CONTINUOUS
 62
    7
 10
179.27696263496367
 20
154.96452380959042
 11
179.82731663496367
 21
154.79519780959043
  0
LINE
  8
_0-0_
  6
CONTINUOUS
 62
    7
 10
179.82731663496367
 20
154.79519780959043
 11
180.39885763496366
 21
154.68926080959042
  0
LINE
  8
_0-0_
  6
CONTINUOUS
 62
    7
 10
180.39885763496366
 20
154.68926080959042
 11
180.97039963496368
 21
154.66807380959042
  0
LINE
  8
_0-0_
  6
CONTINUOUS
 62
    7
 10
180.97039963496368
 20
154.66807380959042
 11
187.63786463496368
 21
154.66807380959042
  0
LINE
  8
_0-0_
  6
CONTINUOUS
 62
    7
 10
237.04087863496366
 20
155.62064280959044
 11
233.52722563496366
 21
159.13429580959041
  0
LINE
  8
_0-0_
  6
CONTINUOUS
 62
    7
 10
232.13023963496366
 20
159.13429580959041
 11
236.15169963496368
 21
155.09147580959043
  0
LINE
  8
_0-0_
  6
CONTINUOUS
 62
    7
 10
235.09336663496367
 20
154.75282280959041
 11
230.71189363496367
 21
159.13429580959041
  0
LINE
  8
_0-0_
  6
CONTINUOUS
 62
    7
 10
229.39965663496366
 20
159.04954580959043
 11
233.76011463496366
 21
154.66807380959042
  0
LINE
  8
_0-0_
  6
CONTINUOUS
 62
    7
 10
231.81260163496367
 20
155.21842780959042
 11
229.39965663496366
 21
157.63154480959042
  0
LINE
  8
_0-0_
  6
CONTINUOUS
 62
    7
 10
234.92421163496365
 20
159.13429580959041
 11
237.78157463496368
 21
156.27676080959043
  0
LINE
  8
_0-0_
  6
CONTINUOUS
 62
    7
 10
238.81889263496367
 20
156.63660180959042
 11
236.34221363496366
 21
159.13429580959041
  0
LINE
  8
_0-0_
  6
CONTINUOUS
 62
    7
 10
237.73919963496365
 20
159.13429580959041
 11
238.83990763496365
 21
158.03358780959041
  0
LINE
  8
_0-0_
  6
CONTINUOUS
 62
    7
 10
238.83990763496365
 20
156.70016380959044
 11
238.75515863496366
 21
156.63660180959042
  0
LINE
  8
_0-0_
  6
CONTINUOUS
 62
    7
 10
235.60151763496367
 20
154.87977480959043
 11
238.83990763496365
 21
158.11833680959043
  0
LINE
  8
_0-0_
  6
CONTINUOUS
 62
    7
 10
238.43786463496366
 20
159.13429580959041
 11
233.97164363496367
 21
154.66807380959042
  0
LINE
  8
_0-0_
  6
CONTINUOUS
 62
    7
 10
232.74415563496368
 20
154.83739980959044
 11
237.04087863496366
 21
159.13429580959041
  0
LINE
  8
_0-0_
  6
CONTINUOUS
 62
    7
 10
235.62253263496368
 20
159.13429580959041
 11
231.74921163496367
 21
155.26080280959042
  0
LINE
  8
_0-0_
  6
CONTINUOUS
 62
    7
 10
230.92376763496367
 20
155.81115680959041
 11
234.22554663496365
 21
159.13429580959041
  0
LINE
  8
_0-0_
  6
CONTINUOUS
 62
    7
 10
232.82856063496365
 20
159.13429580959041
 11
230.22510163496366
 21
156.53083680959043
  0
LINE
  8
_0-0_
  6
CONTINUOUS
 62
    7
 10
229.39965663496366
 20
157.10237780959042
 11
231.41055963496368
 21
159.13429580959041
  0
LINE
  8
_0-0_
  6
CONTINUOUS
 62
    7
 10
230.01357263496368
 20
159.13429580959041
 11
229.39965663496366
 21
158.52037980959042
  0
LINE
  8
_0-0_
  6
CONTINUOUS
 62
    7
 10
177.01215663496367
 20
156.63660180959042
 11
176.25010163496367
 21
156.63660180959042
  0
LINE
  8
_0-0_
  6
CONTINUOUS
 62
    7
 10
230.14035263496368
 20
156.63660180959042
 11
229.39965663496366
 21
156.63660180959042
  0
LINE
  8
_0-0_
  6
CONTINUOUS
 62
    7
 10
208.29637963496367
 20
175.36913580959043
 11
226.66907463496366
 21
175.36913580959043
  0
LINE
  8
_0-0_
  6
CONTINUOUS
 62
    7
 10
208.29637963496367
 20
172.87144180959044
 11
225.63210063496368
 21
172.87144180959044
  0
LINE
  8
_0-0_
  6
CONTINUOUS
 62
    7
 10
208.29637963496367
 20
172.38464980959043
 11
225.63210063496368
 21
172.38464980959043
  0
LINE
  8
_0-0_
  6
CONTINUOUS
 62
    7
 10
212.06428063496367
 20
172.38464980959043
 11
212.06428063496367
 21
172.87144180959044
  0
LINE
  8
_0-0_
  6
CONTINUOUS
 62
    7
 10
216.31862963496366
 20
172.38464980959043
 11
216.31862963496366
 21
172.87144180959044
  0
LINE
  8
_0-0_
  6
CONTINUOUS
 62
    7
 10
223.87510163496367
 20
172.38464980959043
 11
223.87510163496367
 21
172.87144180959044
  0
LINE
  8
_0-0_
  6
CONTINUOUS
 62
    7
 10
226.66907463496366
 20
173.40060780959041
 11
226.62669963496367
 21
173.14670480959043
  0
LINE
  8
_0-0_
  6
CONTINUOUS
 62
    7
 10
226.62669963496367
 20
173.14670480959043
 11
226.52093563496368
 21
172.89262880959043
  0
LINE
  8
_0-0_
  6
CONTINUOUS
 62
    7
 10
226.52093563496368
 20
172.89262880959043
 11
226.37279563496367
 21
172.68092780959043
  0
LINE
  8
_0-0_
  6
CONTINUOUS
 62
    7
 10
226.37279563496367
 20
172.68092780959043
 11
226.13990763496366
 21
172.51160180959042
  0
LINE
  8
_0-0_
  6
CONTINUOUS
 62
    7
 10
226.13990763496366
 20
172.51160180959042
 11
225.90701963496366
 21
172.40583680959043
  0
LINE
  8
_0-0_
  6
CONTINUOUS
 62
    7
 10
225.90701963496366
 20
172.40583680959043
 11
225.63210063496368
 21
172.38464980959043
  0
LINE
  8
_0-0_
  6
CONTINUOUS
 62
    7
 10
226.16126763496368
 20
173.40060780959041
 11
226.13990763496366
 21
173.25246880959043
  0
LINE
  8
_0-0_
  6
CONTINUOUS
 62
    7
 10
226.13990763496366
 20
173.25246880959043
 11
226.05515863496368
 21
173.10432980959041
  0
LINE
  8
_0-0_
  6
CONTINUOUS
 62
    7
 10
226.05515863496368
 20
173.10432980959041
 11
225.94939363496368
 21
172.97737780959042
  0
LINE
  8
_0-0_
  6
CONTINUOUS
 62
    7
 10
225.94939363496368
 20
172.97737780959042
 11
225.80125463496367
 21
172.91381580959043
  0
LINE
  8
_0-0_
  6
CONTINUOUS
 62
    7
 10
225.80125463496367
 20
172.91381580959043
 11
225.63210063496368
 21
172.87144180959044
  0
LINE
  8
_0-0_
  6
CONTINUOUS
 62
    7
 10
226.16126763496368
 20
173.40060780959041
 11
226.16126763496368
 21
175.36913580959043
  0
LINE
  8
_0-0_
  6
CONTINUOUS
 62
    7
 10
225.27208763496367
 20
172.38464980959043
 11
224.76428063496368
 21
172.87144180959044
  0
LINE
  8
_0-0_
  6
CONTINUOUS
 62
    7
 10
224.06561563496368
 20
172.87144180959044
 11
224.57376763496367
 21
172.38464980959043
  0
LINE
  8
_0-0_
  6
CONTINUOUS
 62
    7
 10
226.37279563496367
 20
172.68092780959043
 11
226.01312763496367
 21
173.04076780959042
  0
LINE
  8
_0-0_
  6
CONTINUOUS
 62
    7
 10
226.16126763496368
 20
173.59112180959042
 11
226.62669963496367
 21
173.12551780959043
  0
LINE
  8
_0-0_
  6
CONTINUOUS
 62
    7
 10
226.66907463496366
 20
174.50131580959044
 11
226.16126763496368
 21
174.98810780959042
  0
LINE
  8
_0-0_
  6
CONTINUOUS
 62
    7
 10
226.49991963496367
 20
175.36913580959043
 11
226.66907463496366
 21
175.19980980959042
  0
LINE
  8
_0-0_
  6
CONTINUOUS
 62
    7
 10
215.42979463496368
 20
172.38464980959043
 11
214.94265863496366
 21
172.87144180959044
  0
LINE
  8
_0-0_
  6
CONTINUOUS
 62
    7
 10
214.24433763496367
 20
172.87144180959044
 11
214.73112963496368
 21
172.38464980959043
  0
LINE
  8
_0-0_
  6
CONTINUOUS
 62
    7
 10
213.33414363496368
 20
172.38464980959043
 11
212.82599163496366
 21
172.87144180959044
  0
LINE
  8
_0-0_
  6
CONTINUOUS
 62
    7
 10
212.12767063496366
 20
172.87144180959044
 11
212.63582263496366
 21
172.38464980959043
  0
LINE
  8
_0-0_
  6
CONTINUOUS
 62
    7
 10
226.66907463496366
 20
175.36913580959043
 11
226.66907463496366
 21
173.40060780959041
  0
LINE
  8
_0-0_
  6
CONTINUOUS
 62
    7
 10
208.29637963496367
 20
175.36913580959043
 11
208.29637963496367
 21
172.38464980959043
  0
LINE
  8
_0-0_
  6
CONTINUOUS
 62
    7
 10
208.29637963496367
 20
205.15060780959041
 11
177.20267063496368
 21
205.15060780959041
  0
LINE
  8
_0-0_
  6
CONTINUOUS
 62
    7
 10
177.01215663496367
 20
204.96009480959043
 11
177.01215663496367
 21
204.15583680959043
  0
LINE
  8
_0-0_
  6
CONTINUOUS
 62
    7
 10
187.63786463496368
 20
192.74705880959041
 11
187.63786463496368
 21
151.81071180959043
  0
LINE
  8
_0-0_
  6
CONTINUOUS
 62
    7
 10
177.20267063496368
 20
205.15060780959041
 11
177.01215663496367
 21
204.96009480959043
  0
LINE
  8
_0-0_
  6
CONTINUOUS
 62
    7
 10
208.29637963496367
 20
205.15060780959041
 11
239.36907463496365
 21
205.15060780959041
  0
LINE
  8
_0-0_
  6
CONTINUOUS
 62
    7
 10
228.95523963496368
 20
192.74705880959041
 11
228.95523963496368
 21
134.64448980959043
  0
LINE
  8
_0-0_
  6
CONTINUOUS
 62
    7
 10
239.36907463496365
 20
205.15060780959041
 11
239.58094763496365
 21
204.96009480959043
  0
LINE
  8
_0-0_
  6
CONTINUOUS
 62
    7
 10
208.29637963496367
 20
208.79121280959043
 11
208.29637963496367
 21
201.80628180959042
  0
LINE
  8
_0-0_
  6
CONTINUOUS
 62
    7
 10
208.29637963496367
 20
200.79032280959044
 11
208.29637963496367
 21
199.79537980959043
  0
LINE
  8
_0-0_
  6
CONTINUOUS
 62
    7
 10
208.29637963496367
 20
198.77942080959042
 11
208.29637963496367
 21
191.79448980959043
  0
LINE
  8
_0-0_
  6
CONTINUOUS
 62
    7
 10
208.29637963496367
 20
190.77853080959042
 11
208.29637963496367
 21
189.78358780959041
  0
LINE
  8
_0-0_
  6
CONTINUOUS
 62
    7
 10
208.29637963496367
 20
188.76762880959043
 11
208.29637963496367
 21
181.78269780959042
  0
LINE
  8
_0-0_
  6
CONTINUOUS
 62
    7
 10
208.29637963496367
 20
180.76673880959044
 11
208.29637963496367
 21
179.77179580959043
  0
LINE
  8
_0-0_
  6
CONTINUOUS
 62
    7
 10
208.29637963496367
 20
178.75583680959042
 11
208.29637963496367
 21
171.77090580959043
  0
LINE
  8
_0-0_
  6
CONTINUOUS
 62
    7
 10
208.29637963496367
 20
170.75477480959043
 11
208.29637963496367
 21
169.76000380959042
  0
LINE
  8
_0-0_
  6
CONTINUOUS
 62
    7
 10
208.29637963496367
 20
168.74404480959043
 11
208.29637963496367
 21
161.75894180959043
  0
LINE
  8
_0-0_
  6
CONTINUOUS
 62
    7
 10
208.29637963496367
 20
160.74298280959042
 11
208.29637963496367
 21
159.74821180959043
  0
LINE
  8
_0-0_
  6
CONTINUOUS
 62
    7
 10
208.29637963496367
 20
158.73208080959043
 11
208.29637963496367
 21
151.74714980959041
  0
LINE
  8
_0-0_
  6
CONTINUOUS
 62
    7
 10
208.29637963496367
 20
150.73119080959043
 11
208.29637963496367
 21
149.73624780959042
  0
LINE
  8
_0-0_
  6
CONTINUOUS
 62
    7
 10
208.29637963496367
 20
148.72028880959041
 11
208.29637963496367
 21
141.73535780959043
  0
LINE
  8
_0-0_
  6
CONTINUOUS
 62
    7
 10
208.29637963496367
 20
140.71922680959042
 11
208.29637963496367
 21
139.72445580959044
  0
LINE
  8
_0-0_
  6
CONTINUOUS
 62
    7
 10
208.29637963496367
 20
138.70849680959043
 11
208.29637963496367
 21
131.72339380959042
  0
LINE
  8
_0-0_
  6
CONTINUOUS
 62
    7
 10
208.29637963496367
 20
130.70743480959041
 11
208.29637963496367
 21
129.71266380959042
  0
LINE
  8
_0-0_
  6
CONTINUOUS
 62
    7
 10
208.29637963496367
 20
128.69670480959041
 11
208.29637963496367
 21
121.71160180959043
  0
LINE
  8
_0-0_
  6
CONTINUOUS
 62
    7
 10
208.29637963496367
 20
120.69564280959042
 11
208.29637963496367
 21
119.70069880959042
  0
LINE
  8
_0-0_
  6
CONTINUOUS
 62
    7
 10
208.29637963496367
 20
118.68474080959044
 11
208.29637963496367
 21
115.44635080959043
  0
LINE
  8
_0-0_
  6
CONTINUOUS
 62
    7
 10
178.72660863496367
 20
203.16089380959042
 11
177.01215663496367
 21
204.15583680959043
  0
LINE
  8
_0-0_
  6
CONTINUOUS
 62
    7
 10
239.58094763496365
 20
204.96009480959043
 11
239.58094763496365
 21
204.15583680959043
  0
LINE
  8
_0-0_
  6
CONTINUOUS
 62
    7
 10
227.96029563496367
 20
133.64971880959041
 11
227.96029563496367
 21
192.74705880959041
  0
LINE
  8
_0-0_
  6
CONTINUOUS
 62
    7
 10
227.96029563496367
 20
192.74705880959041
 11
228.95523963496368
 21
192.74705880959041
  0
LINE
  8
_0-0_
  6
CONTINUOUS
 62
    7
 10
227.96029563496367
 20
133.64971880959041
 11
228.95523963496368
 21
134.64448980959043
  0
LINE
  8
_0-0_
  6
CONTINUOUS
 62
    7
 10
208.29637963496367
 20
133.64971880959041
 11
227.96029563496367
 21
133.64971880959041
  0
LINE
  8
_0-0_
  6
CONTINUOUS
 62
    7
 10
178.72660863496367
 20
203.16089380959042
 11
185.30949763496366
 21
201.02321180959044
  0
LINE
  8
_0-0_
  6
CONTINUOUS
 62
    7
 10
226.75382363496368
 20
133.64971880959041
 11
226.45754563496368
 21
133.94599680959041
  0
LINE
  8
_0-0_
  6
CONTINUOUS
 62
    7
 10
208.29637963496367
 20
133.94599680959041
 11
226.45754563496368
 21
133.94599680959041
  0
LINE
  8
_0-0_
  6
CONTINUOUS
 62
    7
 10
227.41011463496366
 20
201.70051780959042
 11
229.33626763496366
 21
202.46257280959043
  0
LINE
  8
_0-0_
  6
CONTINUOUS
 62
    7
 10
229.33626763496366
 20
202.46257280959043
 11
231.30479463496366
 21
203.16089380959042
  0
LINE
  8
_0-0_
  6
CONTINUOUS
 62
    7
 10
231.30479463496366
 20
203.16089380959042
 11
233.29433763496365
 21
203.77480980959044
  0
LINE
  8
_0-0_
  6
CONTINUOUS
 62
    7
 10
233.29433763496365
 20
203.77480980959044
 11
235.30523963496367
 21
204.30397580959041
  0
LINE
  8
_0-0_
  6
CONTINUOUS
 62
    7
 10
235.30523963496367
 20
204.30397580959041
 11
237.33715663496366
 21
204.76958080959042
  0
LINE
  8
_0-0_
  6
CONTINUOUS
 62
    7
 10
237.33715663496366
 20
204.76958080959042
 11
239.36907463496365
 21
205.15060780959041
  0
LINE
  8
_0-0_
  6
CONTINUOUS
 62
    7
 10
227.41011463496366
 20
201.70051780959042
 11
208.29637963496367
 21
201.70051780959042
  0
LINE
  8
_0-0_
  6
CONTINUOUS
 62
    7
 10
226.45754563496368
 20
172.38464980959043
 11
226.45754563496368
 21
133.94599680959041
  0
LINE
  8
_0-0_
  6
CONTINUOUS
 62
    7
 10
226.71144863496366
 20
172.38464980959043
 11
208.29637963496367
 21
172.38464980959043
  0
LINE
  8
_0-0_
  6
CONTINUOUS
 62
    7
 10
226.71144863496366
 20
172.38464980959043
 11
226.71144863496366
 21
192.04839380959044
  0
LINE
  8
_0-0_
  6
CONTINUOUS
 62
    7
 10
227.41011463496366
 20
201.70051780959042
 11
226.92332263496368
 21
192.55654480959043
  0
LINE
  8
_0-0_
  6
CONTINUOUS
 62
    7
 10
208.29637963496367
 20
192.04839380959044
 11
226.71144863496366
 21
192.04839380959044
  0
LINE
  8
_0-0_
  6
CONTINUOUS
 62
    7
 10
208.29637963496367
 20
192.36603080959043
 11
226.64805963496366
 21
192.36603080959043
  0
LINE
  8
_0-0_
  6
CONTINUOUS
 62
    7
 10
226.92332263496368
 20
192.55654480959043
 11
226.90196263496367
 21
192.36603080959043
  0
LINE
  8
_0-0_
  6
CONTINUOUS
 62
    7
 10
226.90196263496367
 20
192.36603080959043
 11
226.81721363496368
 21
192.19670480959041
  0
LINE
  8
_0-0_
  6
CONTINUOUS
 62
    7
 10
226.81721363496368
 20
192.19670480959041
 11
226.71144863496366
 21
192.04839380959044
  0
LINE
  8
_0-0_
  6
CONTINUOUS
 62
    7
 10
186.68529563496367
 20
199.20282280959043
 11
187.63786463496368
 21
192.74705880959041
  0
LINE
  8
_0-0_
  6
CONTINUOUS
 62
    7
 10
186.68529563496367
 20
199.20282280959043
 11
186.64292163496367
 21
199.54147580959042
  0
LINE
  8
_0-0_
  6
CONTINUOUS
 62
    7
 10
186.64292163496367
 20
199.54147580959042
 11
186.53715663496368
 21
199.88012880959042
  0
LINE
  8
_0-0_
  6
CONTINUOUS
 62
    7
 10
186.53715663496368
 20
199.88012880959042
 11
186.38901763496366
 21
200.17640680959042
  0
LINE
  8
_0-0_
  6
CONTINUOUS
 62
    7
 10
186.38901763496366
 20
200.17640680959042
 11
186.17731663496366
 21
200.47285780959044
  0
LINE
  8
_0-0_
  6
CONTINUOUS
 62
    7
 10
186.17731663496366
 20
200.47285780959044
 11
185.92324063496366
 21
200.70557380959042
  0
LINE
  8
_0-0_
  6
CONTINUOUS
 62
    7
 10
185.92324063496366
 20
200.70557380959042
 11
185.62696263496366
 21
200.89608780959043
  0
LINE
  8
_0-0_
  6
CONTINUOUS
 62
    7
 10
185.62696263496366
 20
200.89608780959043
 11
185.30949763496366
 21
201.02321180959044
  0
LINE
  8
_0-0_
  6
CONTINUOUS
 62
    7
 10
229.88644863496367
 20
199.20282280959043
 11
228.95523963496368
 21
192.74705880959041
  0
LINE
  8
_0-0_
  6
CONTINUOUS
 62
    7
 10
229.88644863496367
 20
199.20282280959043
 11
229.92882363496366
 21
199.54147580959042
  0
LINE
  8
_0-0_
  6
CONTINUOUS
 62
    7
 10
229.92882363496366
 20
199.54147580959042
 11
230.03458763496366
 21
199.88012880959042
  0
LINE
  8
_0-0_
  6
CONTINUOUS
 62
    7
 10
230.03458763496366
 20
199.88012880959042
 11
230.18272763496367
 21
200.17640680959042
  0
LINE
  8
_0-0_
  6
CONTINUOUS
 62
    7
 10
230.18272763496367
 20
200.17640680959042
 11
230.39460063496367
 21
200.47285780959044
  0
LINE
  8
_0-0_
  6
CONTINUOUS
 62
    7
 10
230.39460063496367
 20
200.47285780959044
 11
230.64850363496367
 21
200.70557380959042
  0
LINE
  8
_0-0_
  6
CONTINUOUS
 62
    7
 10
230.64850363496367
 20
200.70557380959042
 11
230.94478263496367
 21
200.89608780959043
  0
LINE
  8
_0-0_
  6
CONTINUOUS
 62
    7
 10
230.94478263496367
 20
200.89608780959043
 11
231.26241963496366
 21
201.02321180959044
  0
LINE
  8
_0-0_
  6
CONTINUOUS
 62
    7
 10
237.84530863496366
 20
203.16089380959042
 11
231.26241963496366
 21
201.02321180959044
  0
LINE
  8
_0-0_
  6
CONTINUOUS
 62
    7
 10
237.84530863496366
 20
203.16089380959042
 11
239.58094763496365
 21
204.15583680959043
  0
LINE
  8
_0-0_
  6
CONTINUOUS
 62
    7
 10
188.67501063496368
 20
199.20282280959043
 11
208.29637963496367
 21
199.20282280959043
  0
LINE
  8
_0-0_
  6
CONTINUOUS
 62
    7
 10
187.29921163496368
 20
201.02321180959044
 11
208.29637963496367
 21
201.02321180959044
  0
LINE
  8
_0-0_
  6
CONTINUOUS
 62
    7
 10
208.29637963496367
 20
204.15583680959043
 11
177.01215663496367
 21
204.15583680959043
  0
LINE
  8
_0-0_
  6
CONTINUOUS
 62
    7
 10
208.29637963496367
 20
192.74705880959041
 11
187.63786463496368
 21
192.74705880959041
  0
LINE
  8
_0-0_
  6
CONTINUOUS
 62
    7
 10
177.01215663496367
 20
213.02454580959042
 11
177.01215663496367
 21
204.60025380959041
  0
LINE
  8
_0-0_
  6
CONTINUOUS
 62
    7
 10
239.58094763496365
 20
213.02454580959042
 11
239.58094763496365
 21
204.60025380959041
  0
LINE
  8
_0-0_
  6
CONTINUOUS
 62
    7
 10
226.56330963496367
 20
133.84005980959043
 11
227.96029563496367
 21
135.21603080959042
  0
LINE
  8
_0-0_
  6
CONTINUOUS
 62
    7
 10
227.96029563496367
 20
135.21603080959042
 11
228.95523963496368
 21
136.21080280959043
  0
LINE
  8
_0-0_
  6
CONTINUOUS
 62
    7
 10
228.95523963496368
 20
139.02596180959043
 11
227.96029563496367
 21
138.03119080959041
  0
LINE
  8
_0-0_
  6
CONTINUOUS
 62
    7
 10
227.96029563496367
 20
138.03119080959041
 11
226.45754563496368
 21
136.54945580959043
  0
LINE
  8
_0-0_
  6
CONTINUOUS
 62
    7
 10
226.45754563496368
 20
139.34342780959042
 11
227.96029563496367
 21
140.84635080959043
  0
LINE
  8
_0-0_
  6
CONTINUOUS
 62
    7
 10
227.96029563496367
 20
140.84635080959043
 11
228.95523963496368
 21
141.84112180959042
  0
LINE
  8
_0-0_
  6
CONTINUOUS
 62
    7
 10
228.95523963496368
 20
144.63509480959041
 11
227.96029563496367
 21
143.64032280959043
  0
LINE
  8
_0-0_
  6
CONTINUOUS
 62
    7
 10
227.96029563496367
 20
143.64032280959043
 11
226.45754563496368
 21
142.15858780959041
  0
LINE
  8
_0-0_
  6
CONTINUOUS
 62
    7
 10
226.45754563496368
 20
144.97374780959044
 11
227.96029563496367
 21
146.45548280959042
  0
LINE
  8
_0-0_
  6
CONTINUOUS
 62
    7
 10
227.96029563496367
 20
146.45548280959042
 11
228.95523963496368
 21
147.45025380959044
  0
LINE
  8
_0-0_
  6
CONTINUOUS
 62
    7
 10
228.95523963496368
 20
150.26541380959043
 11
227.96029563496367
 21
149.27064280959041
  0
LINE
  8
_0-0_
  6
CONTINUOUS
 62
    7
 10
227.96029563496367
 20
149.27064280959041
 11
226.45754563496368
 21
147.76789180959042
  0
LINE
  8
_0-0_
  6
CONTINUOUS
 62
    7
 10
226.45754563496368
 20
150.58305180959042
 11
227.96029563496367
 21
152.08580280959043
  0
LINE
  8
_0-0_
  6
CONTINUOUS
 62
    7
 10
227.96029563496367
 20
152.08580280959043
 11
228.95523963496368
 21
153.05955880959041
  0
LINE
  8
_0-0_
  6
CONTINUOUS
 62
    7
 10
228.95523963496368
 20
155.87471880959043
 11
227.96029563496367
 21
154.87977480959043
  0
LINE
  8
_0-0_
  6
CONTINUOUS
 62
    7
 10
227.96029563496367
 20
154.87977480959043
 11
226.45754563496368
 21
153.39821180959044
  0
LINE
  8
_0-0_
  6
CONTINUOUS
 62
    7
 10
226.45754563496368
 20
156.21337180959043
 11
227.96029563496367
 21
157.69493480959042
  0
LINE
  8
_0-0_
  6
CONTINUOUS
 62
    7
 10
227.96029563496367
 20
157.69493480959042
 11
228.95523963496368
 21
158.68987780959043
  0
LINE
  8
_0-0_
  6
CONTINUOUS
 62
    7
 10
228.95523963496368
 20
161.50503780959042
 11
227.96029563496367
 21
160.51009480959041
  0
LINE
  8
_0-0_
  6
CONTINUOUS
 62
    7
 10
227.96029563496367
 20
160.51009480959041
 11
226.45754563496368
 21
159.00734380959042
  0
LINE
  8
_0-0_
  6
CONTINUOUS
 62
    7
 10
226.45754563496368
 20
161.82250380959042
 11
227.96029563496367
 21
163.30423880959043
  0
LINE
  8
_0-0_
  6
CONTINUOUS
 62
    7
 10
227.96029563496367
 20
163.30423880959043
 11
228.95523963496368
 21
164.29901080959041
  0
LINE
  8
_0-0_
  6
CONTINUOUS
 62
    7
 10
228.95523963496368
 20
167.11416980959044
 11
227.96029563496367
 21
166.11922680959043
  0
LINE
  8
_0-0_
  6
CONTINUOUS
 62
    7
 10
227.96029563496367
 20
166.11922680959043
 11
226.45754563496368
 21
164.63766380959044
  0
LINE
  8
_0-0_
  6
CONTINUOUS
 62
    7
 10
226.45754563496368
 20
167.45282280959043
 11
227.96029563496367
 21
168.93455880959041
  0
LINE
  8
_0-0_
  6
CONTINUOUS
 62
    7
 10
227.96029563496367
 20
168.93455880959041
 11
228.95523963496368
 21
169.92932980959043
  0
LINE
  8
_0-0_
  6
CONTINUOUS
 62
    7
 10
228.95523963496368
 20
172.74448980959042
 11
226.45754563496368
 21
170.24679580959042
  0
LINE
  8
_0-0_
  6
CONTINUOUS
 62
    7
 10
226.71144863496366
 20
173.31603080959042
 11
227.96029563496367
 21
174.54369080959043
  0
LINE
  8
_0-0_
  6
CONTINUOUS
 62
    7
 10
227.96029563496367
 20
174.54369080959043
 11
228.95523963496368
 21
175.53846180959042
  0
LINE
  8
_0-0_
  6
CONTINUOUS
 62
    7
 10
228.95523963496368
 20
178.35362180959044
 11
227.96029563496367
 21
177.35885080959042
  0
LINE
  8
_0-0_
  6
CONTINUOUS
 62
    7
 10
227.96029563496367
 20
177.35885080959042
 11
226.71144863496366
 21
176.11000380959044
  0
LINE
  8
_0-0_
  6
CONTINUOUS
 62
    7
 10
226.71144863496366
 20
178.92516380959043
 11
227.96029563496367
 21
180.17401080959041
  0
LINE
  8
_0-0_
  6
CONTINUOUS
 62
    7
 10
227.96029563496367
 20
180.17401080959041
 11
228.95523963496368
 21
181.16878180959043
  0
LINE
  8
_0-0_
  6
CONTINUOUS
 62
    7
 10
228.95523963496368
 20
183.96275380959042
 11
227.96029563496367
 21
182.96798280959041
  0
LINE
  8
_0-0_
  6
CONTINUOUS
 62
    7
 10
227.96029563496367
 20
182.96798280959041
 11
226.71144863496366
 21
181.74032280959042
  0
LINE
  8
_0-0_
  6
CONTINUOUS
 62
    7
 10
226.71144863496366
 20
184.55548280959042
 11
227.96029563496367
 21
185.78314280959043
  0
LINE
  8
_0-0_
  6
CONTINUOUS
 62
    7
 10
227.96029563496367
 20
185.78314280959043
 11
228.95523963496368
 21
186.77791380959042
  0
LINE
  8
_0-0_
  6
CONTINUOUS
 62
    7
 10
228.95523963496368
 20
189.59307380959044
 11
227.96029563496367
 21
188.59830280959042
  0
LINE
  8
_0-0_
  6
CONTINUOUS
 62
    7
 10
227.96029563496367
 20
188.59830280959042
 11
226.71144863496366
 21
187.34945580959044
  0
LINE
  8
_0-0_
  6
CONTINUOUS
 62
    7
 10
226.71144863496366
 20
190.16461480959043
 11
227.96029563496367
 21
191.41346180959042
  0
LINE
  8
_0-0_
  6
CONTINUOUS
 62
    7
 10
227.96029563496367
 20
191.41346180959042
 11
228.95523963496368
 21
192.40840580959042
  0
LINE
  8
_0-0_
  6
CONTINUOUS
 62
    7
 10
238.79753263496366
 20
205.06603080959042
 11
236.44832263496366
 21
202.71647580959043
  0
LINE
  8
_0-0_
  6
CONTINUOUS
 62
    7
 10
229.37864163496366
 20
195.62560780959043
 11
226.96535263496366
 21
193.23385080959042
  0
LINE
  8
_0-0_
  6
CONTINUOUS
 62
    7
 10
227.11349163496368
 20
196.19714980959043
 11
229.84407463496368
 21
198.92755980959043
  0
LINE
  8
_0-0_
  6
CONTINUOUS
 62
    7
 10
232.29939363496365
 20
201.36186480959043
 11
235.22049063496365
 21
204.28278880959041
  0
LINE
  8
_0-0_
  6
CONTINUOUS
 62
    7
 10
231.26241963496366
 20
203.13987780959042
 11
227.28299063496368
 21
199.16044880959043
  0
LINE
  8
_0-0_
  6
CONTINUOUS
 62
    7
 10
188.63263663496366
 20
151.81071180959043
 11
188.63263663496366
 21
192.74705880959041
  0
LINE
  8
_0-0_
  6
CONTINUOUS
 62
    7
 10
183.95488563496366
 20
136.35894180959042
 11
183.95488563496366
 21
126.51647580959042
  0
LINE
  8
_0-0_
  6
CONTINUOUS
 62
    7
 10
232.61703163496367
 20
136.35894180959042
 11
232.61703163496367
 21
126.51647580959042
  0
LINE
  8
_0-0_
  6
CONTINUOUS
 62
    7
 10
239.55958763496366
 20
149.01656680959042
 11
239.58094763496365
 21
151.81071180959043
  0
LINE
  8
_0-0_
  6
CONTINUOUS
 62
    7
 10
228.95523963496368
 20
151.81071180959043
 11
239.58094763496365
 21
151.81071180959043
  0
LINE
  8
_0-0_
  6
CONTINUOUS
 62
    7
 10
238.83990763496365
 20
151.81071180959043
 11
239.58094763496365
 21
151.81071180959043
  0
LINE
  8
_0-0_
  6
CONTINUOUS
 62
    7
 10
238.37447563496366
 20
151.81071180959043
 11
237.92971363496366
 21
151.38730980959042
  0
LINE
  8
_0-0_
  6
CONTINUOUS
 62
    7
 10
237.92971363496366
 20
151.38730980959042
 11
237.42190663496368
 21
151.04865680959043
  0
LINE
  8
_0-0_
  6
CONTINUOUS
 62
    7
 10
237.42190663496368
 20
151.04865680959043
 11
236.89273963496368
 21
150.75237780959043
  0
LINE
  8
_0-0_
  6
CONTINUOUS
 62
    7
 10
236.89273963496368
 20
150.75237780959043
 11
236.32119863496365
 21
150.54067680959042
  0
LINE
  8
_0-0_
  6
CONTINUOUS
 62
    7
 10
236.32119863496365
 20
150.54067680959042
 11
235.72864163496365
 21
150.39253780959044
  0
LINE
  8
_0-0_
  6
CONTINUOUS
 62
    7
 10
235.72864163496365
 20
150.39253780959044
 11
235.13574063496367
 21
150.32897580959042
  0
LINE
  8
_0-0_
  6
CONTINUOUS
 62
    7
 10
235.13574063496367
 20
150.32897580959042
 11
234.52182463496365
 21
150.32897580959042
  0
LINE
  8
_0-0_
  6
CONTINUOUS
 62
    7
 10
234.52182463496365
 20
150.32897580959042
 11
233.90825363496367
 21
150.39253780959044
  0
LINE
  8
_0-0_
  6
CONTINUOUS
 62
    7
 10
233.90825363496367
 20
150.39253780959044
 11
233.33671163496368
 21
150.54067680959042
  0
LINE
  8
_0-0_
  6
CONTINUOUS
 62
    7
 10
233.33671163496368
 20
150.54067680959042
 11
232.76517063496365
 21
150.75237780959043
  0
LINE
  8
_0-0_
  6
CONTINUOUS
 62
    7
 10
232.76517063496365
 20
150.75237780959043
 11
232.23600363496365
 21
151.04865680959043
  0
LINE
  8
_0-0_
  6
CONTINUOUS
 62
    7
 10
232.23600363496365
 20
151.04865680959043
 11
231.72785263496365
 21
151.38730980959042
  0
LINE
  8
_0-0_
  6
CONTINUOUS
 62
    7
 10
231.72785263496365
 20
151.38730980959042
 11
231.28343563496367
 21
151.81071180959043
  0
LINE
  8
_0-0_
  6
CONTINUOUS
 62
    7
 10
233.42146163496366
 20
148.52977480959044
 11
239.05178063496368
 21
148.52977480959044
  0
LINE
  8
_0-0_
  6
CONTINUOUS
 62
    7
 10
228.15080963496368
 20
149.88455880959043
 11
229.88644863496367
 21
151.81071180959043
  0
LINE
  8
_0-0_
  6
CONTINUOUS
 62
    7
 10
232.61703163496367
 20
126.17782280959042
 11
229.12439363496367
 21
126.17782280959042
  0
LINE
  8
_0-0_
  6
CONTINUOUS
 62
    7
 10
225.42022763496368
 20
116.25078080959042
 11
225.42022763496368
 21
123.40486580959043
  0
LINE
  8
_0-0_
  6
CONTINUOUS
 62
    7
 10
215.97997663496366
 20
116.25078080959042
 11
200.59176863496367
 21
126.17782280959042
  0
LINE
  8
_0-0_
  6
CONTINUOUS
 62
    7
 10
212.40293363496366
 20
123.87064280959044
 11
200.59176863496367
 21
116.25078080959042
  0
LINE
  8
_0-0_
  6
CONTINUOUS
 62
    7
 10
215.97997663496366
 20
119.95494680959041
 11
215.97997663496366
 21
116.25078080959042
  0
LINE
  8
_0-0_
  6
CONTINUOUS
 62
    7
 10
217.27119863496367
 20
116.25078080959042
 11
217.08068463496366
 21
117.07622580959043
  0
LINE
  8
_0-0_
  6
CONTINUOUS
 62
    7
 10
217.08068463496366
 20
117.07622580959043
 11
216.86915563496368
 21
117.88031080959041
  0
LINE
  8
_0-0_
  6
CONTINUOUS
 62
    7
 10
216.86915563496368
 20
117.88031080959041
 11
216.57253263496366
 21
118.68474080959044
  0
LINE
  8
_0-0_
  6
CONTINUOUS
 62
    7
 10
216.57253263496366
 20
118.68474080959044
 11
216.25523963496366
 21
119.44679580959041
  0
LINE
  8
_0-0_
  6
CONTINUOUS
 62
    7
 10
216.25523963496366
 20
119.44679580959041
 11
215.85285263496368
 21
120.16647580959042
  0
LINE
  8
_0-0_
  6
CONTINUOUS
 62
    7
 10
215.85285263496368
 20
120.16647580959042
 11
215.40843563496367
 21
120.86514180959043
  0
LINE
  8
_0-0_
  6
CONTINUOUS
 62
    7
 10
215.40843563496367
 20
120.86514180959043
 11
214.90062763496368
 21
121.50007280959042
  0
LINE
  8
_0-0_
  6
CONTINUOUS
 62
    7
 10
214.90062763496368
 20
121.50007280959042
 11
214.35010163496366
 21
122.11364380959043
  0
LINE
  8
_0-0_
  6
CONTINUOUS
 62
    7
 10
214.35010163496366
 20
122.11364380959043
 11
213.75754563496366
 21
122.66416980959042
  0
LINE
  8
_0-0_
  6
CONTINUOUS
 62
    7
 10
213.75754563496366
 20
122.66416980959042
 11
212.52971363496368
 21
123.76487780959042
  0
LINE
  8
_0-0_
  6
CONTINUOUS
 62
    7
 10
212.52971363496368
 20
123.76487780959042
 11
211.91614163496368
 21
124.31505980959042
  0
LINE
  8
_0-0_
  6
CONTINUOUS
 62
    7
 10
211.91614163496368
 20
124.31505980959042
 11
211.34460063496368
 21
124.90796080959043
  0
LINE
  8
_0-0_
  6
CONTINUOUS
 62
    7
 10
211.34460063496368
 20
124.90796080959043
 11
210.79407463496366
 21
125.52153280959041
  0
LINE
  8
_0-0_
  6
CONTINUOUS
 62
    7
 10
210.79407463496366
 20
125.52153280959041
 11
210.30728263496368
 21
126.17782280959042
  0
LINE
  8
_0-0_
  6
CONTINUOUS
 62
    7
 10
210.30728263496368
 20
126.17782280959042
 11
209.84150563496368
 21
126.85512880959041
  0
LINE
  8
_0-0_
  6
CONTINUOUS
 62
    7
 10
209.84150563496368
 20
126.85512880959041
 11
209.39708763496367
 21
127.57480980959042
  0
LINE
  8
_0-0_
  6
CONTINUOUS
 62
    7
 10
209.39708763496367
 20
127.57480980959042
 11
208.99504563496367
 21
128.29448980959043
  0
LINE
  8
_0-0_
  6
CONTINUOUS
 62
    7
 10
208.99504563496367
 20
128.29448980959043
 11
208.63503263496366
 21
129.03535780959044
  0
LINE
  8
_0-0_
  6
CONTINUOUS
 62
    7
 10
208.63503263496366
 20
129.03535780959044
 11
208.29637963496367
 21
129.79724080959042
  0
LINE
  8
_0-0_
  6
CONTINUOUS
 62
    7
 10
208.29637963496367
 20
151.81071180959043
 11
208.29637963496367
 21
129.79724080959042
  0
LINE
  8
_0-0_
  6
CONTINUOUS
 62
    7
 10
232.61703163496367
 20
126.17782280959042
 11
232.61703163496367
 21
147.72551780959043
  0
LINE
  8
_0-0_
  6
CONTINUOUS
 62
    7
 10
208.29637963496367
 20
151.81071180959043
 11
177.01215663496367
 21
151.81071180959043
  0
LINE
  8
_0-0_
  6
CONTINUOUS
 62
    7
 10
177.03334463496367
 20
149.01656680959042
 11
177.01215663496367
 21
151.81071180959043
  0
LINE
  8
_0-0_
  6
CONTINUOUS
 62
    7
 10
208.29637963496367
 20
148.52977480959044
 11
177.54132363496367
 21
148.52977480959044
  0
LINE
  8
_0-0_
  6
CONTINUOUS
 62
    7
 10
183.95488563496366
 20
126.17782280959042
 11
210.30728263496368
 21
126.17782280959042
  0
LINE
  8
_0-0_
  6
CONTINUOUS
 62
    7
 10
200.59176863496367
 20
126.17782280959042
 11
200.59176863496367
 21
116.25078080959042
  0
LINE
  8
_0-0_
  6
CONTINUOUS
 62
    7
 10
177.03334463496367
 20
149.01656680959042
 11
208.29637963496367
 21
149.01656680959042
  0
LINE
  8
_0-0_
  6
CONTINUOUS
 62
    7
 10
184.97084463496367
 20
147.53500380959042
 11
208.29637963496367
 21
147.53500380959042
  0
LINE
  8
_0-0_
  6
CONTINUOUS
 62
    7
 10
187.68023963496367
 20
117.24537980959042
 11
187.68023963496367
 21
122.70654480959041
  0
LINE
  8
_0-0_
  6
CONTINUOUS
 62
    7
 10
183.95488563496366
 20
126.17782280959042
 11
183.95488563496366
 21
147.72551780959043
  0
LINE
  8
_0-0_
  6
CONTINUOUS
 62
    7
 10
227.89690663496367
 20
116.25078080959042
 11
228.91286463496368
 21
117.24537980959042
  0
LINE
  8
_0-0_
  6
CONTINUOUS
 62
    7
 10
188.69619863496368
 20
116.25078080959042
 11
187.68023963496367
 21
117.24537980959042
  0
LINE
  8
_0-0_
  6
CONTINUOUS
 62
    7
 10
188.69619863496368
 20
116.25078080959042
 11
227.89690663496367
 21
116.25078080959042
  0
LINE
  8
_0-0_
  6
CONTINUOUS
 62
    7
 10
228.99761463496367
 20
139.89378180959042
 11
228.99761463496367
 21
150.90051780959041
  0
LINE
  8
_0-0_
  6
CONTINUOUS
 62
    7
 10
200.59176863496367
 20
117.24537980959042
 11
187.68023963496367
 21
117.24537980959042
  0
LINE
  8
_0-0_
  6
CONTINUOUS
 62
    7
 10
217.03830963496367
 20
117.24537980959042
 11
215.97997663496366
 21
117.24537980959042
  0
LINE
  8
_0-0_
  6
CONTINUOUS
 62
    7
 10
183.17164363496366
 20
148.52977480959044
 11
183.40453163496366
 21
148.48739980959041
  0
LINE
  8
_0-0_
  6
CONTINUOUS
 62
    7
 10
183.40453163496366
 20
148.48739980959041
 11
183.63724763496367
 21
148.38163580959042
  0
LINE
  8
_0-0_
  6
CONTINUOUS
 62
    7
 10
183.63724763496367
 20
148.38163580959042
 11
183.80657463496368
 21
148.19112180959041
  0
LINE
  8
_0-0_
  6
CONTINUOUS
 62
    7
 10
183.80657463496368
 20
148.19112180959041
 11
183.91251063496367
 21
147.97942080959044
  0
LINE
  8
_0-0_
  6
CONTINUOUS
 62
    7
 10
183.91251063496367
 20
147.97942080959044
 11
183.95488563496366
 21
147.72551780959043
  0
LINE
  8
_0-0_
  6
CONTINUOUS
 62
    7
 10
232.61703163496367
 20
147.72551780959043
 11
232.65940663496366
 21
147.97942080959044
  0
LINE
  8
_0-0_
  6
CONTINUOUS
 62
    7
 10
232.65940663496366
 20
147.97942080959044
 11
232.76517063496365
 21
148.19112180959041
  0
LINE
  8
_0-0_
  6
CONTINUOUS
 62
    7
 10
232.76517063496365
 20
148.19112180959041
 11
232.95568463496366
 21
148.38163580959042
  0
LINE
  8
_0-0_
  6
CONTINUOUS
 62
    7
 10
232.95568463496366
 20
148.38163580959042
 11
233.16721363496367
 21
148.48739980959041
  0
LINE
  8
_0-0_
  6
CONTINUOUS
 62
    7
 10
233.16721363496367
 20
148.48739980959041
 11
233.42146163496366
 21
148.52977480959044
  0
LINE
  8
_0-0_
  6
CONTINUOUS
 62
    7
 10
188.69619863496368
 20
116.25078080959042
 11
188.69619863496368
 21
122.70654480959041
  0
LINE
  8
_0-0_
  6
CONTINUOUS
 62
    7
 10
228.15080963496368
 20
127.36310780959042
 11
226.30940663496366
 21
125.52153280959041
  0
LINE
  8
_0-0_
  6
CONTINUOUS
 62
    7
 10
228.40471363496368
 20
127.36310780959042
 11
209.52421163496368
 21
127.36310780959042
  0
LINE
  8
_0-0_
  6
CONTINUOUS
 62
    7
 10
177.03334463496367
 20
149.01656680959042
 11
177.54132363496367
 21
148.52977480959044
  0
LINE
  8
_0-0_
  6
CONTINUOUS
 62
    7
 10
239.55958763496366
 20
149.01656680959042
 11
239.05178063496368
 21
148.52977480959044
  0
LINE
  8
_0-0_
  6
CONTINUOUS
 62
    7
 10
228.15080963496368
 20
139.89378180959042
 11
228.15080963496368
 21
149.88455880959043
  0
LINE
  8
_0-0_
  6
CONTINUOUS
 62
    7
 10
187.44735163496367
 20
126.17782280959042
 11
188.69619863496368
 21
124.94999080959042
  0
LINE
  8
_0-0_
  6
CONTINUOUS
 62
    7
 10
229.39965663496366
 20
139.89378180959042
 11
228.15080963496368
 21
139.89378180959042
  0
LINE
  8
_0-0_
  6
CONTINUOUS
 62
    7
 10
229.39965663496366
 20
128.35805180959042
 11
229.39965663496366
 21
139.89378180959042
  0
LINE
  8
_0-0_
  6
CONTINUOUS
 62
    7
 10
225.42022763496368
 20
123.40486580959043
 11
225.46260163496368
 21
123.87064280959044
  0
LINE
  8
_0-0_
  6
CONTINUOUS
 62
    7
 10
225.46260163496368
 20
123.87064280959044
 11
225.56836663496367
 21
124.33641980959041
  0
LINE
  8
_0-0_
  6
CONTINUOUS
 62
    7
 10
225.56836663496367
 20
124.33641980959041
 11
225.75887963496368
 21
124.75947780959044
  0
LINE
  8
_0-0_
  6
CONTINUOUS
 62
    7
 10
225.75887963496368
 20
124.75947780959044
 11
225.99176863496368
 21
125.16186480959041
  0
LINE
  8
_0-0_
  6
CONTINUOUS
 62
    7
 10
225.99176863496368
 20
125.16186480959041
 11
226.30940663496366
 21
125.52153280959041
  0
LINE
  8
_0-0_
  6
CONTINUOUS
 62
    7
 10
224.93343563496367
 20
123.40486580959043
 11
212.93210063496366
 21
123.40486580959043
  0
LINE
  8
_0-0_
  6
CONTINUOUS
 62
    7
 10
225.80125463496367
 20
125.52153280959041
 11
210.81543363496368
 21
125.52153280959041
  0
LINE
  8
_0-0_
  6
CONTINUOUS
 62
    7
 10
229.39965663496366
 20
128.35805180959042
 11
229.35728263496367
 21
128.10397580959042
  0
LINE
  8
_0-0_
  6
CONTINUOUS
 62
    7
 10
229.35728263496367
 20
128.10397580959042
 11
229.25151763496368
 21
127.87108780959042
  0
LINE
  8
_0-0_
  6
CONTINUOUS
 62
    7
 10
229.25151763496368
 20
127.87108780959042
 11
229.10337863496366
 21
127.65955880959044
  0
LINE
  8
_0-0_
  6
CONTINUOUS
 62
    7
 10
229.10337863496366
 20
127.65955880959044
 11
228.89150563496366
 21
127.51124780959043
  0
LINE
  8
_0-0_
  6
CONTINUOUS
 62
    7
 10
228.89150563496366
 20
127.51124780959043
 11
228.65896163496367
 21
127.40548280959041
  0
LINE
  8
_0-0_
  6
CONTINUOUS
 62
    7
 10
228.65896163496367
 20
127.40548280959041
 11
228.40471363496368
 21
127.36310780959042
  0
LINE
  8
_0-0_
  6
CONTINUOUS
 62
    7
 10
200.59176863496367
 20
122.70654480959041
 11
187.68023963496367
 21
122.70654480959041
  0
LINE
  8
_0-0_
  6
CONTINUOUS
 62
    7
 10
188.69619863496368
 20
122.70654480959041
 11
188.69619863496368
 21
124.94999080959042
  0
LINE
  8
_0-0_
  6
CONTINUOUS
 62
    7
 10
229.12439363496367
 20
126.17782280959042
 11
227.89690663496367
 21
124.94999080959042
  0
LINE
  8
_0-0_
  6
CONTINUOUS
 62
    7
 10
227.89690663496367
 20
122.70654480959041
 11
227.89690663496367
 21
124.94999080959042
  0
LINE
  8
_0-0_
  6
CONTINUOUS
 62
    7
 10
228.89150563496366
 20
117.24537980959042
 11
228.89150563496366
 21
122.70654480959041
  0
LINE
  8
_0-0_
  6
CONTINUOUS
 62
    7
 10
227.89690663496367
 20
116.25078080959042
 11
227.89690663496367
 21
122.70654480959041
  0
LINE
  8
_0-0_
  6
CONTINUOUS
 62
    7
 10
227.89690663496367
 20
116.25078080959042
 11
228.89150563496366
 21
117.24537980959042
  0
LINE
  8
_0-0_
  6
CONTINUOUS
 62
    7
 10
227.89690663496367
 20
122.70654480959041
 11
228.89150563496366
 21
122.70654480959041
  0
LINE
  8
_0-0_
  6
CONTINUOUS
 62
    7
 10
229.03998863496366
 20
126.09307380959044
 11
227.96029563496367
 21
127.17259480959044
  0
LINE
  8
_0-0_
  6
CONTINUOUS
 62
    7
 10
226.92332263496368
 20
126.13544880959043
 11
228.00267063496366
 21
125.05609980959042
  0
LINE
  8
_0-0_
  6
CONTINUOUS
 62
    7
 10
228.89150563496366
 20
122.05025380959043
 11
228.23555963496366
 21
122.70654480959041
  0
LINE
  8
_0-0_
  6
CONTINUOUS
 62
    7
 10
227.89690663496367
 20
123.04519780959043
 11
225.90701963496366
 21
125.03474080959043
  0
LINE
  8
_0-0_
  6
CONTINUOUS
 62
    7
 10
225.42022763496368
 20
123.40486580959043
 11
227.89690663496367
 21
120.92853080959043
  0
LINE
  8
_0-0_
  6
CONTINUOUS
 62
    7
 10
227.89690663496367
 20
120.92853080959043
 11
228.89150563496366
 21
119.93358780959042
  0
LINE
  8
_0-0_
  6
CONTINUOUS
 62
    7
 10
228.89150563496366
 20
117.83828080959043
 11
227.89690663496367
 21
118.83287980959042
  0
LINE
  8
_0-0_
  6
CONTINUOUS
 62
    7
 10
227.89690663496367
 20
118.83287980959042
 11
225.42022763496368
 21
121.28819880959043
  0
LINE
  8
_0-0_
  6
CONTINUOUS
 62
    7
 10
225.42022763496368
 20
119.19289180959044
 11
227.89690663496367
 21
116.71621280959042
  0
LINE
  8
_0-0_
  6
CONTINUOUS
 62
    7
 10
227.89690663496367
 20
116.71621280959042
 11
228.12979463496367
 21
116.48332480959041
  0
LINE
  8
_0-0_
  6
CONTINUOUS
 62
    7
 10
226.26703163496367
 20
116.25078080959042
 11
225.42022763496368
 21
117.07622580959043
  0
LINE
  8
_0-0_
  6
CONTINUOUS
 62
    7
 10
229.31490763496367
 20
127.95583680959044
 11
231.07190663496365
 21
126.17782280959042
  0
LINE
  8
_0-0_
  6
CONTINUOUS
 62
    7
 10
232.61703163496367
 20
126.74936480959042
 11
229.39965663496366
 21
129.96656680959043
  0
LINE
  8
_0-0_
  6
CONTINUOUS
 62
    7
 10
229.39965663496366
 20
132.08323380959041
 11
232.61703163496367
 21
128.84484380959043
  0
LINE
  8
_0-0_
  6
CONTINUOUS
 62
    7
 10
232.61703163496367
 20
130.96151080959044
 11
229.39965663496366
 21
134.17888480959041
  0
LINE
  8
_0-0_
  6
CONTINUOUS
 62
    7
 10
229.39965663496366
 20
136.29555180959042
 11
232.61703163496367
 21
133.05698980959042
  0
LINE
  8
_0-0_
  6
CONTINUOUS
 62
    7
 10
232.61703163496367
 20
135.17365680959043
 11
229.39965663496366
 21
138.39103080959043
  0
LINE
  8
_0-0_
  6
CONTINUOUS
 62
    7
 10
228.15080963496368
 20
141.73535780959043
 11
228.99761463496367
 21
140.90974080959043
  0
LINE
  8
_0-0_
  6
CONTINUOUS
 62
    7
 10
228.99761463496367
 20
140.90974080959043
 11
232.61703163496367
 21
137.26913580959044
  0
LINE
  8
_0-0_
  6
CONTINUOUS
 62
    7
 10
232.61703163496367
 20
139.38580280959042
 11
228.15080963496368
 21
143.85202380959043
  0
LINE
  8
_0-0_
  6
CONTINUOUS
 62
    7
 10
228.15080963496368
 20
145.96869080959041
 11
228.99761463496367
 21
145.12205880959041
  0
LINE
  8
_0-0_
  6
CONTINUOUS
 62
    7
 10
228.99761463496367
 20
145.12205880959041
 11
232.61703163496367
 21
141.48128180959043
  0
LINE
  8
_0-0_
  6
CONTINUOUS
 62
    7
 10
232.61703163496367
 20
143.59794880959043
 11
228.15080963496368
 21
148.06416980959042
  0
LINE
  8
_0-0_
  6
CONTINUOUS
 62
    7
 10
228.29894863496366
 20
150.03269780959042
 11
228.99761463496367
 21
149.33420480959043
  0
LINE
  8
_0-0_
  6
CONTINUOUS
 62
    7
 10
228.99761463496367
 20
149.33420480959043
 11
232.61703163496367
 21
145.69342780959042
  0
LINE
  8
_0-0_
  6
CONTINUOUS
 62
    7
 10
232.61703163496367
 20
147.81009480959042
 11
229.29389263496367
 21
151.13323380959042
  0
LINE
  8
_0-0_
  6
CONTINUOUS
 62
    7
 10
230.73325363496366
 20
151.81071180959043
 11
234.01401763496366
 21
148.52977480959044
  0
LINE
  8
_0-0_
  6
CONTINUOUS
 62
    7
 10
236.13068463496367
 20
148.52977480959044
 11
234.31029563496367
 21
150.32897580959042
  0
LINE
  8
_0-0_
  6
CONTINUOUS
 62
    7
 10
236.23644863496366
 20
150.51948980959043
 11
238.22599163496366
 21
148.52977480959044
  0
LINE
  8
_0-0_
  6
CONTINUOUS
 62
    7
 10
239.55958763496366
 20
149.31301780959043
 11
237.65479463496365
 21
151.19679580959041
  0
LINE
  8
_0-0_
  6
CONTINUOUS
 62
    7
 10
239.15754563496367
 20
151.81071180959043
 11
239.55958763496366
 21
151.38730980959042
  0
LINE
  8
_0-0_
  6
CONTINUOUS
 62
    7
 10
188.69619863496368
 20
124.94999080959042
 11
200.59176863496367
 21
124.94999080959042
  0
LINE
  8
_0-0_
  6
CONTINUOUS
 62
    7
 10
228.55285263496367
 20
128.35805180959042
 11
208.95267063496368
 21
128.35805180959042
  0
LINE
  8
_0-0_
  6
CONTINUOUS
 62
    7
 10
256.3661416349637
 20
116.25078080959042
 11
256.3661416349637
 21
126.17782280959042
  0
LINE
  8
_0-0_
  6
CONTINUOUS
 62
    7
 10
257.06446263496366
 20
116.25078080959042
 11
227.91792163496368
 21
116.25078080959042
  0
LINE
  8
_0-0_
  6
CONTINUOUS
 62
    7
 10
257.06446263496366
 20
126.17782280959042
 11
230.88139263496367
 21
126.17782280959042
  0
LINE
  8
_0-0_
  6
CONTINUOUS
 62
    7
 10
252.51349163496366
 20
119.97596180959042
 11
252.34433763496367
 21
120.16647580959042
  0
LINE
  8
_0-0_
  6
CONTINUOUS
 62
    7
 10
252.34433763496367
 20
120.16647580959042
 11
251.83618563496367
 21
120.44173880959042
  0
LINE
  8
_0-0_
  6
CONTINUOUS
 62
    7
 10
251.83618563496367
 20
120.44173880959042
 11
255.32882363496367
 21
120.44173880959042
  0
LINE
  8
_0-0_
  6
CONTINUOUS
 62
    7
 10
251.83618563496367
 20
121.98686480959043
 11
252.00568463496367
 21
121.71160180959043
  0
LINE
  8
_0-0_
  6
CONTINUOUS
 62
    7
 10
252.00568463496367
 20
121.71160180959043
 11
252.51349163496366
 21
121.52108780959043
  0
LINE
  8
_0-0_
  6
CONTINUOUS
 62
    7
 10
252.51349163496366
 20
121.52108780959043
 11
253.33928063496367
 21
121.43633780959041
  0
LINE
  8
_0-0_
  6
CONTINUOUS
 62
    7
 10
253.33928063496367
 20
121.43633780959041
 11
253.82607263496365
 21
121.43633780959041
  0
LINE
  8
_0-0_
  6
CONTINUOUS
 62
    7
 10
253.82607263496365
 20
121.43633780959041
 11
254.65151763496365
 21
121.52108780959043
  0
LINE
  8
_0-0_
  6
CONTINUOUS
 62
    7
 10
254.65151763496365
 20
121.52108780959043
 11
255.15932463496367
 21
121.71160180959043
  0
LINE
  8
_0-0_
  6
CONTINUOUS
 62
    7
 10
255.15932463496367
 20
121.71160180959043
 11
255.32882363496367
 21
121.98686480959043
  0
LINE
  8
_0-0_
  6
CONTINUOUS
 62
    7
 10
255.32882363496367
 20
121.98686480959043
 11
255.32882363496367
 21
122.17737780959041
  0
LINE
  8
_0-0_
  6
CONTINUOUS
 62
    7
 10
255.32882363496367
 20
122.17737780959041
 11
255.15932463496367
 21
122.45264180959043
  0
LINE
  8
_0-0_
  6
CONTINUOUS
 62
    7
 10
255.15932463496367
 20
122.45264180959043
 11
254.65151763496365
 21
122.62179580959042
  0
LINE
  8
_0-0_
  6
CONTINUOUS
 62
    7
 10
254.65151763496365
 20
122.62179580959042
 11
253.82607263496365
 21
122.72755980959042
  0
LINE
  8
_0-0_
  6
CONTINUOUS
 62
    7
 10
253.82607263496365
 20
122.72755980959042
 11
253.33928063496367
 21
122.72755980959042
  0
LINE
  8
_0-0_
  6
CONTINUOUS
 62
    7
 10
253.33928063496367
 20
122.72755980959042
 11
252.51349163496366
 21
122.62179580959042
  0
LINE
  8
_0-0_
  6
CONTINUOUS
 62
    7
 10
252.51349163496366
 20
122.62179580959042
 11
252.00568463496367
 21
122.45264180959043
  0
LINE
  8
_0-0_
  6
CONTINUOUS
 62
    7
 10
252.00568463496367
 20
122.45264180959043
 11
251.83618563496367
 21
122.17737780959041
  0
LINE
  8
_0-0_
  6
CONTINUOUS
 62
    7
 10
251.83618563496367
 20
122.17737780959041
 11
251.83618563496367
 21
121.98686480959043
  0
LINE
  8
_0-0_
  6
CONTINUOUS
 62
    7
 10
255.81561563496368
 20
119.02339380959043
 11
256.3661416349637
 21
116.25078080959042
  0
LINE
  8
_0-0_
  6
CONTINUOUS
 62
    7
 10
256.3661416349637
 20
116.25078080959042
 11
256.89530863496367
 21
119.02339380959043
  0
LINE
  8
_0-0_
  6
CONTINUOUS
 62
    7
 10
256.89530863496367
 20
119.02339380959043
 11
255.81561563496368
 21
119.02339380959043
  0
LINE
  8
_0-0_
  6
CONTINUOUS
 62
    7
 10
255.81561563496368
 20
123.40486580959043
 11
256.3661416349637
 21
126.17782280959042
  0
LINE
  8
_0-0_
  6
CONTINUOUS
 62
    7
 10
256.3661416349637
 20
126.17782280959042
 11
256.89530863496367
 21
123.40486580959043
  0
LINE
  8
_0-0_
  6
CONTINUOUS
 62
    7
 10
256.89530863496367
 20
123.40486580959043
 11
255.81561563496368
 21
123.40486580959043
  0
LINE
  8
_0-0_
  6
CONTINUOUS
 62
    7
 10
187.68023963496367
 20
105.18031080959042
 11
187.68023963496367
 21
117.20300480959042
  0
LINE
  8
_0-0_
  6
CONTINUOUS
 62
    7
 10
228.89150563496366
 20
105.18031080959042
 11
228.89150563496366
 21
117.20300480959042
  0
LINE
  8
_0-0_
  6
CONTINUOUS
 62
    7
 10
219.17599163496368
 20
229.11124780959042
 11
235.60151763496367
 21
245.55778880959045
  0
LINE
  8
_0-0_
  6
CONTINUOUS
 62
    7
 10
237.25240763496367
 20
247.18766380959042
 11
238.86126763496367
 21
248.81753780959045
  0
LINE
  8
_0-0_
  6
CONTINUOUS
 62
    7
 10
235.60151763496367
 20
239.92746880959041
 11
229.46304663496366
 21
233.78916980959045
  0
LINE
  8
_0-0_
  6
CONTINUOUS
 62
    7
 10
227.32536463496368
 20
231.65131580959041
 11
221.82182463496366
 21
226.14794880959042
  0
LINE
  8
_0-0_
  6
CONTINUOUS
 62
    7
 10
224.80665563496368
 20
223.52330280959043
 11
227.02908663496368
 21
225.72454580959041
  0
LINE
  8
_0-0_
  6
CONTINUOUS
 62
    7
 10
234.35267063496366
 20
249.91807380959042
 11
212.25479463496367
 21
227.82019780959041
  0
LINE
  8
_0-0_
  6
CONTINUOUS
 62
    7
 10
212.25479463496367
 20
233.45051780959042
 11
229.69593563496366
 21
250.87064280959041
  0
LINE
  8
_0-0_
  6
CONTINUOUS
 62
    7
 10
224.87004563496367
 20
251.65371280959042
 11
212.25479463496367
 21
239.05964980959041
  0
LINE
  8
_0-0_
  6
CONTINUOUS
 62
    7
 10
212.25479463496367
 20
244.6899688095904
 11
219.83228263496366
 21
252.26762880959043
  0
LINE
  8
_0-0_
  6
CONTINUOUS
 62
    7
 10
214.62536463496366
 20
252.64865680959045
 11
210.96357263496367
 21
249.00787980959043
  0
LINE
  8
_0-0_
  6
CONTINUOUS
 62
    7
 10
208.29637963496367
 20
251.95016380959041
 11
209.16419963496367
 21
252.8179828095904
  0
LINE
  8
_0-0_
  6
CONTINUOUS
 62
    7
 10
189.96623263496366
 20
223.52330280959043
 11
189.66978263496367
 21
223.52330280959043
  0
LINE
  8
_0-0_
  6
CONTINUOUS
 62
    7
 10
189.66978263496367
 20
223.52330280959043
 11
189.64859463496367
 21
223.81958080959043
  0
LINE
  8
_0-0_
  6
CONTINUOUS
 62
    7
 10
211.72562763496367
 20
226.21151080959044
 11
211.97953163496368
 21
225.91505980959042
  0
LINE
  8
_0-0_
  6
CONTINUOUS
 62
    7
 10
235.83440663496367
 20
247.54750380959044
 11
235.60151763496367
 21
247.54750380959044
  0
LINE
  8
_0-0_
  6
CONTINUOUS
 62
    7
 10
211.97953163496368
 20
225.91505980959042
 11
212.55107263496367
 21
225.91505980959042
  0
LINE
  8
_0-0_
  6
CONTINUOUS
 62
    7
 10
208.29637963496367
 20
225.91505980959042
 11
211.97953163496368
 21
225.91505980959042
  0
LINE
  8
_0-0_
  6
CONTINUOUS
 62
    7
 10
211.72562763496367
 20
226.21151080959044
 11
212.25479463496367
 21
226.21151080959044
  0
LINE
  8
_0-0_
  6
CONTINUOUS
 62
    7
 10
208.29637963496367
 20
226.21151080959044
 11
211.72562763496367
 21
226.21151080959044
  0
LINE
  8
_0-0_
  6
CONTINUOUS
 62
    7
 10
240.27926863496367
 20
246.3620458095904
 11
235.60151763496367
 21
246.3620458095904
  0
LINE
  8
_0-0_
  6
CONTINUOUS
 62
    7
 10
213.82093563496366
 20
229.11124780959042
 11
213.75754563496366
 21
225.91505980959042
  0
LINE
  8
_0-0_
  6
CONTINUOUS
 62
    7
 10
221.71606063496367
 20
228.13766380959044
 11
220.67908663496368
 21
229.11124780959042
  0
LINE
  8
_0-0_
  6
CONTINUOUS
 62
    7
 10
213.82093563496366
 20
229.11124780959042
 11
220.67908663496368
 21
229.11124780959042
  0
LINE
  8
_0-0_
  6
CONTINUOUS
 62
    7
 10
221.71606063496367
 20
228.13766380959044
 11
221.97030863496366
 21
223.52330280959043
  0
LINE
  8
_0-0_
  6
CONTINUOUS
 62
    7
 10
227.64265863496368
 20
233.30237780959041
 11
235.60151763496367
 21
235.44005980959045
  0
LINE
  8
_0-0_
  6
CONTINUOUS
 62
    7
 10
235.60151763496367
 20
235.44005980959045
 11
235.60151763496367
 21
247.58987780959043
  0
LINE
  8
_0-0_
  6
CONTINUOUS
 62
    7
 10
235.60151763496367
 20
247.58987780959043
 11
235.83440663496367
 21
247.54750380959044
  0
LINE
  8
_0-0_
  6
CONTINUOUS
 62
    7
 10
227.34637963496368
 20
231.98996880959044
 11
227.21960063496368
 21
232.18048280959042
  0
LINE
  8
_0-0_
  6
CONTINUOUS
 62
    7
 10
227.21960063496368
 20
232.18048280959042
 11
227.13485163496367
 21
232.39218380959042
  0
LINE
  8
_0-0_
  6
CONTINUOUS
 62
    7
 10
227.13485163496367
 20
232.39218380959042
 11
227.11349163496368
 21
232.60371280959043
  0
LINE
  8
_0-0_
  6
CONTINUOUS
 62
    7
 10
227.11349163496368
 20
232.60371280959043
 11
227.15586663496367
 21
232.83660180959043
  0
LINE
  8
_0-0_
  6
CONTINUOUS
 62
    7
 10
227.15586663496367
 20
232.83660180959043
 11
227.26197563496368
 21
233.02711480959042
  0
LINE
  8
_0-0_
  6
CONTINUOUS
 62
    7
 10
227.26197563496368
 20
233.02711480959042
 11
227.43112963496367
 21
233.19644180959043
  0
LINE
  8
_0-0_
  6
CONTINUOUS
 62
    7
 10
227.43112963496367
 20
233.19644180959043
 11
227.64265863496368
 21
233.30237780959041
  0
LINE
  8
_0-0_
  6
CONTINUOUS
 62
    7
 10
208.29637963496367
 20
250.55317680959044
 11
212.25479463496367
 21
248.24599680959042
  0
LINE
  8
_0-0_
  6
CONTINUOUS
 62
    7
 10
213.75754563496366
 20
225.91505980959042
 11
212.55107263496367
 21
225.91505980959042
  0
LINE
  8
_0-0_
  6
CONTINUOUS
 62
    7
 10
212.25479463496367
 20
248.24599680959042
 11
212.25479463496367
 21
226.21151080959044
  0
LINE
  8
_0-0_
  6
CONTINUOUS
 62
    7
 10
240.57554663496367
 20
246.5737478095904
 11
240.57554663496367
 21
248.05548280959042
  0
LINE
  8
_0-0_
  6
CONTINUOUS
 62
    7
 10
240.27926863496367
 20
246.3620458095904
 11
238.05683763496367
 21
246.97596180959042
  0
LINE
  8
_0-0_
  6
CONTINUOUS
 62
    7
 10
238.05683763496367
 20
246.97596180959042
 11
235.83440663496367
 21
247.54750380959044
  0
LINE
  8
_0-0_
  6
CONTINUOUS
 62
    7
 10
240.27926863496367
 20
248.43651080959043
 11
237.44292163496365
 21
249.19839380959044
  0
LINE
  8
_0-0_
  6
CONTINUOUS
 62
    7
 10
237.44292163496365
 20
249.19839380959044
 11
234.56419963496367
 21
249.87587180959045
  0
LINE
  8
_0-0_
  6
CONTINUOUS
 62
    7
 10
234.56419963496367
 20
249.87587180959045
 11
231.68582263496367
 21
250.48961480959045
  0
LINE
  8
_0-0_
  6
CONTINUOUS
 62
    7
 10
231.68582263496367
 20
250.48961480959045
 11
228.80710063496366
 21
251.03996880959042
  0
LINE
  8
_0-0_
  6
CONTINUOUS
 62
    7
 10
228.80710063496366
 20
251.03996880959042
 11
225.88600363496366
 21
251.5055738095904
  0
LINE
  8
_0-0_
  6
CONTINUOUS
 62
    7
 10
225.88600363496366
 20
251.5055738095904
 11
222.98626763496367
 21
251.90778880959041
  0
LINE
  8
_0-0_
  6
CONTINUOUS
 62
    7
 10
222.98626763496367
 20
251.90778880959041
 11
220.04415563496366
 21
252.24644180959044
  0
LINE
  8
_0-0_
  6
CONTINUOUS
 62
    7
 10
220.04415563496366
 20
252.24644180959044
 11
217.12305963496368
 21
252.50051780959043
  0
LINE
  8
_0-0_
  6
CONTINUOUS
 62
    7
 10
217.12305963496368
 20
252.50051780959043
 11
214.18094763496367
 21
252.66984380959045
  0
LINE
  8
_0-0_
  6
CONTINUOUS
 62
    7
 10
214.18094763496367
 20
252.66984380959045
 11
211.23849163496368
 21
252.79679580959041
  0
LINE
  8
_0-0_
  6
CONTINUOUS
 62
    7
 10
211.23849163496368
 20
252.79679580959041
 11
208.29637963496367
 21
252.8179828095904
  0
LINE
  8
_0-0_
  6
CONTINUOUS
 62
    7
 10
240.27926863496367
 20
248.43651080959043
 11
240.57554663496367
 21
248.05548280959042
  0
LINE
  8
_0-0_
  6
CONTINUOUS
 62
    7
 10
240.27926863496367
 20
246.3620458095904
 11
240.57554663496367
 21
246.5737478095904
  0
LINE
  8
_0-0_
  6
CONTINUOUS
 62
    7
 10
212.55107263496367
 20
225.91505980959042
 11
212.25479463496367
 21
226.21151080959044
  0
LINE
  8
_0-0_
  6
CONTINUOUS
 62
    7
 10
226.60568463496367
 20
223.52330280959043
 11
226.92332263496368
 21
223.81958080959043
  0
LINE
  8
_0-0_
  6
CONTINUOUS
 62
    7
 10
221.97030863496366
 20
223.52330280959043
 11
226.60568463496367
 21
223.52330280959043
  0
LINE
  8
_0-0_
  6
CONTINUOUS
 62
    7
 10
226.92332263496368
 20
223.81958080959043
 11
227.34637963496368
 21
231.98996880959044
  0
LINE
  8
_0-0_
  6
CONTINUOUS
 62
    7
 10
208.29637963496367
 20
248.24599680959042
 11
212.25479463496367
 21
248.24599680959042
  0
LINE
  8
_0-0_
  6
CONTINUOUS
 62
    7
 10
202.79318463496367
 20
246.3620458095904
 11
203.00488563496367
 21
229.11124780959042
  0
LINE
  8
_0-0_
  6
CONTINUOUS
 62
    7
 10
195.91401763496367
 20
229.11124780959042
 11
203.00488563496367
 21
229.11124780959042
  0
LINE
  8
_0-0_
  6
CONTINUOUS
 62
    7
 10
194.85568463496367
 20
228.13766380959044
 11
195.91401763496367
 21
229.11124780959042
  0
LINE
  8
_0-0_
  6
CONTINUOUS
 62
    7
 10
202.77199763496367
 20
229.11124780959042
 11
202.81437163496366
 21
225.91505980959042
  0
LINE
  8
_0-0_
  6
CONTINUOUS
 62
    7
 10
208.29637963496367
 20
225.91505980959042
 11
202.81437163496366
 21
225.91505980959042
  0
LINE
  8
_0-0_
  6
CONTINUOUS
 62
    7
 10
189.22536463496368
 20
231.98996880959044
 11
189.37350363496367
 21
232.18048280959042
  0
LINE
  8
_0-0_
  6
CONTINUOUS
 62
    7
 10
189.37350363496367
 20
232.18048280959042
 11
189.45808163496366
 21
232.39218380959042
  0
LINE
  8
_0-0_
  6
CONTINUOUS
 62
    7
 10
189.45808163496366
 20
232.39218380959042
 11
189.45808163496366
 21
232.60371280959043
  0
LINE
  8
_0-0_
  6
CONTINUOUS
 62
    7
 10
189.45808163496366
 20
232.60371280959043
 11
189.41587863496366
 21
232.83660180959043
  0
LINE
  8
_0-0_
  6
CONTINUOUS
 62
    7
 10
189.41587863496366
 20
232.83660180959043
 11
189.30994163496368
 21
233.02711480959042
  0
LINE
  8
_0-0_
  6
CONTINUOUS
 62
    7
 10
189.30994163496368
 20
233.02711480959042
 11
189.14061563496367
 21
233.19644180959043
  0
LINE
  8
_0-0_
  6
CONTINUOUS
 62
    7
 10
189.14061563496367
 20
233.19644180959043
 11
188.95010163496366
 21
233.30237780959041
  0
LINE
  8
_0-0_
  6
CONTINUOUS
 62
    7
 10
188.63263663496366
 20
233.40814280959043
 11
188.42093563496368
 21
246.3620458095904
  0
LINE
  8
_0-0_
  6
CONTINUOUS
 62
    7
 10
194.62279563496367
 20
223.52330280959043
 11
194.85568463496367
 21
228.13766380959044
  0
LINE
  8
_0-0_
  6
CONTINUOUS
 62
    7
 10
189.18299063496366
 20
246.3620458095904
 11
189.37350363496367
 21
233.26000380959042
  0
LINE
  8
_0-0_
  6
CONTINUOUS
 62
    7
 10
188.61144863496366
 20
246.3620458095904
 11
188.80196263496367
 21
233.40814280959043
  0
LINE
  8
_0-0_
  6
CONTINUOUS
 62
    7
 10
191.89238563496366
 20
223.52330280959043
 11
192.33680263496368
 21
246.3620458095904
  0
LINE
  8
_0-0_
  6
CONTINUOUS
 62
    7
 10
183.84894863496368
 20
234.76275380959041
 11
184.08183763496368
 21
246.3620458095904
  0
LINE
  8
_0-0_
  6
CONTINUOUS
 62
    7
 10
181.85940663496368
 20
235.31310780959043
 11
181.71109463496367
 21
246.3620458095904
  0
LINE
  8
_0-0_
  6
CONTINUOUS
 62
    7
 10
189.26773963496368
 20
233.30237780959041
 11
188.95010163496366
 21
233.30237780959041
  0
LINE
  8
_0-0_
  6
CONTINUOUS
 62
    7
 10
189.54283063496368
 20
231.98996880959044
 11
189.22536463496368
 21
231.98996880959044
  0
LINE
  8
_0-0_
  6
CONTINUOUS
 62
    7
 10
188.63263663496366
 20
233.40814280959043
 11
184.01827563496366
 21
234.63580280959044
  0
LINE
  8
_0-0_
  6
CONTINUOUS
 62
    7
 10
192.29442863496368
 20
223.52330280959043
 11
194.62279563496367
 21
223.52330280959043
  0
LINE
  8
_0-0_
  6
CONTINUOUS
 62
    7
 10
188.80196263496367
 20
233.40814280959043
 11
188.86552463496366
 21
233.40814280959043
  0
LINE
  8
_0-0_
  6
CONTINUOUS
 62
    7
 10
188.86552463496366
 20
233.40814280959043
 11
188.97128963496368
 21
233.38695580959043
  0
LINE
  8
_0-0_
  6
CONTINUOUS
 62
    7
 10
188.97128963496368
 20
233.38695580959043
 11
189.09824063496367
 21
233.34458080959041
  0
LINE
  8
_0-0_
  6
CONTINUOUS
 62
    7
 10
189.09824063496367
 20
233.34458080959041
 11
189.26773963496368
 21
233.30237780959041
  0
LINE
  8
_0-0_
  6
CONTINUOUS
 62
    7
 10
189.37350363496367
 20
233.26000380959042
 11
189.26773963496368
 21
233.30237780959041
  0
LINE
  8
_0-0_
  6
CONTINUOUS
 62
    7
 10
191.89238563496366
 20
223.52330280959043
 11
192.29442863496368
 21
223.52330280959043
  0
LINE
  8
_0-0_
  6
CONTINUOUS
 62
    7
 10
184.25116363496366
 20
234.63580280959044
 11
184.25116363496366
 21
234.65698980959044
  0
LINE
  8
_0-0_
  6
CONTINUOUS
 62
    7
 10
184.25116363496366
 20
234.65698980959044
 11
184.16641463496367
 21
234.67817680959044
  0
LINE
  8
_0-0_
  6
CONTINUOUS
 62
    7
 10
184.16641463496367
 20
234.67817680959044
 11
184.03946263496368
 21
234.72037980959041
  0
LINE
  8
_0-0_
  6
CONTINUOUS
 62
    7
 10
184.03946263496368
 20
234.72037980959041
 11
183.84894863496368
 21
234.76275380959041
  0
LINE
  8
_0-0_
  6
CONTINUOUS
 62
    7
 10
181.33023963496368
 20
235.44005980959045
 11
181.85940663496368
 21
235.31310780959043
  0
LINE
  8
_0-0_
  6
CONTINUOUS
 62
    7
 10
181.33023963496368
 20
235.44005980959045
 11
181.41481663496367
 21
246.3620458095904
  0
LINE
  8
_0-0_
  6
CONTINUOUS
 62
    7
 10
189.37350363496367
 20
233.26000380959042
 11
189.56401763496368
 21
233.11186480959043
  0
LINE
  8
_0-0_
  6
CONTINUOUS
 62
    7
 10
189.56401763496368
 20
233.11186480959043
 11
189.71215663496366
 21
232.90016380959042
  0
LINE
  8
_0-0_
  6
CONTINUOUS
 62
    7
 10
189.71215663496366
 20
232.90016380959042
 11
189.77571863496368
 21
232.66727480959042
  0
LINE
  8
_0-0_
  6
CONTINUOUS
 62
    7
 10
189.77571863496368
 20
232.66727480959042
 11
189.77571863496368
 21
232.41337180959042
  0
LINE
  8
_0-0_
  6
CONTINUOUS
 62
    7
 10
189.77571863496368
 20
232.41337180959042
 11
189.69096963496366
 21
232.18048280959042
  0
LINE
  8
_0-0_
  6
CONTINUOUS
 62
    7
 10
189.69096963496366
 20
232.18048280959042
 11
189.54283063496368
 21
231.98996880959044
  0
LINE
  8
_0-0_
  6
CONTINUOUS
 62
    7
 10
188.80196263496367
 20
233.40814280959043
 11
188.63263663496366
 21
233.40814280959043
  0
LINE
  8
_0-0_
  6
CONTINUOUS
 62
    7
 10
183.84894863496368
 20
234.76275380959041
 11
181.85940663496368
 21
235.31310780959043
  0
LINE
  8
_0-0_
  6
CONTINUOUS
 62
    7
 10
184.25116363496366
 20
234.63580280959044
 11
184.01827563496366
 21
234.63580280959044
  0
LINE
  8
_0-0_
  6
CONTINUOUS
 62
    7
 10
181.33023963496368
 20
235.44005980959045
 11
180.97039963496368
 21
235.44005980959045
  0
LINE
  8
_0-0_
  6
CONTINUOUS
 62
    7
 10
208.29637963496367
 20
248.43651080959043
 11
176.29247663496366
 21
248.43651080959043
  0
LINE
  8
_0-0_
  6
CONTINUOUS
 62
    7
 10
208.29637963496367
 20
248.05548280959042
 11
176.01738563496366
 21
248.05548280959042
  0
LINE
  8
_0-0_
  6
CONTINUOUS
 62
    7
 10
208.29637963496367
 20
246.3620458095904
 11
176.29247663496366
 21
246.3620458095904
  0
LINE
  8
_0-0_
  6
CONTINUOUS
 62
    7
 10
208.29637963496367
 20
246.5737478095904
 11
176.01738563496366
 21
246.5737478095904
  0
LINE
  8
_0-0_
  6
CONTINUOUS
 62
    7
 10
176.29247663496366
 20
248.43651080959043
 11
179.15001063496368
 21
249.19839380959044
  0
LINE
  8
_0-0_
  6
CONTINUOUS
 62
    7
 10
179.15001063496368
 20
249.19839380959044
 11
182.00754563496366
 21
249.87587180959045
  0
LINE
  8
_0-0_
  6
CONTINUOUS
 62
    7
 10
182.00754563496366
 20
249.87587180959045
 11
184.88609463496368
 21
250.48961480959045
  0
LINE
  8
_0-0_
  6
CONTINUOUS
 62
    7
 10
184.88609463496368
 20
250.48961480959045
 11
187.78600363496366
 21
251.03996880959042
  0
LINE
  8
_0-0_
  6
CONTINUOUS
 62
    7
 10
187.78600363496366
 20
251.03996880959042
 11
190.68574063496368
 21
251.5055738095904
  0
LINE
  8
_0-0_
  6
CONTINUOUS
 62
    7
 10
190.68574063496368
 20
251.5055738095904
 11
193.60683763496368
 21
251.90778880959041
  0
LINE
  8
_0-0_
  6
CONTINUOUS
 62
    7
 10
193.60683763496368
 20
251.90778880959041
 11
196.52776163496367
 21
252.24644180959044
  0
LINE
  8
_0-0_
  6
CONTINUOUS
 62
    7
 10
196.52776163496367
 20
252.24644180959044
 11
199.47004563496367
 21
252.50051780959043
  0
LINE
  8
_0-0_
  6
CONTINUOUS
 62
    7
 10
199.47004563496367
 20
252.50051780959043
 11
202.41215663496368
 21
252.66984380959045
  0
LINE
  8
_0-0_
  6
CONTINUOUS
 62
    7
 10
202.41215663496368
 20
252.66984380959045
 11
205.35426863496366
 21
252.79679580959041
  0
LINE
  8
_0-0_
  6
CONTINUOUS
 62
    7
 10
205.35426863496366
 20
252.79679580959041
 11
208.29637963496367
 21
252.8179828095904
  0
LINE
  8
_0-0_
  6
CONTINUOUS
 62
    7
 10
176.29247663496366
 20
248.43651080959043
 11
176.01738563496366
 21
248.05548280959042
  0
LINE
  8
_0-0_
  6
CONTINUOUS
 62
    7
 10
176.01738563496366
 20
246.5737478095904
 11
176.01738563496366
 21
248.05548280959042
  0
LINE
  8
_0-0_
  6
CONTINUOUS
 62
    7
 10
176.29247663496366
 20
246.3620458095904
 11
176.01738563496366
 21
246.5737478095904
  0
LINE
  8
_0-0_
  6
CONTINUOUS
 62
    7
 10
190.26251063496366
 20
223.52330280959043
 11
189.96623263496366
 21
223.52330280959043
  0
LINE
  8
_0-0_
  6
CONTINUOUS
 62
    7
 10
189.94504563496366
 20
223.81958080959043
 11
189.64859463496367
 21
223.81958080959043
  0
LINE
  8
_0-0_
  6
CONTINUOUS
 62
    7
 10
189.94504563496366
 20
223.81958080959043
 11
189.54283063496368
 21
231.98996880959044
  0
LINE
  8
_0-0_
  6
CONTINUOUS
 62
    7
 10
191.89238563496366
 20
223.52330280959043
 11
190.26251063496366
 21
223.52330280959043
  0
LINE
  8
_0-0_
  6
CONTINUOUS
 62
    7
 10
190.26251063496366
 20
223.52330280959043
 11
189.94504563496366
 21
223.81958080959043
  0
LINE
  8
_0-0_
  6
CONTINUOUS
 62
    7
 10
189.64859463496367
 20
223.81958080959043
 11
189.22536463496368
 21
231.98996880959044
  0
LINE
  8
_0-0_
  6
CONTINUOUS
 62
    7
 10
189.96623263496366
 20
223.52330280959043
 11
189.64859463496367
 21
223.81958080959043
  0
LINE
  8
_0-0_
  6
CONTINUOUS
 62
    7
 10
180.97039963496368
 20
235.44005980959045
 11
180.97039963496368
 21
246.3620458095904
  0
LINE
  8
_0-0_
  6
CONTINUOUS
 62
    7
 10
188.95010163496366
 20
233.30237780959041
 11
180.97039963496368
 21
235.44005980959045
  0
LINE
  8
_0-0_
  6
CONTINUOUS
 62
    7
 10
184.27235163496368
 20
234.63580280959044
 11
184.50523963496366
 21
246.3620458095904
  0
LINE
  8
_0-0_
  6
CONTINUOUS
 62
    7
 10
192.29442863496368
 20
223.52330280959043
 11
192.76020563496368
 21
246.3620458095904
  0
LINE
  8
_0-0_
  6
CONTINUOUS
 62
    7
 10
208.29637963496367
 20
255.80246880959041
 11
208.29637963496367
 21
248.81753780959045
  0
LINE
  8
_0-0_
  6
CONTINUOUS
 62
    7
 10
208.29637963496367
 20
247.80140680959042
 11
208.29637963496367
 21
246.8066358095904
  0
LINE
  8
_0-0_
  6
CONTINUOUS
 62
    7
 10
208.29637963496367
 20
245.79067680959045
 11
208.29637963496367
 21
238.80557380959041
  0
LINE
  8
_0-0_
  6
CONTINUOUS
 62
    7
 10
208.29637963496367
 20
237.7896148095904
 11
208.29637963496367
 21
236.79484380959045
  0
LINE
  8
_0-0_
  6
CONTINUOUS
 62
    7
 10
208.29637963496367
 20
235.77871280959042
 11
208.29637963496367
 21
228.79378180959043
  0
LINE
  8
_0-0_
  6
CONTINUOUS
 62
    7
 10
208.29637963496367
 20
227.77782280959042
 11
208.29637963496367
 21
226.78287980959041
  0
LINE
  8
_0-0_
  6
CONTINUOUS
 62
    7
 10
208.29637963496367
 20
225.76692080959043
 11
208.29637963496367
 21
221.04679580959044
  0
LINE
  8
_0-0_
  6
CONTINUOUS
 62
    7
 10
176.01738563496366
 20
261.91958080959046
 11
176.01738563496366
 21
247.33580280959043
  0
LINE
  8
_0-0_
  6
CONTINUOUS
 62
    7
 10
240.57554663496367
 20
261.91958080959046
 11
240.57554663496367
 21
247.33580280959043
  0
LINE
  8
_0-0_
  6
CONTINUOUS
 62
    7
 10
237.59106063496367
 20
163.07135080959043
 11
237.59106063496367
 21
168.02436480959042
  0
LINE
  8
_0-0_
  6
CONTINUOUS
 62
    7
 10
255.37119863496366
 20
204.15583680959043
 11
239.60196263496366
 21
204.15583680959043
  0
TEXT
  8
_0-0_
 62
    7
 10
242.75121158683709
 20
13.338966596357295
 40
3
 41
1
 50
0
  1
Ver1.0
  0
LINE
  8
_0-0_
  6
CONTINUOUS
 62
    7
 10
147.93043695371469
 20
172.38464980959043
 11
147.93043695371469
 21
205.15060780959041
  0
LINE
  8
_0-0_
  6
CONTINUOUS
 62
    7
 10
147.93043695371469
 20
172.38464980959043
 11
147.15397981840712
 21
175.28242728845763
  0
LINE
  8
_0-0_
  6
CONTINUOUS
 62
    7
 10
147.93043695371469
 20
172.38464980959043
 11
148.70689408902226
 21
175.28242728845763
  0
LINE
  8
_0-0_
  6
CONTINUOUS
 62
    7
 10
147.93043695371469
 20
205.15060780959041
 11
147.15397981840712
 21
202.25283033072321
  0
LINE
  8
_0-0_
  6
CONTINUOUS
 62
    7
 10
147.93043695371469
 20
205.15060780959041
 11
148.70689408902226
 21
202.25283033072321
  0
TEXT
  8
_0-0_
 62
    7
 10
147.93043695371469
 20
187.14262880959041
 40
3
 41
1
 50
90
  1
33
  0
LINE
  8
_0-0_
  6
CONTINUOUS
 62
    7
 10
265.56718645482613
 20
116.25078080959042
 11
265.56718645482613
 21
159.13429580959041
  0
LINE
  8
_0-0_
  6
CONTINUOUS
 62
    7
 10
265.56718645482613
 20
116.25078080959042
 11
264.79072931951856
 21
119.14855828845762
  0
LINE
  8
_0-0_
  6
CONTINUOUS
 62
    7
 10
265.56718645482613
 20
116.25078080959042
 11
266.34364359013369
 21
119.14855828845762
  0
LINE
  8
_0-0_
  6
CONTINUOUS
 62
    7
 10
265.56718645482613
 20
159.13429580959041
 11
264.79072931951856
 21
156.23651833072321
  0
LINE
  8
_0-0_
  6
CONTINUOUS
 62
    7
 10
265.56718645482613
 20
159.13429580959041
 11
266.34364359013369
 21
156.23651833072321
  0
LINE
  8
_0-0_
  6
CONTINUOUS
 62
    7
 10
265.56718645482613
 20
159.13429580959041
 11
265.56718645482613
 21
204.15583680959043
  0
LINE
  8
_0-0_
  6
CONTINUOUS
 62
    7
 10
265.56718645482613
 20
159.13429580959041
 11
264.79072931951856
 21
162.03207328845761
  0
LINE
  8
_0-0_
  6
CONTINUOUS
 62
    7
 10
265.56718645482613
 20
159.13429580959041
 11
266.34364359013369
 21
162.03207328845761
  0
LINE
  8
_0-0_
  6
CONTINUOUS
 62
    7
 10
265.56718645482613
 20
204.15583680959043
 11
264.79072931951856
 21
201.25805933072323
  0
LINE
  8
_0-0_
  6
CONTINUOUS
 62
    7
 10
265.56718645482613
 20
204.15583680959043
 11
266.34364359013369
 21
201.25805933072323
  0
TEXT
  8
_0-0_
 62
    7
 10
265.56718645482613
 20
136.06753830959042
 40
3
 41
1
 50
90
  1
40
  0
TEXT
  8
_0-0_
 62
    7
 10
265.56718645482613
 20
176.52006630959042
 40
3
 41
1
 50
90
  1
43～60
  0
LINE
  8
_0-0_
  6
CONTINUOUS
 62
    7
 10
265.56718645482613
 20
116.25078080959042
 11
227.93928063496367
 21
116.25078080959042
  0
LINE
  8
_0-0_
  6
CONTINUOUS
 62
    7
 10
265.56718645482613
 20
159.13429580959041
 11
238.86126763496367
 21
159.13429580959041
  0
LINE
  8
_0-0_
  6
CONTINUOUS
 62
    7
 10
265.56718645482613
 20
204.15583680959043
 11
239.60196263496366
 21
204.15583680959043
  0
LINE
  8
_0-0_
  6
CONTINUOUS
 62
    7
 10
249.19215561604727
 20
204.15583680959043
 11
249.19215561604727
 21
199.15583680959043
  0
LINE
  8
_0-0_
  6
CONTINUOUS
 62
    7
 10
249.19215561604727
 20
205.15060780959041
 11
249.19215561604727
 21
210.15060780959041
  0
LINE
  8
_0-0_
  6
CONTINUOUS
 62
    7
 10
249.19215561604727
 20
204.15583680959043
 11
249.19215561604727
 21
205.15060780959041
  0
LINE
  8
_0-0_
  6
CONTINUOUS
 62
    7
 10
249.19215561604727
 20
204.15583680959043
 11
249.96861275135484
 21
201.25805933072323
  0
LINE
  8
_0-0_
  6
CONTINUOUS
 62
    7
 10
249.19215561604727
 20
204.15583680959043
 11
248.41569848073971
 21
201.25805933072323
  0
LINE
  8
_0-0_
  6
CONTINUOUS
 62
    7
 10
249.19215561604727
 20
205.15060780959041
 11
249.96861275135484
 21
208.04838528845761
  0
LINE
  8
_0-0_
  6
CONTINUOUS
 62
    7
 10
249.19215561604727
 20
205.15060780959041
 11
248.41569848073971
 21
208.04838528845761
  0
TEXT
  8
_0-0_
 62
    7
 10
249.19215561604727
 20
203.90322230959043
 40
3
 41
1
 50
90
  1
1
  0
LINE
  8
_0-0_
  6
CONTINUOUS
 62
    7
 10
187.68023963496367
 20
105.18031080959042
 11
228.89150563496366
 21
105.18031080959042
  0
LINE
  8
_0-0_
  6
CONTINUOUS
 62
    7
 10
187.68023963496367
 20
105.18031080959042
 11
190.5780171138309
 21
105.95676794489799
  0
LINE
  8
_0-0_
  6
CONTINUOUS
 62
    7
 10
187.68023963496367
 20
105.18031080959042
 11
190.5780171138309
 21
104.40385367428286
  0
LINE
  8
_0-0_
  6
CONTINUOUS
 62
    7
 10
228.89150563496366
 20
105.18031080959042
 11
225.99372815609647
 21
105.95676794489799
  0
LINE
  8
_0-0_
  6
CONTINUOUS
 62
    7
 10
228.89150563496366
 20
105.18031080959042
 11
225.99372815609647
 21
104.40385367428286
  0
TEXT
  8
_0-0_
 62
    7
 10
202.28587263496368
 20
105.18031080959042
 40
3
 41
1
 50
0
  1
G-1 1/4
  0
LINE
  8
_0-0_
  6
CONTINUOUS
 62
    7
 10
176.01738563496366
 20
261.91958080959046
 11
240.57554663496367
 21
261.91958080959046
  0
LINE
  8
_0-0_
  6
CONTINUOUS
 62
    7
 10
176.01738563496366
 20
261.91958080959046
 11
178.91516311383089
 21
262.69603794489797
  0
LINE
  8
_0-0_
  6
CONTINUOUS
 62
    7
 10
176.01738563496366
 20
261.91958080959046
 11
178.91516311383089
 21
261.14312367428283
  0
LINE
  8
_0-0_
  6
CONTINUOUS
 62
    7
 10
240.57554663496367
 20
261.91958080959046
 11
237.67776915609647
 21
262.69603794489797
  0
LINE
  8
_0-0_
  6
CONTINUOUS
 62
    7
 10
240.57554663496367
 20
261.91958080959046
 11
237.67776915609647
 21
261.14312367428283
  0
TEXT
  8
_0-0_
 62
    7
 10
204.92146613496368
 20
261.91958080959046
 40
3
 41
1
 50
0
  1
φ65
  0
LINE
  8
_0-0_
  6
CONTINUOUS
 62
    7
 10
177.01215663496367
 20
213.02454580959042
 11
239.58094763496365
 21
213.02454580959042
  0
LINE
  8
_0-0_
  6
CONTINUOUS
 62
    7
 10
177.01215663496367
 20
213.02454580959042
 11
179.90993411383087
 21
213.80100294489799
  0
LINE
  8
_0-0_
  6
CONTINUOUS
 62
    7
 10
177.01215663496367
 20
213.02454580959042
 11
179.90993411383087
 21
212.24808867428285
  0
LINE
  8
_0-0_
  6
CONTINUOUS
 62
    7
 10
239.58094763496365
 20
213.02454580959042
 11
236.68317015609645
 21
213.80100294489799
  0
LINE
  8
_0-0_
  6
CONTINUOUS
 62
    7
 10
239.58094763496365
 20
213.02454580959042
 11
236.68317015609645
 21
212.24808867428285
  0
TEXT
  8
_0-0_
 62
    7
 10
204.92155213496366
 20
213.02454580959042
 40
3
 41
1
 50
0
  1
φ63
  0
TEXT
  8
_0-0_
 62
    3
 10
249.75121158683709
 20
21.338966595457237
 40
5
 41
1
 50
0
  1
RP-147.755.5承認図
  0
LINE
  8
_0-0_
  6
CONTINUOUS
 62
    7
 10
147.93043695371469
 20
172.38464980959043
 11
208.29637963496367
 21
172.38464980959043
  0
LINE
  8
_0-0_
  6
CONTINUOUS
 62
    7
 10
147.93043695371469
 20
205.15060780959041
 11
177.16029563496366
 21
205.15060780959041
  0
LINE
  8
_0-0_
  6
CONTINUOUS
 62
    7
 10
265.56718645482613
 20
223.52330280959043
 11
265.56718645482613
 21
252.8179828095904
  0
LINE
  8
_0-0_
  6
CONTINUOUS
 62
    7
 10
265.56718645482613
 20
223.52330280959043
 11
264.79072931951856
 21
226.42108028845763
  0
LINE
  8
_0-0_
  6
CONTINUOUS
 62
    7
 10
265.56718645482613
 20
223.52330280959043
 11
266.34364359013369
 21
226.42108028845763
  0
LINE
  8
_0-0_
  6
CONTINUOUS
 62
    7
 10
265.56718645482613
 20
252.8179828095904
 11
264.79072931951856
 21
249.92020533072321
  0
LINE
  8
_0-0_
  6
CONTINUOUS
 62
    7
 10
265.56718645482613
 20
252.8179828095904
 11
266.34364359013369
 21
249.92020533072321
  0
LINE
  8
_0-0_
  6
CONTINUOUS
 62
    7
 10
265.56718645482613
 20
223.52330280959043
 11
227.80665563496368
 21
223.52330280959043
  0
LINE
  8
_0-0_
  6
CONTINUOUS
 62
    7
 10
265.56718645482613
 20
252.8179828095904
 11
211.29637963496367
 21
252.8179828095904
  0
TEXT
  8
_0-0_
 62
    7
 10
265.56718645482613
 20
234.79564280959042
 40
3
 41
1
 50
90
  1
29.5
  0
ENDSEC
  0
EOF
