  0
SECTION
  2
HEADER
  9
$ACADVER
  1
AC1009
  9
$INSBASE
 10
0
 20
0
 30
0
  9
$EXTMIN
 10
0
 20
0
  9
$EXTMAX
 10
594
 20
420
  9
$LIMMIN
 10
0
 20
0
  9
$LIMMAX
 10
594
 20
420
  9
$LTSCALE
 40
2
  0
ENDSEC
  0
SECTION
  2
TABLES
  0
TABLE
  2
LTYPE
 70
     9
  0
LTYPE
  2
CONTINUOUS
 70
    64
  3
実線
 72
    65
 73
     0
 40
0.0
  0
LTYPE
  2
DASHED1
 70
    64
  3
--  --  --  --  --  --  --  --  
 72
    65
 73
     2
 40
2.5
 49
1.25
 49
-1.25
  0
LTYPE
  2
DASHED2
 70
    64
  3
----    ----    ----    ----    
 72
    65
 73
     2
 40
5.0
 49
2.5
 49
-2.5
  0
LTYPE
  2
DASHED3
 70
    64
  3
------  ------  ------  ------  
 72
    65
 73
     2
 40
5.0
 49
3.75
 49
-1.25
  0
LTYPE
  2
CENTER1
 70
    64
  3
----- - ----- - ----- - ----- - 
 72
    65
 73
     4
 40
10.0
 49
6.25
 49
-1.25
 49
1.25
 49
-1.25
  0
LTYPE
  2
CENTER2
 70
    64
  3
----------  --  ----------  --  
 72
    65
 73
     4
 40
20.0
 49
12.5
 49
-2.5
 49
2.5
 49
-2.5
  0
LTYPE
  2
PHANTOM1
 70
    64
  3
--- - - --- - - --- - - --- - - 
 72
    65
 73
     6
 40
10.0
 49
3.25
 49
-1.25
 49
1.25
 49
-1.25
 49
1.25
 49
-1.25
  0
LTYPE
  2
PHANTOM2
 70
    64
  3
--------  -  -  --------  -  -  
 72
    65
 73
     6
 40
20.0
 49
10.0
 49
-2.5
 49
1.25
 49
-2.5
 49
1.25
 49
-2.5
  0
LTYPE
  2
DOT
 70
    64
  3
-   -   -   -   -   -   -   -   
 72
    65
 73
     2
 40
2.5
 49
0.625
 49
-1.875
  0
LTYPE
  2
DUMMY
 70
    64
  3
ダミー
 72
    65
 73
     0
 40
0.0
  0
LTYPE
  2
RAND1
 70
    64
  3
ランダム線1
 72
    65
 73
     4
 40
10.0
 49
1.0
 49
-2.0
 49
3.0
 49
-4.0
  0
LTYPE
  2
RAND2
 70
    64
  3
ランダム線2
 72
    65
 73
     4
 40
14.0
 49
2.0
 49
-3.0
 49
4.0
 49
-5.0
  0
LTYPE
  2
RAND3
 70
    64
  3
ランダム線3
 72
    65
 73
     4
 40
18.0
 49
3.0
 49
-4.0
 49
5.0
 49
-6.0
  0
LTYPE
  2
RAND4
 70
    64
  3
ランダム線4
 72
    65
 73
     4
 40
22.0
 49
4.0
 49
-5.0
 49
6.0
 49
-7.0
  0
LTYPE
  2
RAND5
 70
    64
  3
ランダム線5
 72
    65
 73
     4
 40
26.0
 49
5.0
 49
-6.0
 49
7.0
 49
-8.0
  0
LTYPE
  2
LONG1
 70
    64
  3
----------  --  ----------  --  
 72
    65
 73
     4
 40
40.0
 49
32.5
 49
-2.5
 49
2.5
 49
-2.5
  0
LTYPE
  2
LONG2
 70
    64
  3
--------  -  -  --------  -  -  
 72
    65
 73
     6
 40
40.0
 49
30.0
 49
-2.5
 49
1.25
 49
-2.5
 49
1.25
 49
-2.5
  0
LTYPE
  2
LONG3
 70
    64
  3
+++++++++++++++..+++++++++++++++
 72
    65
 73
     2
 40
40.0
 49
37.5
 49
-2.5
  0
LTYPE
  2
LONG4
 70
    64
  3
+++++++++++++++..+++++++++++++++
 72
    65
 73
     2
 40
80.0
 49
75.0
 49
-5.0
  0
LTYPE
  2
LONG5
 70
    64
  3
----------  --  ----------  --  
 72
    65
 73
     4
 40
60.0
 49
37.5
 49
-7.5
 49
7.5
 49
-7.5
  0
LTYPE
  2
dashed
 70
   64
  3
-------   -------------   ------
 72
   65
 73
    2
 40
7.5
 49
6
 49
-1.5
  0
LTYPE
  2
dashed_spaced
 70
   64
  3
----        --------        ----
 72
   65
 73
    2
 40
12
 49
6
 49
-6
  0
LTYPE
  2
long_dashed_dotted
 70
   64
  3
------------- --- --------------
 72
   65
 73
    4
 40
15.25
 49
12
 49
-1.5
 49
0.25
 49
-1.5
  0
LTYPE
  2
long_dashed_double-dotted
 70
   64
  3
----------- --- --- ------------
 72
   65
 73
    6
 40
17
 49
12
 49
-1.5
 49
0.25
 49
-1.5
 49
0.25
 49
-1.5
  0
LTYPE
  2
long_dashed_triplicate-dotted
 70
   64
  3
--------- --- --- --- ----------
 72
   65
 73
    8
 40
18.75
 49
12
 49
-1.5
 49
0.25
 49
-1.5
 49
0.25
 49
-1.5
 49
0.25
 49
-1.5
  0
LTYPE
  2
dotted
 70
   64
  3
   -       -       -       -    
 72
   65
 73
    2
 40
1.75
 49
0.25
 49
-1.5
  0
LTYPE
  2
chain
 70
   64
  3
-------------- -- --------------
 72
   65
 73
    4
 40
18.5
 49
12
 49
-1.5
 49
3.5
 49
-1.5
  0
LTYPE
  2
chain_double_dash
 70
   64
  3
------------ -- -- -------------
 72
   65
 73
    6
 40
23.5
 49
12
 49
-1.5
 49
3.5
 49
-1.5
 49
3.5
 49
-1.5
  0
LTYPE
  2
dashed_dotted
 70
   64
  3
-----------     -     ----------
 72
   65
 73
    4
 40
9.25
 49
6
 49
-1.5
 49
0.25
 49
-1.5
  0
LTYPE
  2
double-dashed_dotted
 70
   64
  3
------   -----------   -   -----
 72
   65
 73
    6
 40
16.75
 49
6
 49
-1.5
 49
6
 49
-1.5
 49
0.25
 49
-1.5
  0
LTYPE
  2
dashed_double-dotted
 70
   64
  3
---------    -    -    ---------
 72
   65
 73
    6
 40
11
 49
6
 49
-1.5
 49
0.25
 49
-1.5
 49
0.25
 49
-1.5
  0
LTYPE
  2
double-dashed_double-dotted
 70
   64
  3
-----   ---------   -   -   ----
 72
   65
 73
    8
 40
18.5
 49
6
 49
-1.5
 49
6
 49
-1.5
 49
0.25
 49
-1.5
 49
0.25
 49
-1.5
  0
LTYPE
  2
dashed_triplicate-dotted
 70
   64
  3
-------    -    -    -    ------
 72
   65
 73
    8
 40
12.75
 49
6
 49
-1.5
 49
0.25
 49
-1.5
 49
0.25
 49
-1.5
 49
0.25
 49
-1.5
  0
LTYPE
  2
double-dashed_triplicate-dotted
 70
   64
  3
-----  ---------  -  -  -  -----
 72
   65
 73
   10
 40
20.25
 49
6
 49
-1.5
 49
6
 49
-1.5
 49
0.25
 49
-1.5
 49
0.25
 49
-1.5
 49
0.25
 49
-1.5
  0
LTYPE
  2
undefined
 70
   64
  3
--------------------------------
 72
   65
 73
    0
 40
0
  0
ENDTAB
  0
TABLE
  2
STYLE
  5
3
100
AcDbSymbolTable
 70
     1
  0
STYLE
  5
10
100
AcDbSymbolTableRecord
100
AcDbTextStyleTableRecord
  2
STANDARD
 70
     0
 40
0.0
 41
1.0
 50
0.0
 71
     0
 42
0.2
  3
txt
  4
bigfont.shx
  0
STYLE
  5
26
100
AcDbSymbolTableRecord
100
AcDbTextStyleTableRecord
  2
TATEGAKI
 70
    68
 40
0.0
 41
1.0
 50
0.0
 71
     0
 42
1.0
  3
txt
  4
bigfont.shx
  0
ENDTAB
  0
TABLE
  2
LAYER
 70
    2
  0
LAYER
  2
_0-0_
 70
   64
 62
    7
  6
CONTINUOUS
  0
LAYER
  2
ADD_LINE
 70
   64
 62
    7
  6
CONTINUOUS
  0
ENDTAB
  0
ENDSEC
  0
SECTION
  2
BLOCKS
  0
ENDSEC
  0
SECTION
  2
ENTITIES
  0
TEXT
  8
_0-0_
 62
    7
 10
152.63036946745785
 20
94.549049790981826
 40
6
 41
1
 50
0
  1
G-1 1/4
  0
LINE
  8
_0-0_
  6
CONTINUOUS
 62
    7
 10
185.99585694995784
 20
94.549049790981826
 11
180.20030199222344
 21
92.996135520366693
  0
LINE
  8
_0-0_
  6
CONTINUOUS
 62
    7
 10
185.99585694995784
 20
94.549049790981826
 11
180.20030199222344
 21
96.101964061596959
  0
LINE
  8
_0-0_
  6
CONTINUOUS
 62
    7
 10
143.26488198495784
 20
94.549049790981826
 11
149.06043694269226
 21
92.996135520366693
  0
LINE
  8
_0-0_
  6
CONTINUOUS
 62
    7
 10
143.26488198495784
 20
94.549049790981826
 11
149.06043694269226
 21
96.101964061596959
  0
LINE
  8
_0-0_
  6
CONTINUOUS
 62
    7
 10
143.26488198495784
 20
94.549049790981826
 11
185.99585694995784
 21
94.549049790981826
  0
LINE
  8
_0-0_
  6
CONTINUOUS
 62
    7
 10
164.63011675495784
 20
233.19116483098176
 11
164.63011675495784
 21
227.81119678098185
  0
LINE
  8
_0-0_
  6
CONTINUOUS
 62
    7
 10
483.03253259995779
 20
233.19116483098176
 11
477.23697764222339
 21
231.63825056036666
  0
LINE
  8
_0-0_
  6
CONTINUOUS
 62
    7
 10
483.03253259995779
 20
233.19116483098176
 11
477.23697764222339
 21
234.7440791015969
  0
LINE
  8
_0-0_
  6
CONTINUOUS
 62
    7
 10
164.63011675495784
 20
233.19116483098176
 11
170.42567171269224
 21
231.63825056036666
  0
LINE
  8
_0-0_
  6
CONTINUOUS
 62
    7
 10
164.63011675495784
 20
233.19116483098176
 11
170.42567171269224
 21
234.7440791015969
  0
LINE
  8
_0-0_
  6
CONTINUOUS
 62
    7
 10
164.63011675495784
 20
233.19116483098176
 11
483.03253259995779
 21
233.19116483098176
  0
LINE
  8
_0-0_
  6
CONTINUOUS
 62
    7
 10
216.04355778995784
 20
218.86481995598183
 11
217.59647206057298
 21
213.06926499824743
  0
LINE
  8
_0-0_
  6
CONTINUOUS
 62
    7
 10
216.04355778995784
 20
218.86481995598183
 11
214.49064351934274
 21
213.06926499824743
  0
LINE
  8
_0-0_
  6
CONTINUOUS
 62
    7
 10
216.04355778995784
 20
170.45942972598186
 11
217.59647206057298
 21
176.25498468371626
  0
LINE
  8
_0-0_
  6
CONTINUOUS
 62
    7
 10
216.04355778995784
 20
170.45942972598186
 11
214.49064351934274
 21
176.25498468371626
  0
LINE
  8
_0-0_
  6
CONTINUOUS
 62
    7
 10
216.04355778995784
 20
170.45942972598186
 11
216.04355778995784
 21
218.86481995598183
  0
LINE
  8
_0-0_
  6
CONTINUOUS
 62
    7
 10
107.60433982995787
 20
218.86481995598186
 11
109.157254100573
 21
213.06926499824743
  0
LINE
  8
_0-0_
  6
CONTINUOUS
 62
    7
 10
107.60433982995787
 20
218.86481995598186
 11
106.05142555934273
 21
213.06926499824743
  0
LINE
  8
_0-0_
  6
CONTINUOUS
 62
    7
 10
107.60433982995787
 20
181.28185059598187
 11
109.157254100573
 21
187.07740555371626
  0
LINE
  8
_0-0_
  6
CONTINUOUS
 62
    7
 10
107.60433982995787
 20
181.28185059598187
 11
106.05142555934273
 21
187.07740555371626
  0
LINE
  8
_0-0_
  6
CONTINUOUS
 62
    7
 10
107.60433982995787
 20
181.28185059598187
 11
107.60433982995787
 21
218.86481995598186
  0
LINE
  8
_0-0_
  6
CONTINUOUS
 62
    7
 10
196.01175722995785
 20
224.44636887098184
 11
190.21620227222343
 21
222.89345460036671
  0
LINE
  8
_0-0_
  6
CONTINUOUS
 62
    7
 10
196.01175722995785
 20
224.44636887098184
 11
190.21620227222343
 21
225.99928314159695
  0
LINE
  8
_0-0_
  6
CONTINUOUS
 62
    7
 10
133.21819472995787
 20
224.44636887098184
 11
139.01374968769227
 21
222.89345460036671
  0
LINE
  8
_0-0_
  6
CONTINUOUS
 62
    7
 10
133.21819472995787
 20
224.44636887098184
 11
139.01374968769227
 21
225.99928314159695
  0
LINE
  8
_0-0_
  6
CONTINUOUS
 62
    7
 10
133.21819472995787
 20
224.44636887098184
 11
196.01175722995785
 21
224.44636887098184
  0
LINE
  8
_0-0_
  6
CONTINUOUS
 62
    7
 10
198.08912869495788
 20
344.29699923098178
 11
192.29357373722348
 21
342.74408496036665
  0
LINE
  8
_0-0_
  6
CONTINUOUS
 62
    7
 10
198.08912869495788
 20
344.29699923098178
 11
192.29357373722348
 21
345.84991350159692
  0
LINE
  8
_0-0_
  6
CONTINUOUS
 62
    7
 10
131.1403178399579
 20
344.29699923098178
 11
136.9358727976923
 21
342.74408496036665
  0
LINE
  8
_0-0_
  6
CONTINUOUS
 62
    7
 10
131.1403178399579
 20
344.29699923098178
 11
136.9358727976923
 21
345.84991350159692
  0
LINE
  8
_0-0_
  6
CONTINUOUS
 62
    7
 10
131.1403178399579
 20
344.29699923098178
 11
198.08912869495788
 21
344.29699923098178
  0
LINE
  8
_0-0_
  6
CONTINUOUS
 62
    7
 10
483.03253259995779
 20
233.19116483098176
 11
483.03253259995779
 21
136.07024387098181
  0
LINE
  8
_0-0_
  6
CONTINUOUS
 62
    7
 10
164.63011675495787
 20
231.79565271098181
 11
164.63011675495787
 21
232.50880299098185
  0
LINE
  8
_0-0_
  6
CONTINUOUS
 62
    7
 10
216.04355778995787
 20
218.86481995598183
 11
195.51563058495788
 21
218.86481995598183
  0
LINE
  8
_0-0_
  6
CONTINUOUS
 62
    7
 10
216.04355778995784
 20
170.45942972598186
 11
197.06608842995786
 21
170.45942972598186
  0
LINE
  8
_0-0_
  6
CONTINUOUS
 62
    7
 10
107.60433982995787
 20
218.86481995598186
 11
133.68302897495786
 21
218.86481995598183
  0
LINE
  8
_0-0_
  6
CONTINUOUS
 62
    7
 10
107.60433982995787
 20
181.28185059598187
 11
144.25713527495785
 21
181.28185059598184
  0
LINE
  8
_0-0_
  6
CONTINUOUS
 62
    7
 10
185.99585694995784
 20
94.549049790981826
 11
185.99585694995784
 21
119.79043137098182
  0
LINE
  8
_0-0_
  6
CONTINUOUS
 62
    7
 10
143.26488198495784
 20
94.549049790981826
 11
143.26488198495784
 21
124.16270336098182
  0
LINE
  8
_0-0_
  6
CONTINUOUS
 62
    7
 10
196.01175722995785
 20
224.44636887098181
 11
196.01175722995785
 21
218.39948028598184
  0
LINE
  8
_0-0_
  6
CONTINUOUS
 62
    7
 10
133.21819472995787
 20
224.44636887098184
 11
133.21819472995787
 21
218.39948028598184
  0
LINE
  8
_0-0_
  6
CONTINUOUS
 62
    7
 10
198.08912869495788
 20
344.29699923098178
 11
198.08912869495788
 21
337.07187414098178
  0
LINE
  8
_0-0_
  6
CONTINUOUS
 62
    7
 10
131.1403178399579
 20
344.29699923098178
 11
131.1403178399579
 21
337.07187414098178
  0
LINE
  8
_0-0_
  6
CONTINUOUS
 62
    7
 10
153.55988527495788
 20
309.25649049098183
 11
153.55988527495788
 21
311.11709030098183
  0
LINE
  8
_0-0_
  6
CONTINUOUS
 62
    7
 10
153.55988527495788
 20
315.2102592809818
 11
153.55988527495791
 21
317.50490782598183
  0
LINE
  8
_0-0_
  6
CONTINUOUS
 62
    7
 10
154.58342949995787
 20
309.25649049098183
 11
153.55988527495788
 21
309.25649049098183
  0
LINE
  8
_0-0_
  6
CONTINUOUS
 62
    7
 10
174.64652245995788
 20
309.25649049098183
 11
175.70085365995789
 21
309.25649049098183
  0
LINE
  8
_0-0_
  6
CONTINUOUS
 62
    7
 10
175.70085365995789
 20
309.25649049098183
 11
175.70085365995789
 21
317.50490782598183
  0
LINE
  8
_0-0_
  6
CONTINUOUS
 62
    7
 10
154.58342949995787
 20
317.47386887098185
 11
154.58342949995787
 21
317.50490782598183
  0
LINE
  8
_0-0_
  6
CONTINUOUS
 62
    7
 10
153.1258380049579
 20
317.50490782598183
 11
154.58342949995787
 21
316.04756831098183
  0
LINE
  8
_0-0_
  6
CONTINUOUS
 62
    7
 10
153.93235859495789
 20
315.2102592809818
 11
151.66875046995787
 21
317.50490782598183
  0
LINE
  8
_0-0_
  6
CONTINUOUS
 62
    7
 10
160.50616079995785
 20
308.63645854098183
 11
159.91716780495787
 21
309.25649049098183
  0
LINE
  8
_0-0_
  6
CONTINUOUS
 62
    7
 10
158.45957630995787
 20
309.25649049098183
 11
160.53694777495787
 21
307.17886558098184
  0
LINE
  8
_0-0_
  6
CONTINUOUS
 62
    7
 10
150.2111575099579
 20
317.50490782598183
 11
152.47476563495786
 21
315.2102592809818
  0
LINE
  8
_0-0_
  6
CONTINUOUS
 62
    7
 10
151.01717413995789
 20
315.2102592809818
 11
148.7535645499579
 21
317.50490782598183
  0
LINE
  8
_0-0_
  6
CONTINUOUS
 62
    7
 10
157.4981099949579
 20
308.72932342598182
 11
157.0019833499579
 21
309.25649049098183
  0
LINE
  8
_0-0_
  6
CONTINUOUS
 62
    7
 10
160.53694777495787
 20
305.69048564598182
 11
158.95570148995787
 21
307.3030228659818
  0
LINE
  8
_0-0_
  6
CONTINUOUS
 62
    7
 10
158.95570148995787
 20
305.84543137098183
 11
160.53694777495787
 21
304.23314613098182
  0
LINE
  8
_0-0_
  6
CONTINUOUS
 62
    7
 10
155.54489581495787
 20
309.25649049098183
 11
156.04102245995787
 21
308.72932342598182
  0
LINE
  8
_0-0_
  6
CONTINUOUS
 62
    7
 10
153.68404255995787
 20
311.11709030098183
 11
154.58342949995787
 21
310.21770336098183
  0
LINE
  8
_0-0_
  6
CONTINUOUS
 62
    7
 10
147.29597305495787
 20
317.50490782598183
 11
149.56008660495786
 21
315.2102592809818
  0
LINE
  8
_0-0_
  6
CONTINUOUS
 62
    7
 10
148.10249364495789
 20
315.2102592809818
 11
145.86967249495791
 21
317.44308189598178
  0
LINE
  8
_0-0_
  6
CONTINUOUS
 62
    7
 10
154.58342949995787
 20
308.72932342598182
 11
152.25774199995789
 21
311.05501092598183
  0
LINE
  8
_0-0_
  6
CONTINUOUS
 62
    7
 10
160.56823870995788
 20
302.77555317098182
 11
158.95570148995787
 21
304.3880903909818
  0
LINE
  8
_0-0_
  6
CONTINUOUS
 62
    7
 10
158.95570148995787
 20
302.9307508759818
 11
160.56823870995788
 21
301.28717470098184
  0
LINE
  8
_0-0_
  6
CONTINUOUS
 62
    7
 10
151.60667109495787
 20
310.27978273598183
 11
153.1258380049579
 21
308.72932342598182
  0
LINE
  8
_0-0_
  6
CONTINUOUS
 62
    7
 10
146.24214581495789
 20
315.61352104098182
 11
146.64490068495789
 21
315.2102592809818
  0
LINE
  8
_0-0_
  6
CONTINUOUS
 62
    7
 10
151.66875046995787
 20
308.72932342598182
 11
150.14907813495788
 21
310.27978273598183
  0
LINE
  8
_0-0_
  6
CONTINUOUS
 62
    7
 10
160.59902568495787
 20
299.82983372098181
 11
158.95570148995787
 21
301.47315938098183
  0
LINE
  8
_0-0_
  6
CONTINUOUS
 62
    7
 10
158.95570148995787
 20
300.01581840098186
 11
160.59902568495787
 21
298.37224222598184
  0
LINE
  8
_0-0_
  6
CONTINUOUS
 62
    7
 10
149.4359278549579
 20
309.53559203598184
 11
150.2111575099579
 21
308.72932342598182
  0
LINE
  8
_0-0_
  6
CONTINUOUS
 62
    7
 10
160.63031808495788
 20
296.88386229098182
 11
158.95570148995787
 21
298.5584788859818
  0
LINE
  8
_0-0_
  6
CONTINUOUS
 62
    7
 10
158.95570148995787
 20
297.1008859259818
 11
160.63031808495788
 21
295.42652277598182
  0
LINE
  8
_0-0_
  6
CONTINUOUS
 62
    7
 10
160.63031808495788
 20
293.93789086098184
 11
158.95570148995787
 21
295.6435464109818
  0
LINE
  8
_0-0_
  6
CONTINUOUS
 62
    7
 10
158.95570148995787
 20
294.1862068959818
 11
160.66110505995786
 21
292.48055134598184
  0
LINE
  8
_0-0_
  6
CONTINUOUS
 62
    7
 10
160.66110505995786
 20
291.02321036598181
 11
158.95570148995787
 21
292.7286139359818
  0
LINE
  8
_0-0_
  6
CONTINUOUS
 62
    7
 10
158.95570148995787
 20
291.27127442098185
 11
160.69239745995787
 21
289.53483189598182
  0
LINE
  8
_0-0_
  6
CONTINUOUS
 62
    7
 10
160.69239745995787
 20
288.07723893598182
 11
158.95570148995787
 21
289.8136814609818
  0
LINE
  8
_0-0_
  6
CONTINUOUS
 62
    7
 10
158.95570148995787
 20
288.35634194598185
 11
160.69239745995787
 21
286.61989942098182
  0
LINE
  8
_0-0_
  6
CONTINUOUS
 62
    7
 10
160.72318443495789
 20
285.13151948598181
 11
158.95570148995787
 21
286.89900243098185
  0
LINE
  8
_0-0_
  6
CONTINUOUS
 62
    7
 10
158.95570148995787
 20
285.44140947098185
 11
160.72318443495789
 21
283.67392799098184
  0
LINE
  8
_0-0_
  6
CONTINUOUS
 62
    7
 10
160.7539714099579
 20
282.18554805598183
 11
158.95570148995787
 21
283.98406995598179
  0
LINE
  8
_0-0_
  6
CONTINUOUS
 62
    7
 10
158.95570148995787
 20
282.52672897598183
 11
160.7539714099579
 21
280.72820854098183
  0
LINE
  8
_0-0_
  6
CONTINUOUS
 62
    7
 10
160.78526380995788
 20
279.27061558098183
 11
158.95570148995787
 21
281.06913748098185
  0
LINE
  8
_0-0_
  6
CONTINUOUS
 62
    7
 10
158.95570148995787
 20
279.61179650098182
 11
160.78526380995788
 21
277.78223564598181
  0
LINE
  8
_0-0_
  6
CONTINUOUS
 62
    7
 10
160.78526380995788
 20
276.32489613098181
 11
158.95570148995787
 21
278.15445698598182
  0
LINE
  8
_0-0_
  6
CONTINUOUS
 62
    7
 10
158.95570148995787
 20
276.69686549098185
 11
160.81605078495787
 21
274.83626421598183
  0
LINE
  8
_0-0_
  6
CONTINUOUS
 62
    7
 10
160.81605078495787
 20
273.37892470098183
 11
158.95570148995787
 21
275.23952451098182
  0
LINE
  8
_0-0_
  6
CONTINUOUS
 62
    7
 10
158.95570148995787
 20
273.78193301598185
 11
160.84734171995785
 21
271.9215837209818
  0
LINE
  8
_0-0_
  6
CONTINUOUS
 62
    7
 10
160.84734171995785
 20
270.43295327098184
 11
158.95570148995787
 21
272.32459203598182
  0
LINE
  8
_0-0_
  6
CONTINUOUS
 62
    7
 10
158.95570148995787
 20
270.86725252098182
 11
160.84734171995785
 21
268.97561229098187
  0
LINE
  8
_0-0_
  6
CONTINUOUS
 62
    7
 10
160.87812869495787
 20
267.51827277598181
 11
158.95570148995787
 21
269.40965956098182
  0
LINE
  8
_0-0_
  6
CONTINUOUS
 62
    7
 10
158.95570148995787
 20
267.95232004598182
 11
160.87812869495787
 21
266.02964086098183
  0
LINE
  8
_0-0_
  6
CONTINUOUS
 62
    7
 10
160.90942109495788
 20
264.57230134598183
 11
158.95570148995787
 21
266.52601948598181
  0
LINE
  8
_0-0_
  6
CONTINUOUS
 62
    7
 10
158.95570148995787
 20
265.06842799098183
 11
161.93246135995787
 21
262.06062916598182
  0
LINE
  8
_0-0_
  6
CONTINUOUS
 62
    7
 10
161.93246135995787
 20
260.60303620598182
 11
158.95570148995787
 21
263.61108701098181
  0
LINE
  8
_0-0_
  6
CONTINUOUS
 62
    7
 10
158.95570148995787
 20
262.15349551598183
 11
161.80830260995785
 21
259.3008943959818
  0
LINE
  8
_0-0_
  6
CONTINUOUS
 62
    7
 10
160.84734171995785
 20
258.80451577098182
 11
158.95570148995787
 21
260.6961545359818
  0
LINE
  8
_0-0_
  6
CONTINUOUS
 62
    7
 10
158.95570148995787
 20
259.2388150209818
 11
159.38975022495788
 21
258.80451577098182
  0
LINE
  8
_0-0_
  6
CONTINUOUS
 62
    7
 10
152.25774199995789
 20
311.11709030098183
 11
154.58342949995787
 21
311.11709030098183
  0
LINE
  8
_0-0_
  6
CONTINUOUS
 62
    7
 10
152.25774199995789
 20
310.27978273598183
 11
152.25774199995789
 21
311.11709030098183
  0
LINE
  8
_0-0_
  6
CONTINUOUS
 62
    7
 10
154.58342949995787
 20
317.50490782598183
 11
154.58342949995787
 21
315.2102592809818
  0
LINE
  8
_0-0_
  6
CONTINUOUS
 62
    7
 10
168.32053086495787
 20
263.42510233098182
 11
168.32053086495787
 21
258.80451577098182
  0
LINE
  8
_0-0_
  6
CONTINUOUS
 62
    7
 10
160.90942109495788
 20
263.42510233098182
 11
160.90942109495788
 21
258.80451577098182
  0
LINE
  8
_0-0_
  6
CONTINUOUS
 62
    7
 10
146.61411370995788
 20
268.10726577098183
 11
146.55203579995788
 21
269.0687306209818
  0
LINE
  8
_0-0_
  6
CONTINUOUS
 62
    7
 10
146.86192578495786
 20
267.17709039098185
 11
146.61411370995788
 21
268.10726577098183
  0
LINE
  8
_0-0_
  6
CONTINUOUS
 62
    7
 10
147.23439910495787
 20
266.27795689598179
 11
146.86192578495786
 21
267.17709039098185
  0
LINE
  8
_0-0_
  6
CONTINUOUS
 62
    7
 10
147.73052574995788
 20
265.44064786598182
 11
147.23439910495787
 21
266.27795689598179
  0
LINE
  8
_0-0_
  6
CONTINUOUS
 62
    7
 10
148.35030425495788
 20
264.69645863098185
 11
147.73052574995788
 21
265.44064786598182
  0
LINE
  8
_0-0_
  6
CONTINUOUS
 62
    7
 10
154.83124010995789
 20
259.88988592598184
 11
155.79270642495788
 21
259.82780801598182
  0
LINE
  8
_0-0_
  6
CONTINUOUS
 62
    7
 10
153.90106619495788
 20
260.13794998098183
 11
154.83124010995789
 21
259.88988592598184
  0
LINE
  8
_0-0_
  6
CONTINUOUS
 62
    7
 10
153.00167925495785
 20
260.51017132098184
 11
153.90106619495788
 21
260.13794998098183
  0
LINE
  8
_0-0_
  6
CONTINUOUS
 62
    7
 10
152.16487564995788
 20
261.00629650098182
 11
153.00167925495785
 21
260.51017132098184
  0
LINE
  8
_0-0_
  6
CONTINUOUS
 62
    7
 10
151.42043443495788
 20
261.62658189598181
 11
152.16487564995788
 21
261.00629650098182
  0
LINE
  8
_0-0_
  6
CONTINUOUS
 62
    7
 10
148.35030425495788
 20
264.69645863098185
 11
151.42043443495788
 21
261.62658189598181
  0
LINE
  8
_0-0_
  6
CONTINUOUS
 62
    7
 10
149.62166055495788
 20
308.72932342598182
 11
146.55203579995788
 21
305.65944669098184
  0
LINE
  8
_0-0_
  6
CONTINUOUS
 62
    7
 10
155.79270642495788
 20
259.82780801598182
 11
158.89362357995785
 21
259.82780801598182
  0
LINE
  8
_0-0_
  6
CONTINUOUS
 62
    7
 10
146.55203579995788
 20
269.0687306209818
 11
146.55203579995788
 21
305.65944669098184
  0
LINE
  8
_0-0_
  6
CONTINUOUS
 62
    7
 10
161.87038198495787
 20
259.42479970098179
 11
161.93246135995787
 21
259.82780801598182
  0
LINE
  8
_0-0_
  6
CONTINUOUS
 62
    7
 10
161.62257137495786
 20
259.08361731598183
 11
161.87038198495787
 21
259.42479970098179
  0
LINE
  8
_0-0_
  6
CONTINUOUS
 62
    7
 10
161.31217596495787
 20
258.86659368098185
 11
161.62257137495786
 21
259.08361731598183
  0
LINE
  8
_0-0_
  6
CONTINUOUS
 62
    7
 10
160.90942109495788
 20
258.80451577098182
 11
161.31217596495787
 21
258.86659368098185
  0
LINE
  8
_0-0_
  6
CONTINUOUS
 62
    7
 10
160.90942109495788
 20
263.42510233098182
 11
164.63011675495787
 21
263.42510233098182
  0
LINE
  8
_0-0_
  6
CONTINUOUS
 62
    7
 10
161.93246135995787
 20
259.82780801598182
 11
161.93246135995787
 21
263.42510233098182
  0
LINE
  8
_0-0_
  6
CONTINUOUS
 62
    7
 10
160.50616079995785
 20
309.25649049098183
 11
160.90942109495788
 21
263.42510233098182
  0
LINE
  8
_0-0_
  6
CONTINUOUS
 62
    7
 10
149.74581783995788
 20
310.27978273598183
 11
152.25774199995789
 21
310.27978273598183
  0
LINE
  8
_0-0_
  6
CONTINUOUS
 62
    7
 10
154.58342949995787
 20
311.11709030098183
 11
154.58342949995787
 21
309.25649049098183
  0
LINE
  8
_0-0_
  6
CONTINUOUS
 62
    7
 10
146.42787704995789
 20
315.2723386559818
 11
146.61411370995791
 21
315.2102592809818
  0
LINE
  8
_0-0_
  6
CONTINUOUS
 62
    7
 10
146.30371976495789
 20
315.4272843809818
 11
146.42787704995789
 21
315.2723386559818
  0
LINE
  8
_0-0_
  6
CONTINUOUS
 62
    7
 10
146.30371976495789
 20
315.4272843809818
 11
145.71472676995788
 21
317.07086055598182
  0
LINE
  8
_0-0_
  6
CONTINUOUS
 62
    7
 10
149.4359278549579
 20
309.03946539098183
 11
149.4359278549579
 21
309.96964077098181
  0
LINE
  8
_0-0_
  6
CONTINUOUS
 62
    7
 10
149.46671482995788
 20
310.12483701098182
 11
149.4359278549579
 21
309.96964077098181
  0
LINE
  8
_0-0_
  6
CONTINUOUS
 62
    7
 10
149.59087357995787
 20
310.24874231598181
 11
149.46671482995788
 21
310.12483701098182
  0
LINE
  8
_0-0_
  6
CONTINUOUS
 62
    7
 10
149.74581783995788
 20
310.27978273598183
 11
149.59087357995787
 21
310.24874231598181
  0
LINE
  8
_0-0_
  6
CONTINUOUS
 62
    7
 10
149.59087357995787
 20
308.79140280098181
 11
149.74581783995788
 21
308.72932342598182
  0
LINE
  8
_0-0_
  6
CONTINUOUS
 62
    7
 10
149.46671482995788
 20
308.88452113098185
 11
149.59087357995787
 21
308.79140280098181
  0
LINE
  8
_0-0_
  6
CONTINUOUS
 62
    7
 10
149.4359278549579
 20
309.03946539098183
 11
149.46671482995788
 21
308.88452113098185
  0
LINE
  8
_0-0_
  6
CONTINUOUS
 62
    7
 10
145.71472676995788
 20
317.25684523598181
 11
145.71472676995788
 21
317.07086055598182
  0
LINE
  8
_0-0_
  6
CONTINUOUS
 62
    7
 10
145.8388855199579
 20
317.44308189598178
 11
145.71472676995788
 21
317.25684523598181
  0
LINE
  8
_0-0_
  6
CONTINUOUS
 62
    7
 10
145.99382977995788
 20
317.50490782598183
 11
145.8388855199579
 21
317.44308189598178
  0
LINE
  8
_0-0_
  6
CONTINUOUS
 62
    7
 10
145.99382977995788
 20
317.50490782598183
 11
164.63011675495787
 21
317.50490782598183
  0
LINE
  8
_0-0_
  6
CONTINUOUS
 62
    7
 10
154.58342949995787
 20
309.25649049098183
 11
164.63011675495787
 21
309.25649049098183
  0
LINE
  8
_0-0_
  6
CONTINUOUS
 62
    7
 10
146.61411370995791
 20
315.2102592809818
 11
154.58342949995787
 21
315.2102592809818
  0
LINE
  8
_0-0_
  6
CONTINUOUS
 62
    7
 10
149.68373846495788
 20
308.72932342598182
 11
158.95570148995787
 21
308.72932342598182
  0
LINE
  8
_0-0_
  6
CONTINUOUS
 62
    7
 10
158.95570148995787
 20
258.80451577098182
 11
164.63011675495787
 21
258.80451577098182
  0
LINE
  8
_0-0_
  6
CONTINUOUS
 62
    7
 10
158.95570148995787
 20
258.80451577098182
 11
158.95570148995787
 21
308.72932342598182
  0
LINE
  8
_0-0_
  6
CONTINUOUS
 62
    7
 10
183.42185341495789
 20
316.82279650098178
 11
182.7394901099579
 21
317.50490782598183
  0
LINE
  8
_0-0_
  6
CONTINUOUS
 62
    7
 10
181.28240257495787
 20
317.50490782598183
 11
183.04988551995788
 21
315.73742634598182
  0
LINE
  8
_0-0_
  6
CONTINUOUS
 62
    7
 10
182.08841920495789
 20
315.2102592809818
 11
179.8248110799579
 21
317.50490782598183
  0
LINE
  8
_0-0_
  6
CONTINUOUS
 62
    7
 10
178.3672181199579
 20
317.50490782598183
 11
180.63082624495786
 21
315.2102592809818
  0
LINE
  8
_0-0_
  6
CONTINUOUS
 62
    7
 10
179.20452568495787
 20
315.2102592809818
 11
176.91013058495787
 21
317.50490782598183
  0
LINE
  8
_0-0_
  6
CONTINUOUS
 62
    7
 10
175.4525390899579
 20
317.50490782598183
 11
177.74743814995787
 21
315.2102592809818
  0
LINE
  8
_0-0_
  6
CONTINUOUS
 62
    7
 10
176.97220995995787
 20
314.52814942098183
 11
174.64652245995791
 21
316.85383692098185
  0
LINE
  8
_0-0_
  6
CONTINUOUS
 62
    7
 10
174.64652245995788
 20
315.39624396098179
 11
176.97220995995787
 21
313.07055646098183
  0
LINE
  8
_0-0_
  6
CONTINUOUS
 62
    7
 10
176.97220995995787
 20
311.61321694598183
 11
174.64652245995788
 21
313.93890444598185
  0
LINE
  8
_0-0_
  6
CONTINUOUS
 62
    7
 10
179.73194472995789
 20
308.85348217598181
 11
178.3051387449579
 21
310.27978273598183
  0
LINE
  8
_0-0_
  6
CONTINUOUS
 62
    7
 10
174.64652245995788
 20
312.48156493098179
 11
178.39851051995788
 21
308.72932342598182
  0
LINE
  8
_0-0_
  6
CONTINUOUS
 62
    7
 10
176.94091755995788
 20
308.72932342598182
 11
174.64652245995788
 21
311.02397197098185
  0
LINE
  8
_0-0_
  6
CONTINUOUS
 62
    7
 10
174.64652245995788
 20
309.56663245598179
 11
175.48332606495788
 21
308.72932342598182
  0
LINE
  8
_0-0_
  6
CONTINUOUS
 62
    7
 10
174.02623852995788
 20
308.72932342598182
 11
173.49881948495789
 21
309.25649049098183
  0
LINE
  8
_0-0_
  6
CONTINUOUS
 62
    7
 10
172.04173194995786
 20
309.25649049098183
 11
172.56864556995788
 21
308.72932342598182
  0
LINE
  8
_0-0_
  6
CONTINUOUS
 62
    7
 10
171.11105260995788
 20
308.72932342598182
 11
170.58413898995786
 21
309.25649049098183
  0
LINE
  8
_0-0_
  6
CONTINUOUS
 62
    7
 10
169.15783842995788
 20
309.25649049098183
 11
170.27425046995788
 21
308.10929147598182
  0
LINE
  8
_0-0_
  6
CONTINUOUS
 62
    7
 10
170.27425046995788
 20
306.65169998098179
 11
168.72379115995787
 21
308.23319678098181
  0
LINE
  8
_0-0_
  6
CONTINUOUS
 62
    7
 10
168.69250022495788
 20
306.77585726598181
 11
170.27425046995788
 21
305.19435900098182
  0
LINE
  8
_0-0_
  6
CONTINUOUS
 62
    7
 10
170.27425046995788
 20
303.73701948598182
 11
168.69250022495788
 21
305.31826577098184
  0
LINE
  8
_0-0_
  6
CONTINUOUS
 62
    7
 10
168.69250022495788
 20
303.89196521098182
 11
170.27425046995788
 21
302.27942799098184
  0
LINE
  8
_0-0_
  6
CONTINUOUS
 62
    7
 10
170.27425046995788
 20
300.82208701098182
 11
168.66171324995787
 21
302.4346242309818
  0
LINE
  8
_0-0_
  6
CONTINUOUS
 62
    7
 10
168.66171324995787
 20
301.00807169098181
 11
170.27425046995788
 21
299.36449551598184
  0
LINE
  8
_0-0_
  6
CONTINUOUS
 62
    7
 10
170.27425046995788
 20
297.90715453598182
 11
168.63042084995789
 21
299.55073217598181
  0
LINE
  8
_0-0_
  6
CONTINUOUS
 62
    7
 10
168.63042084995789
 20
298.12417817098185
 11
170.27425046995788
 21
296.44981502098182
  0
LINE
  8
_0-0_
  6
CONTINUOUS
 62
    7
 10
170.27425046995788
 20
294.99222206098182
 11
168.63042084995789
 21
296.66683865598179
  0
LINE
  8
_0-0_
  6
CONTINUOUS
 62
    7
 10
168.5996338749579
 20
295.2402861159818
 11
170.27425046995788
 21
293.53488254598182
  0
LINE
  8
_0-0_
  6
CONTINUOUS
 62
    7
 10
170.27425046995788
 20
292.07754303098181
 11
168.5996338749579
 21
293.78294660098186
  0
LINE
  8
_0-0_
  6
CONTINUOUS
 62
    7
 10
168.56834147495786
 20
292.32560562098183
 11
170.27425046995788
 21
290.65099049098183
  0
LINE
  8
_0-0_
  6
CONTINUOUS
 62
    7
 10
170.27425046995788
 20
289.1936495109818
 11
168.56834147495786
 21
290.89905308098184
  0
LINE
  8
_0-0_
  6
CONTINUOUS
 62
    7
 10
168.56834147495786
 20
289.44171356598184
 11
170.27425046995788
 21
287.73605801598183
  0
LINE
  8
_0-0_
  6
CONTINUOUS
 62
    7
 10
170.27425046995788
 20
286.2787170359818
 11
168.53755449995788
 21
288.01515956098183
  0
LINE
  8
_0-0_
  6
CONTINUOUS
 62
    7
 10
168.53755449995788
 20
286.55782004598183
 11
170.27425046995788
 21
284.82137752098186
  0
LINE
  8
_0-0_
  6
CONTINUOUS
 62
    7
 10
170.27425046995788
 20
283.3637845609818
 11
168.50626356495786
 21
285.13151948598181
  0
LINE
  8
_0-0_
  6
CONTINUOUS
 62
    7
 10
168.50626356495786
 20
283.67392799098184
 11
170.27425046995788
 21
281.90644504598185
  0
LINE
  8
_0-0_
  6
CONTINUOUS
 62
    7
 10
170.27425046995788
 20
280.4491055309818
 11
168.50626356495786
 21
282.21658701098181
  0
LINE
  8
_0-0_
  6
CONTINUOUS
 62
    7
 10
168.47547658995788
 20
280.79003447098182
 11
170.27425046995788
 21
278.99151257098185
  0
LINE
  8
_0-0_
  6
CONTINUOUS
 62
    7
 10
170.27425046995788
 20
277.5341730559818
 11
168.47547658995788
 21
279.33269495598182
  0
LINE
  8
_0-0_
  6
CONTINUOUS
 62
    7
 10
168.44468814995787
 20
277.90639439598181
 11
170.27425046995788
 21
276.07683354098185
  0
LINE
  8
_0-0_
  6
CONTINUOUS
 62
    7
 10
170.27425046995788
 20
274.61924058098185
 11
168.44468814995787
 21
276.44880143598186
  0
LINE
  8
_0-0_
  6
CONTINUOUS
 62
    7
 10
168.44468814995787
 20
275.02250087598185
 11
170.27425046995788
 21
273.16190106598185
  0
LINE
  8
_0-0_
  6
CONTINUOUS
 62
    7
 10
168.63042084995789
 20
258.80451577098182
 11
167.29698663995788
 21
260.13794998098183
  0
LINE
  8
_0-0_
  6
CONTINUOUS
 62
    7
 10
167.29698663995788
 20
261.5955414759818
 11
170.08801380995786
 21
258.80451577098182
  0
LINE
  8
_0-0_
  6
CONTINUOUS
 62
    7
 10
170.27425046995788
 20
260.04508363098182
 11
167.29698663995788
 21
263.02184203598182
  0
LINE
  8
_0-0_
  6
CONTINUOUS
 62
    7
 10
168.32053086495787
 20
263.4558907709818
 11
170.27425046995788
 21
261.50242314598182
  0
LINE
  8
_0-0_
  6
CONTINUOUS
 62
    7
 10
170.27425046995788
 20
262.95976412598179
 11
168.35131783995789
 21
264.91348226598183
  0
LINE
  8
_0-0_
  6
CONTINUOUS
 62
    7
 10
168.35131783995789
 20
266.33978282598184
 11
170.27425046995788
 21
264.41735562098182
  0
LINE
  8
_0-0_
  6
CONTINUOUS
 62
    7
 10
170.27425046995788
 20
265.87469660098179
 11
168.35131783995789
 21
267.79737578598184
  0
LINE
  8
_0-0_
  6
CONTINUOUS
 62
    7
 10
168.38261023995787
 20
269.22367634598186
 11
170.27425046995788
 21
267.33203611598185
  0
LINE
  8
_0-0_
  6
CONTINUOUS
 62
    7
 10
170.27425046995788
 20
268.78962761098182
 11
168.38261023995787
 21
270.6810158609818
  0
LINE
  8
_0-0_
  6
CONTINUOUS
 62
    7
 10
168.41339721495788
 20
272.13860882098186
 11
170.27425046995788
 21
270.24696859098185
  0
LINE
  8
_0-0_
  6
CONTINUOUS
 62
    7
 10
170.27425046995788
 20
271.70456008598183
 11
168.41339721495788
 21
273.56490938098182
  0
LINE
  8
_0-0_
  6
CONTINUOUS
 62
    7
 10
164.63011675495787
 20
317.50490782598183
 11
164.63011675495787
 21
258.80451577098182
  0
LINE
  8
_0-0_
  6
CONTINUOUS
 62
    7
 10
164.63011675495787
 20
248.47847206098183
 11
164.63011675495787
 21
258.71164942098187
  0
LINE
  8
_0-0_
  6
CONTINUOUS
 62
    7
 10
164.63011675495787
 20
245.53275261098185
 11
164.63011675495787
 21
246.99009359098181
  0
LINE
  8
_0-0_
  6
CONTINUOUS
 62
    7
 10
164.63011675495787
 20
233.81119678098185
 11
164.63011675495787
 21
244.04437414098183
  0
LINE
  8
_0-0_
  6
CONTINUOUS
 62
    7
 10
182.61583824995785
 20
268.10726577098183
 11
182.67791615995787
 21
269.0687306209818
  0
LINE
  8
_0-0_
  6
CONTINUOUS
 62
    7
 10
182.39881314995787
 20
267.17709039098185
 11
182.61583824995785
 21
268.10726577098183
  0
LINE
  8
_0-0_
  6
CONTINUOUS
 62
    7
 10
182.02633982995786
 20
266.27795689598179
 11
182.39881314995787
 21
267.17709039098185
  0
LINE
  8
_0-0_
  6
CONTINUOUS
 62
    7
 10
181.49942620995785
 20
265.44064786598182
 11
182.02633982995786
 21
266.27795689598179
  0
LINE
  8
_0-0_
  6
CONTINUOUS
 62
    7
 10
180.87914227995788
 20
264.69645863098185
 11
181.49942620995785
 21
265.44064786598182
  0
LINE
  8
_0-0_
  6
CONTINUOUS
 62
    7
 10
174.39820642495789
 20
259.88988592598184
 11
173.4367401099579
 21
259.82780801598182
  0
LINE
  8
_0-0_
  6
CONTINUOUS
 62
    7
 10
175.35967273995789
 20
260.13794998098183
 11
174.39820642495789
 21
259.88988592598184
  0
LINE
  8
_0-0_
  6
CONTINUOUS
 62
    7
 10
176.25855425495789
 20
260.51017132098184
 11
175.35967273995789
 21
260.13794998098183
  0
LINE
  8
_0-0_
  6
CONTINUOUS
 62
    7
 10
177.06507630995787
 20
261.00629650098182
 11
176.25855425495789
 21
260.51017132098184
  0
LINE
  8
_0-0_
  6
CONTINUOUS
 62
    7
 10
177.80901356495787
 20
261.62658189598181
 11
177.06507630995787
 21
261.00629650098182
  0
LINE
  8
_0-0_
  6
CONTINUOUS
 62
    7
 10
180.87914227995788
 20
264.69645863098185
 11
177.80901356495787
 21
261.62658189598181
  0
LINE
  8
_0-0_
  6
CONTINUOUS
 62
    7
 10
179.60778744495786
 20
308.72932342598182
 11
182.67791615995787
 21
305.65944669098184
  0
LINE
  8
_0-0_
  6
CONTINUOUS
 62
    7
 10
173.4367401099579
 20
259.82780801598182
 11
170.33582441995787
 21
259.82780801598182
  0
LINE
  8
_0-0_
  6
CONTINUOUS
 62
    7
 10
182.67791615995787
 20
269.0687306209818
 11
182.67791615995787
 21
305.65944669098184
  0
LINE
  8
_0-0_
  6
CONTINUOUS
 62
    7
 10
167.39035694995789
 20
259.42479970098179
 11
167.29698663995788
 21
259.82780801598182
  0
LINE
  8
_0-0_
  6
CONTINUOUS
 62
    7
 10
167.60738058495787
 20
259.08361731598183
 11
167.39035694995789
 21
259.42479970098179
  0
LINE
  8
_0-0_
  6
CONTINUOUS
 62
    7
 10
167.94856296995786
 20
258.86659368098185
 11
167.60738058495787
 21
259.08361731598183
  0
LINE
  8
_0-0_
  6
CONTINUOUS
 62
    7
 10
168.32053086495787
 20
258.80451577098182
 11
167.94856296995786
 21
258.86659368098185
  0
LINE
  8
_0-0_
  6
CONTINUOUS
 62
    7
 10
168.32053086495787
 20
263.42510233098182
 11
164.63011675495787
 21
263.42510233098182
  0
LINE
  8
_0-0_
  6
CONTINUOUS
 62
    7
 10
167.29698663995788
 20
259.82780801598182
 11
167.29698663995788
 21
263.42510233098182
  0
LINE
  8
_0-0_
  6
CONTINUOUS
 62
    7
 10
168.72379115995787
 20
309.25649049098183
 11
168.32053086495787
 21
263.42510233098182
  0
LINE
  8
_0-0_
  6
CONTINUOUS
 62
    7
 10
179.48362869495787
 20
310.27978273598183
 11
176.97220995995787
 21
310.27978273598183
  0
LINE
  8
_0-0_
  6
CONTINUOUS
 62
    7
 10
174.64652245995791
 20
317.50490782598183
 11
174.64652245995788
 21
309.25649049098183
  0
LINE
  8
_0-0_
  6
CONTINUOUS
 62
    7
 10
176.97220995995787
 20
310.27978273598183
 11
176.97220995995787
 21
315.2102592809818
  0
LINE
  8
_0-0_
  6
CONTINUOUS
 62
    7
 10
182.80156948495787
 20
315.2723386559818
 11
182.61583824995787
 21
315.2102592809818
  0
LINE
  8
_0-0_
  6
CONTINUOUS
 62
    7
 10
182.92572676995786
 20
315.4272843809818
 11
182.80156948495787
 21
315.2723386559818
  0
LINE
  8
_0-0_
  6
CONTINUOUS
 62
    7
 10
182.92572676995786
 20
315.4272843809818
 11
183.51471976495787
 21
317.07086055598182
  0
LINE
  8
_0-0_
  6
CONTINUOUS
 62
    7
 10
179.79402410495788
 20
309.03946539098183
 11
179.79402410495788
 21
309.96964077098181
  0
LINE
  8
_0-0_
  6
CONTINUOUS
 62
    7
 10
179.76273170495787
 20
310.12483701098182
 11
179.79402410495788
 21
309.96964077098181
  0
LINE
  8
_0-0_
  6
CONTINUOUS
 62
    7
 10
179.63857441995788
 20
310.24874231598181
 11
179.76273170495787
 21
310.12483701098182
  0
LINE
  8
_0-0_
  6
CONTINUOUS
 62
    7
 10
179.48362869495787
 20
310.27978273598183
 11
179.63857441995788
 21
310.24874231598181
  0
LINE
  8
_0-0_
  6
CONTINUOUS
 62
    7
 10
179.63857441995788
 20
308.79140280098181
 11
179.48362869495787
 21
308.72932342598182
  0
LINE
  8
_0-0_
  6
CONTINUOUS
 62
    7
 10
179.76273170495787
 20
308.88452113098185
 11
179.63857441995788
 21
308.79140280098181
  0
LINE
  8
_0-0_
  6
CONTINUOUS
 62
    7
 10
179.79402410495788
 20
309.03946539098183
 11
179.76273170495787
 21
308.88452113098185
  0
LINE
  8
_0-0_
  6
CONTINUOUS
 62
    7
 10
183.51471976495787
 20
317.25684523598181
 11
183.51471976495787
 21
317.07086055598182
  0
LINE
  8
_0-0_
  6
CONTINUOUS
 62
    7
 10
183.42185341495789
 20
317.44308189598178
 11
183.51471976495787
 21
317.25684523598181
  0
LINE
  8
_0-0_
  6
CONTINUOUS
 62
    7
 10
183.23561675495787
 20
317.50490782598183
 11
183.42185341495789
 21
317.44308189598178
  0
LINE
  8
_0-0_
  6
CONTINUOUS
 62
    7
 10
183.23561675495787
 20
317.50490782598183
 11
164.63011675495787
 21
317.50490782598183
  0
LINE
  8
_0-0_
  6
CONTINUOUS
 62
    7
 10
174.64652245995788
 20
309.25649049098183
 11
164.63011675495787
 21
309.25649049098183
  0
LINE
  8
_0-0_
  6
CONTINUOUS
 62
    7
 10
182.61583824995787
 20
315.2102592809818
 11
176.97220995995787
 21
315.2102592809818
  0
LINE
  8
_0-0_
  6
CONTINUOUS
 62
    7
 10
179.54570806995787
 20
308.72932342598182
 11
170.27425046995788
 21
308.72932342598182
  0
LINE
  8
_0-0_
  6
CONTINUOUS
 62
    7
 10
170.27425046995788
 20
258.80451577098182
 11
164.63011675495787
 21
258.80451577098182
  0
LINE
  8
_0-0_
  6
CONTINUOUS
 62
    7
 10
170.27425046995788
 20
258.80451577098182
 11
170.27425046995788
 21
308.72932342598182
  0
LINE
  8
_0-0_
  6
CONTINUOUS
 62
    7
 10
166.98709665495787
 20
295.0853403909818
 11
166.98709665495787
 21
242.33871859098184
  0
LINE
  8
_0-0_
  6
CONTINUOUS
 62
    7
 10
170.89402897495785
 20
238.95869842598182
 11
170.89402897495785
 21
237.93540618098183
  0
LINE
  8
_0-0_
  6
CONTINUOUS
 62
    7
 10
158.33541755995788
 20
238.95869842598182
 11
158.33541755995788
 21
237.93540618098183
  0
LINE
  8
_0-0_
  6
CONTINUOUS
 62
    7
 10
170.89402897495785
 20
238.95869842598182
 11
158.33541755995788
 21
238.95869842598182
  0
LINE
  8
_0-0_
  6
CONTINUOUS
 62
    7
 10
170.02593443495786
 20
255.70359861598183
 11
167.70024693495785
 21
255.70359861598183
  0
LINE
  8
_0-0_
  6
CONTINUOUS
 62
    7
 10
159.20351356495789
 20
258.80451577098182
 11
164.63011675495787
 21
258.80451577098182
  0
LINE
  8
_0-0_
  6
CONTINUOUS
 62
    7
 10
168.10350722995787
 20
258.80451577098182
 11
167.70024693495787
 21
258.4015074559818
  0
LINE
  8
_0-0_
  6
CONTINUOUS
 62
    7
 10
167.70024693495787
 20
256.94416647598183
 11
169.5605947649579
 21
258.80451577098182
  0
LINE
  8
_0-0_
  6
CONTINUOUS
 62
    7
 10
170.55284805495785
 20
256.85104814598185
 11
169.37486352995785
 21
255.70359861598183
  0
LINE
  8
_0-0_
  6
CONTINUOUS
 62
    7
 10
167.91727056995788
 20
255.70359861598183
 11
170.52206107995787
 21
258.30838912598182
  0
LINE
  8
_0-0_
  6
CONTINUOUS
 62
    7
 10
167.70024693495787
 20
258.80451577098182
 11
170.02593443495786
 21
258.80451577098182
  0
LINE
  8
_0-0_
  6
CONTINUOUS
 62
    7
 10
164.63011675495787
 20
258.80451577098182
 11
164.63011675495787
 21
255.70359861598183
  0
LINE
  8
_0-0_
  6
CONTINUOUS
 62
    7
 10
167.70024693495785
 20
241.31542634598185
 11
167.70024693495787
 21
294.34115115598183
  0
LINE
  8
_0-0_
  6
CONTINUOUS
 62
    7
 10
162.24285530495789
 20
295.0853403909818
 11
162.24285530495789
 21
258.80451577098182
  0
LINE
  8
_0-0_
  6
CONTINUOUS
 62
    7
 10
161.52920106495787
 20
241.31542634598185
 11
161.52920106495787
 21
255.70359861598183
  0
LINE
  8
_0-0_
  6
CONTINUOUS
 62
    7
 10
170.89402897495785
 20
238.95869842598182
 11
167.70024693495785
 21
241.31542634598185
  0
LINE
  8
_0-0_
  6
CONTINUOUS
 62
    7
 10
158.33541755995788
 20
238.95869842598182
 11
161.52920106495787
 21
241.31542634598185
  0
LINE
  8
_0-0_
  6
CONTINUOUS
 62
    7
 10
167.70024693495785
 20
241.31542634598185
 11
161.52920106495787
 21
241.31542634598185
  0
LINE
  8
_0-0_
  6
CONTINUOUS
 62
    7
 10
166.98709665495787
 20
297.6590919459818
 11
166.98709665495787
 21
295.0853403909818
  0
LINE
  8
_0-0_
  6
CONTINUOUS
 62
    7
 10
162.24285530495789
 20
297.6590919459818
 11
162.24285530495789
 21
295.0853403909818
  0
LINE
  8
_0-0_
  6
CONTINUOUS
 62
    7
 10
166.98709665495787
 20
295.0853403909818
 11
162.24285530495789
 21
295.0853403909818
  0
LINE
  8
_0-0_
  6
CONTINUOUS
 62
    7
 10
160.38200204995789
 20
258.3394280809818
 11
159.20351356495789
 21
258.80451577098182
  0
LINE
  8
_0-0_
  6
CONTINUOUS
 62
    7
 10
161.52920106495787
 20
257.75043508598185
 11
160.38200204995789
 21
258.3394280809818
  0
LINE
  8
_0-0_
  6
CONTINUOUS
 62
    7
 10
160.38200204995789
 20
256.16893828598182
 11
161.52920106495787
 21
256.72689086098183
  0
LINE
  8
_0-0_
  6
CONTINUOUS
 62
    7
 10
159.20351356495789
 20
255.70359861598183
 11
160.38200204995789
 21
256.16893828598182
  0
LINE
  8
_0-0_
  6
CONTINUOUS
 62
    7
 10
159.20351356495789
 20
255.70359861598183
 11
158.70738691995786
 21
256.23076421598182
  0
LINE
  8
_0-0_
  6
CONTINUOUS
 62
    7
 10
159.20351356495789
 20
258.80451577098182
 11
158.70738691995786
 21
258.27734870598181
  0
LINE
  8
_0-0_
  6
CONTINUOUS
 62
    7
 10
170.02593443495786
 20
255.70359861598183
 11
170.55284805495785
 21
256.23076421598182
  0
LINE
  8
_0-0_
  6
CONTINUOUS
 62
    7
 10
170.02593443495786
 20
258.80451577098182
 11
170.55284805495785
 21
258.27734870598181
  0
LINE
  8
_0-0_
  6
CONTINUOUS
 62
    7
 10
161.52920106495787
 20
256.72689086098183
 11
161.52920106495787
 21
257.75043508598185
  0
LINE
  8
_0-0_
  6
CONTINUOUS
 62
    7
 10
163.7933131499579
 20
255.76567799098183
 11
164.63011675495787
 21
255.70359861598183
  0
LINE
  8
_0-0_
  6
CONTINUOUS
 62
    7
 10
162.98679255995788
 20
255.98270162598183
 11
163.7933131499579
 21
255.76567799098183
  0
LINE
  8
_0-0_
  6
CONTINUOUS
 62
    7
 10
162.24285530495789
 20
256.29284359098182
 11
162.98679255995788
 21
255.98270162598183
  0
LINE
  8
_0-0_
  6
CONTINUOUS
 62
    7
 10
161.52920106495787
 20
256.72689086098183
 11
162.24285530495789
 21
256.29284359098182
  0
LINE
  8
_0-0_
  6
CONTINUOUS
 62
    7
 10
162.24285530495789
 20
258.21552277598181
 11
161.52920106495787
 21
257.75043508598185
  0
LINE
  8
_0-0_
  6
CONTINUOUS
 62
    7
 10
162.98679255995788
 20
258.52566474098182
 11
162.24285530495789
 21
258.21552277598181
  0
LINE
  8
_0-0_
  6
CONTINUOUS
 62
    7
 10
163.7933131499579
 20
258.71164942098187
 11
162.98679255995788
 21
258.52566474098182
  0
LINE
  8
_0-0_
  6
CONTINUOUS
 62
    7
 10
164.63011675495787
 20
258.80451577098182
 11
163.7933131499579
 21
258.71164942098187
  0
LINE
  8
_0-0_
  6
CONTINUOUS
 62
    7
 10
170.55284805495785
 20
258.27734870598181
 11
170.55284805495785
 21
256.23076421598182
  0
LINE
  8
_0-0_
  6
CONTINUOUS
 62
    7
 10
164.63011675495787
 20
255.70359861598183
 11
159.20351356495789
 21
255.70359861598183
  0
LINE
  8
_0-0_
  6
CONTINUOUS
 62
    7
 10
158.70738691995786
 20
258.27734870598181
 11
158.70738691995786
 21
256.23076421598182
  0
LINE
  8
_0-0_
  6
CONTINUOUS
 62
    7
 10
158.33541755995788
 20
237.93540618098183
 11
170.89402897495785
 21
237.93540618098183
  0
LINE
  8
_0-0_
  6
CONTINUOUS
 62
    7
 10
161.52920106495787
 20
294.34115115598183
 11
167.70024693495787
 21
294.34115115598183
  0
LINE
  8
_0-0_
  6
CONTINUOUS
 62
    7
 10
162.24285530495789
 20
255.70359861598183
 11
162.24285530495789
 21
242.33871859098184
  0
LINE
  8
_0-0_
  6
CONTINUOUS
 62
    7
 10
161.52920106495787
 20
242.33871859098184
 11
167.70024693495785
 21
242.33871859098184
  0
LINE
  8
_0-0_
  6
CONTINUOUS
 62
    7
 10
166.98709665495787
 20
295.0853403909818
 11
167.70024693495787
 21
294.34115115598183
  0
LINE
  8
_0-0_
  6
CONTINUOUS
 62
    7
 10
162.24285530495789
 20
295.0853403909818
 11
161.52920106495787
 21
294.34115115598183
  0
LINE
  8
_0-0_
  6
CONTINUOUS
 62
    7
 10
161.52920106495787
 20
258.80451577098182
 11
161.52920106495787
 21
294.34115115598183
  0
LINE
  8
_0-0_
  6
CONTINUOUS
 62
    7
 10
162.24285530495789
 20
297.6590919459818
 11
166.98709665495787
 21
297.6590919459818
  0
LINE
  8
_0-0_
  6
CONTINUOUS
 62
    7
 10
195.57770995995787
 20
338.00204805598185
 11
197.25182112995788
 21
336.32743146098181
  0
LINE
  8
_0-0_
  6
CONTINUOUS
 62
    7
 10
194.89534665495788
 20
336.48262916598185
 11
193.25202245995786
 21
338.15699231598182
  0
LINE
  8
_0-0_
  6
CONTINUOUS
 62
    7
 10
190.9263349599579
 20
338.3121900209818
 11
192.56965915495789
 21
336.63757342598183
  0
LINE
  8
_0-0_
  6
CONTINUOUS
 62
    7
 10
190.24397165495787
 20
336.79277113098181
 11
188.60064745995788
 21
338.4360953259818
  0
LINE
  8
_0-0_
  6
CONTINUOUS
 62
    7
 10
186.2749599599579
 20
338.56025261098182
 11
187.91828415495786
 21
336.9166764359818
  0
LINE
  8
_0-0_
  6
CONTINUOUS
 62
    7
 10
185.62338362995786
 20
337.04083372098182
 11
183.98005943495789
 21
338.65311896098183
  0
LINE
  8
_0-0_
  6
CONTINUOUS
 62
    7
 10
172.6928028549579
 20
323.76882004598184
 11
172.78566920495788
 21
323.64491474098185
  0
LINE
  8
_0-0_
  6
CONTINUOUS
 62
    7
 10
174.58444308495788
 20
324.04792305598181
 11
172.66151191995789
 21
325.9706022409818
  0
LINE
  8
_0-0_
  6
CONTINUOUS
 62
    7
 10
172.63072494495788
 20
328.1721324559818
 11
175.23551398995789
 21
325.56734194598181
  0
LINE
  8
_0-0_
  6
CONTINUOUS
 62
    7
 10
165.43663880995788
 20
337.56800078598184
 11
164.63011675495787
 21
338.3742693959818
  0
LINE
  8
_0-0_
  6
CONTINUOUS
 62
    7
 10
174.15039581495788
 20
328.85424231598182
 11
172.63072494495788
 21
330.37366120598182
  0
LINE
  8
_0-0_
  6
CONTINUOUS
 62
    7
 10
175.23551398995789
 20
327.73808372098182
 11
174.70809640995788
 21
328.29628974098182
  0
LINE
  8
_0-0_
  6
CONTINUOUS
 62
    7
 10
172.59993796995789
 20
332.57544340098184
 11
175.29759336495789
 21
329.87753456098181
  0
LINE
  8
_0-0_
  6
CONTINUOUS
 62
    7
 10
166.08770971495787
 20
339.08741967598178
 11
167.63816755995788
 21
337.53696036598183
  0
LINE
  8
_0-0_
  6
CONTINUOUS
 62
    7
 10
169.83969777495787
 20
337.53696036598183
 11
168.28923846495789
 21
339.08741967598178
  0
LINE
  8
_0-0_
  6
CONTINUOUS
 62
    7
 10
175.32838033995787
 20
332.04827780098179
 11
172.56864556995788
 21
334.77697361598177
  0
LINE
  8
_0-0_
  6
CONTINUOUS
 62
    7
 10
170.49127410495788
 20
339.05637925598182
 11
175.35967273995789
 21
334.21902104098183
  0
LINE
  8
_0-0_
  6
CONTINUOUS
 62
    7
 10
175.35967273995789
 20
336.35847188098182
 11
172.72358982995789
 21
339.02534030098184
  0
LINE
  8
_0-0_
  6
CONTINUOUS
 62
    7
 10
174.95641244495789
 20
338.96326092598184
 11
176.53765726495789
 21
337.38176412598182
  0
LINE
  8
_0-0_
  6
CONTINUOUS
 62
    7
 10
178.77047841495789
 20
337.31993673098179
 11
177.1892335949579
 21
338.9322219709818
  0
LINE
  8
_0-0_
  6
CONTINUOUS
 62
    7
 10
179.45284171995786
 20
338.83935562098179
 11
181.03408800495788
 21
337.25785882098182
  0
LINE
  8
_0-0_
  6
CONTINUOUS
 62
    7
 10
183.32898852995788
 20
337.16474049098184
 11
181.7164513099579
 21
338.77727771098182
  0
LINE
  8
_0-0_
  6
CONTINUOUS
 62
    7
 10
175.4525390899579
 20
336.76173217598182
 11
175.35967273995789
 21
336.38951083598181
  0
LINE
  8
_0-0_
  6
CONTINUOUS
 62
    7
 10
175.66956272495787
 20
337.10266111598185
 11
175.4525390899579
 21
336.76173217598182
  0
LINE
  8
_0-0_
  6
CONTINUOUS
 62
    7
 10
176.01074364495787
 20
337.31993673098179
 11
175.66956272495787
 21
337.10266111598185
  0
LINE
  8
_0-0_
  6
CONTINUOUS
 62
    7
 10
176.41400393995787
 20
337.38176412598182
 11
176.01074364495787
 21
337.31993673098179
  0
LINE
  8
_0-0_
  6
CONTINUOUS
 62
    7
 10
197.31390050495787
 20
336.32743146098181
 11
184.13500369495787
 21
336.32743146098181
  0
LINE
  8
_0-0_
  6
CONTINUOUS
 62
    7
 10
164.63011675495787
 20
336.32743146098181
 11
131.91554749495791
 21
336.32743146098181
  0
LINE
  8
_0-0_
  6
CONTINUOUS
 62
    7
 10
131.63644448495788
 20
336.35847188098182
 11
131.97762686995787
 21
336.32743146098181
  0
LINE
  8
_0-0_
  6
CONTINUOUS
 62
    7
 10
131.35734147495791
 20
336.57549551598186
 11
131.63644448495788
 21
336.35847188098182
  0
LINE
  8
_0-0_
  6
CONTINUOUS
 62
    7
 10
131.17161023995789
 20
336.8545970609818
 11
131.35734147495791
 21
336.57549551598186
  0
LINE
  8
_0-0_
  6
CONTINUOUS
 62
    7
 10
131.17161023995789
 20
337.19577944598183
 11
131.17161023995789
 21
336.8545970609818
  0
LINE
  8
_0-0_
  6
CONTINUOUS
 62
    7
 10
131.29526356495788
 20
337.53696036598183
 11
131.17161023995789
 21
337.19577944598183
  0
LINE
  8
_0-0_
  6
CONTINUOUS
 62
    7
 10
131.5435781349579
 20
337.75398400098186
 11
131.29526356495788
 21
337.53696036598183
  0
LINE
  8
_0-0_
  6
CONTINUOUS
 62
    7
 10
131.85346811995788
 20
337.84710233098178
 11
131.5435781349579
 21
337.75398400098186
  0
LINE
  8
_0-0_
  6
CONTINUOUS
 62
    7
 10
140.04031296995788
 20
338.40505637098181
 11
131.85346811995788
 21
337.84710233098178
  0
LINE
  8
_0-0_
  6
CONTINUOUS
 62
    7
 10
148.22665092995788
 20
338.77727771098182
 11
140.04031296995788
 21
338.40505637098181
  0
LINE
  8
_0-0_
  6
CONTINUOUS
 62
    7
 10
156.41299035495788
 20
339.02534030098184
 11
148.22665092995788
 21
338.77727771098182
  0
LINE
  8
_0-0_
  6
CONTINUOUS
 62
    7
 10
164.63011675495787
 20
339.08741967598178
 11
156.41299035495788
 21
339.02534030098184
  0
LINE
  8
_0-0_
  6
CONTINUOUS
 62
    7
 10
197.59300204995787
 20
336.35847188098182
 11
197.25182112995788
 21
336.32743146098181
  0
LINE
  8
_0-0_
  6
CONTINUOUS
 62
    7
 10
197.8721050599579
 20
336.57549551598186
 11
197.59300204995787
 21
336.35847188098182
  0
LINE
  8
_0-0_
  6
CONTINUOUS
 62
    7
 10
198.05834171995787
 20
336.8545970609818
 11
197.8721050599579
 21
336.57549551598186
  0
LINE
  8
_0-0_
  6
CONTINUOUS
 62
    7
 10
198.08912869495788
 20
337.19577944598183
 11
198.05834171995787
 21
336.8545970609818
  0
LINE
  8
_0-0_
  6
CONTINUOUS
 62
    7
 10
197.96497140995788
 20
337.53696036598183
 11
198.08912869495788
 21
337.19577944598183
  0
LINE
  8
_0-0_
  6
CONTINUOUS
 62
    7
 10
197.68586839995788
 20
337.75398400098186
 11
197.96497140995788
 21
337.53696036598183
  0
LINE
  8
_0-0_
  6
CONTINUOUS
 62
    7
 10
197.37597841495787
 20
337.84710233098178
 11
197.68586839995788
 21
337.75398400098186
  0
LINE
  8
_0-0_
  6
CONTINUOUS
 62
    7
 10
189.1896389899579
 20
338.40505637098181
 11
197.37597841495787
 21
337.84710233098178
  0
LINE
  8
_0-0_
  6
CONTINUOUS
 62
    7
 10
181.00330102995787
 20
338.77727771098182
 11
189.1896389899579
 21
338.40505637098181
  0
LINE
  8
_0-0_
  6
CONTINUOUS
 62
    7
 10
172.81696160495787
 20
339.02534030098184
 11
181.00330102995787
 21
338.77727771098182
  0
LINE
  8
_0-0_
  6
CONTINUOUS
 62
    7
 10
164.63011675495787
 20
339.08741967598178
 11
172.81696160495787
 21
339.02534030098184
  0
LINE
  8
_0-0_
  6
CONTINUOUS
 62
    7
 10
184.22837546995788
 20
336.54470854098179
 11
184.10421671995789
 21
336.17248720098183
  0
LINE
  8
_0-0_
  6
CONTINUOUS
 62
    7
 10
184.47618607995787
 20
336.82381008598179
 11
184.22837546995788
 21
336.54470854098179
  0
LINE
  8
_0-0_
  6
CONTINUOUS
 62
    7
 10
184.81736699995787
 20
337.00979476598184
 11
184.47618607995787
 21
336.82381008598179
  0
LINE
  8
_0-0_
  6
CONTINUOUS
 62
    7
 10
185.18933635995791
 20
337.07187414098178
 11
184.81736699995787
 21
337.00979476598184
  0
LINE
  8
_0-0_
  6
CONTINUOUS
 62
    7
 10
171.5143143699579
 20
337.44384203598179
 11
171.04947865995788
 21
337.50592141098184
  0
LINE
  8
_0-0_
  6
CONTINUOUS
 62
    7
 10
171.94836163995791
 20
337.19577944598183
 11
171.5143143699579
 21
337.44384203598179
  0
LINE
  8
_0-0_
  6
CONTINUOUS
 62
    7
 10
172.28954255995788
 20
336.88563748098181
 11
171.94836163995791
 21
337.19577944598183
  0
LINE
  8
_0-0_
  6
CONTINUOUS
 62
    7
 10
172.50656619495788
 20
336.45159021098181
 11
172.28954255995788
 21
336.88563748098181
  0
LINE
  8
_0-0_
  6
CONTINUOUS
 62
    7
 10
172.56864556995788
 20
335.98650252098184
 11
172.50656619495788
 21
336.45159021098181
  0
LINE
  8
_0-0_
  6
CONTINUOUS
 62
    7
 10
183.20482977995789
 20
330.21871694598178
 11
182.95651374495787
 21
329.8467475859818
  0
LINE
  8
_0-0_
  6
CONTINUOUS
 62
    7
 10
183.32898852995788
 20
330.65276421598185
 11
183.20482977995789
 21
330.21871694598178
  0
LINE
  8
_0-0_
  6
CONTINUOUS
 62
    7
 10
164.63011675495787
 20
337.56800078598184
 11
171.04947865995788
 21
337.50592141098184
  0
LINE
  8
_0-0_
  6
CONTINUOUS
 62
    7
 10
190.3060510299579
 20
336.79277113098181
 11
197.25182112995788
 21
336.32743146098181
  0
LINE
  8
_0-0_
  6
CONTINUOUS
 62
    7
 10
183.3597755049579
 20
337.13370007098183
 11
190.3060510299579
 21
336.79277113098181
  0
LINE
  8
_0-0_
  6
CONTINUOUS
 62
    7
 10
176.41400393995787
 20
337.38176412598182
 11
183.3597755049579
 21
337.13370007098183
  0
LINE
  8
_0-0_
  6
CONTINUOUS
 62
    7
 10
184.10421671995789
 20
336.17248720098183
 11
183.32898852995788
 21
330.65276421598185
  0
LINE
  8
_0-0_
  6
CONTINUOUS
 62
    7
 10
155.07955614495791
 20
328.29628974098182
 11
155.07955614495791
 21
329.8467475859818
  0
LINE
  8
_0-0_
  6
CONTINUOUS
 62
    7
 10
155.07955614495791
 20
328.29628974098182
 11
153.99443796995789
 21
328.29628974098182
  0
LINE
  8
_0-0_
  6
CONTINUOUS
 62
    7
 10
174.15039581495788
 20
328.29628974098182
 11
174.15039581495788
 21
329.8467475859818
  0
LINE
  8
_0-0_
  6
CONTINUOUS
 62
    7
 10
174.15039581495788
 20
328.29628974098182
 11
175.23551398995789
 21
328.29628974098182
  0
LINE
  8
_0-0_
  6
CONTINUOUS
 62
    7
 10
172.6928028549579
 20
323.64491474098185
 11
172.56864556995788
 21
335.98650252098184
  0
LINE
  8
_0-0_
  6
CONTINUOUS
 62
    7
 10
160.84734171995788
 20
336.2966444859818
 11
160.84734171995788
 21
329.8467475859818
  0
LINE
  8
_0-0_
  6
CONTINUOUS
 62
    7
 10
160.22705778995791
 20
336.2966444859818
 11
160.22705778995791
 21
329.87753456098181
  0
LINE
  8
_0-0_
  6
CONTINUOUS
 62
    7
 10
154.83124010995789
 20
336.2966444859818
 11
154.83124010995789
 21
329.8467475859818
  0
LINE
  8
_0-0_
  6
CONTINUOUS
 62
    7
 10
153.93235859495789
 20
329.8467475859818
 11
164.63011675495787
 21
329.8467475859818
  0
LINE
  8
_0-0_
  6
CONTINUOUS
 62
    7
 10
157.25029938495788
 20
336.2966444859818
 11
157.25029938495786
 21
329.8467475859818
  0
LINE
  8
_0-0_
  6
CONTINUOUS
 62
    7
 10
164.63011675495787
 20
339.08741967598178
 11
164.63011675495787
 21
323.64491474098185
  0
LINE
  8
_0-0_
  6
CONTINUOUS
 62
    7
 10
153.87027921995789
 20
336.2966444859818
 11
153.93235859495789
 21
329.8467475859818
  0
LINE
  8
_0-0_
  6
CONTINUOUS
 62
    7
 10
131.85346811995788
 20
337.84710233098178
 11
164.63011675495787
 21
337.84710233098178
  0
LINE
  8
_0-0_
  6
CONTINUOUS
 62
    7
 10
153.99443796995789
 20
324.6989939609818
 11
164.63011675495787
 21
324.6989939609818
  0
LINE
  8
_0-0_
  6
CONTINUOUS
 62
    7
 10
155.01747676995788
 20
328.29628974098182
 11
155.01747676995788
 21
323.64491474098185
  0
LINE
  8
_0-0_
  6
CONTINUOUS
 62
    7
 10
153.99443796995789
 20
324.6989939609818
 11
155.01747676995788
 21
323.64491474098185
  0
LINE
  8
_0-0_
  6
CONTINUOUS
 62
    7
 10
155.01747676995788
 20
323.64491474098185
 11
164.63011675495787
 21
323.64491474098185
  0
LINE
  8
_0-0_
  6
CONTINUOUS
 62
    7
 10
153.99443796995789
 20
324.6989939609818
 11
153.99443796995789
 21
328.29628974098182
  0
LINE
  8
_0-0_
  6
CONTINUOUS
 62
    7
 10
175.29759336495789
 20
329.8467475859818
 11
174.15039581495788
 21
329.8467475859818
  0
LINE
  8
_0-0_
  6
CONTINUOUS
 62
    7
 10
175.35967273995789
 20
336.38951083598181
 11
175.29759336495789
 21
329.8467475859818
  0
LINE
  8
_0-0_
  6
CONTINUOUS
 62
    7
 10
174.21196976495787
 20
328.29628974098182
 11
174.21196976495787
 21
323.64491474098185
  0
LINE
  8
_0-0_
  6
CONTINUOUS
 62
    7
 10
175.23551398995789
 20
324.6989939609818
 11
174.21196976495787
 21
323.64491474098185
  0
LINE
  8
_0-0_
  6
CONTINUOUS
 62
    7
 10
174.21196976495787
 20
323.64491474098185
 11
164.63011675495787
 21
323.64491474098185
  0
LINE
  8
_0-0_
  6
CONTINUOUS
 62
    7
 10
175.23551398995789
 20
324.6989939609818
 11
175.23551398995789
 21
328.29628974098182
  0
LINE
  8
_0-0_
  6
CONTINUOUS
 62
    7
 10
164.63011675495787
 20
326.5906341909818
 11
164.63011675495787
 21
317.59802615598181
  0
LINE
  8
_0-0_
  6
CONTINUOUS
 62
    7
 10
164.63011675495787
 20
329.53660562098185
 11
164.63011675495787
 21
328.07901412598181
  0
LINE
  8
_0-0_
  6
CONTINUOUS
 62
    7
 10
164.63011675495787
 20
341.25790947098182
 11
164.63011675495787
 21
331.0249855559818
  0
LINE
  8
_0-0_
  6
CONTINUOUS
 62
    7
 10
175.23551398995789
 20
329.8467475859818
 11
182.95651374495787
 21
329.8467475859818
  0
LINE
  8
_0-0_
  6
CONTINUOUS
 62
    7
 10
184.28994941995788
 20
312.3574061809818
 11
183.60809007495789
 21
311.64425590098182
  0
LINE
  8
_0-0_
  6
CONTINUOUS
 62
    7
 10
183.14275186995786
 20
312.63650919098183
 11
183.82511370995786
 21
313.34965947098181
  0
LINE
  8
_0-0_
  6
CONTINUOUS
 62
    7
 10
182.70870313495789
 20
313.65980143598182
 11
181.68515890995789
 21
312.63650919098183
  0
LINE
  8
_0-0_
  6
CONTINUOUS
 62
    7
 10
180.22807137495789
 20
312.63650919098183
 11
181.46813527495789
 21
313.87682507098179
  0
LINE
  8
_0-0_
  6
CONTINUOUS
 62
    7
 10
178.77047841495789
 20
311.21020863098181
 11
179.79402410495788
 21
312.2335008759818
  0
LINE
  8
_0-0_
  6
CONTINUOUS
 62
    7
 10
177.74743814995787
 20
311.61321694598183
 11
177.22002056995788
 21
311.11709030098183
  0
LINE
  8
_0-0_
  6
CONTINUOUS
 62
    7
 10
180.22807137495789
 20
314.09384870598183
 11
178.77047841495789
 21
312.63650919098183
  0
LINE
  8
_0-0_
  6
CONTINUOUS
 62
    7
 10
178.15019448495786
 20
313.47381675598183
 11
179.79402410495788
 21
315.14818137098177
  0
LINE
  8
_0-0_
  6
CONTINUOUS
 62
    7
 10
176.97220995995787
 20
312.29532827098183
 11
177.74743814995787
 21
313.07055646098183
  0
LINE
  8
_0-0_
  6
CONTINUOUS
 62
    7
 10
178.42929749495789
 20
315.2102592809818
 11
176.97220995995787
 21
313.7529197659818
  0
LINE
  8
_0-0_
  6
CONTINUOUS
 62
    7
 10
176.97220995995787
 20
311.17916967598183
 11
177.06507630995787
 21
311.11709030098183
  0
LINE
  8
_0-0_
  6
CONTINUOUS
 62
    7
 10
177.74743814995787
 20
311.8923199559818
 11
176.97220995995787
 21
312.63650919098183
  0
LINE
  8
_0-0_
  6
CONTINUOUS
 62
    7
 10
178.77047841495789
 20
312.29532827098183
 11
179.79402410495788
 21
311.27203456098181
  0
LINE
  8
_0-0_
  6
CONTINUOUS
 62
    7
 10
176.97220995995787
 20
314.09384870598183
 11
177.74743814995787
 21
313.31862051598182
  0
LINE
  8
_0-0_
  6
CONTINUOUS
 62
    7
 10
184.07292578495787
 20
312.82249387098182
 11
183.35977550495787
 21
313.53589613098183
  0
LINE
  8
_0-0_
  6
CONTINUOUS
 62
    7
 10
183.39106643995788
 20
312.04726421598184
 11
183.91798005995787
 21
311.52009861598185
  0
LINE
  8
_0-0_
  6
CONTINUOUS
 62
    7
 10
181.59229255995788
 20
313.84578611598181
 11
182.80156948495787
 21
312.63650919098183
  0
LINE
  8
_0-0_
  6
CONTINUOUS
 62
    7
 10
179.79402410495788
 20
314.18696703598181
 11
178.77047841495789
 21
315.2102592809818
  0
LINE
  8
_0-0_
  6
CONTINUOUS
 62
    7
 10
181.34448194995787
 20
312.63650919098183
 11
179.8248110799579
 21
314.15592808098182
  0
LINE
  8
_0-0_
  6
CONTINUOUS
 62
    7
 10
177.31288691995786
 20
315.2102592809818
 11
179.88688898995787
 21
312.63650919098183
  0
LINE
  8
_0-0_
  6
CONTINUOUS
 62
    7
 10
164.63011675495787
 20
311.11709030098183
 11
164.63011675495787
 21
315.2102592809818
  0
LINE
  8
_0-0_
  6
CONTINUOUS
 62
    7
 10
149.4359278549579
 20
314.18696703598181
 11
164.63011675495787
 21
314.18696703598181
  0
LINE
  8
_0-0_
  6
CONTINUOUS
 62
    7
 10
145.46691615995789
 20
313.47381675598183
 11
164.63011675495787
 21
313.47381675598183
  0
LINE
  8
_0-0_
  6
CONTINUOUS
 62
    7
 10
144.78455285495787
 20
312.04726421598184
 11
164.63011675495787
 21
312.04726421598184
  0
LINE
  8
_0-0_
  6
CONTINUOUS
 62
    7
 10
145.31146647495788
 20
311.52009861598185
 11
164.63011675495787
 21
311.52009861598185
  0
LINE
  8
_0-0_
  6
CONTINUOUS
 62
    7
 10
183.91798005995787
 20
311.52009861598185
 11
179.79402410495788
 21
311.52009861598185
  0
LINE
  8
_0-0_
  6
CONTINUOUS
 62
    7
 10
144.87741920495787
 20
311.79920162598182
 11
144.78455285495787
 21
312.04726421598184
  0
LINE
  8
_0-0_
  6
CONTINUOUS
 62
    7
 10
145.06365586495789
 20
311.61321694598183
 11
144.87741920495787
 21
311.79920162598182
  0
LINE
  8
_0-0_
  6
CONTINUOUS
 62
    7
 10
145.31146647495788
 20
311.52009861598185
 11
145.06365586495789
 21
311.61321694598183
  0
LINE
  8
_0-0_
  6
CONTINUOUS
 62
    7
 10
145.46691615995789
 20
313.47381675598183
 11
144.78455285495787
 21
312.04726421598184
  0
LINE
  8
_0-0_
  6
CONTINUOUS
 62
    7
 10
183.42185341495787
 20
311.95439786598183
 11
183.2976961299579
 21
312.63650919098183
  0
LINE
  8
_0-0_
  6
CONTINUOUS
 62
    7
 10
184.38331972995786
 20
311.79920162598182
 11
184.44539910495789
 21
312.04726421598184
  0
LINE
  8
_0-0_
  6
CONTINUOUS
 62
    7
 10
184.1970830699579
 20
311.61321694598183
 11
184.38331972995786
 21
311.79920162598182
  0
LINE
  8
_0-0_
  6
CONTINUOUS
 62
    7
 10
183.98005943495787
 20
311.55113757098184
 11
184.1970830699579
 21
311.61321694598183
  0
LINE
  8
_0-0_
  6
CONTINUOUS
 62
    7
 10
183.73174339995788
 20
311.58217799098179
 11
183.98005943495787
 21
311.55113757098184
  0
LINE
  8
_0-0_
  6
CONTINUOUS
 62
    7
 10
183.51471976495787
 20
311.7373742309818
 11
183.73174339995788
 21
311.58217799098179
  0
LINE
  8
_0-0_
  6
CONTINUOUS
 62
    7
 10
183.42185341495787
 20
311.95439786598183
 11
183.51471976495787
 21
311.7373742309818
  0
LINE
  8
_0-0_
  6
CONTINUOUS
 62
    7
 10
149.4359278549579
 20
315.2102592809818
 11
149.4359278549579
 21
314.18696703598181
  0
LINE
  8
_0-0_
  6
CONTINUOUS
 62
    7
 10
145.46691615995789
 20
313.47381675598183
 11
149.4359278549579
 21
314.18696703598181
  0
LINE
  8
_0-0_
  6
CONTINUOUS
 62
    7
 10
149.4359278549579
 20
311.52009861598185
 11
149.4359278549579
 21
311.11709030098183
  0
LINE
  8
_0-0_
  6
CONTINUOUS
 62
    7
 10
149.4359278549579
 20
315.2102592809818
 11
164.63011675495787
 21
315.2102592809818
  0
LINE
  8
_0-0_
  6
CONTINUOUS
 62
    7
 10
149.4359278549579
 20
311.11709030098183
 11
164.63011675495787
 21
311.11709030098183
  0
LINE
  8
_0-0_
  6
CONTINUOUS
 62
    7
 10
178.77047841495789
 20
313.47381675598183
 11
177.74743814995787
 21
313.47381675598183
  0
LINE
  8
_0-0_
  6
CONTINUOUS
 62
    7
 10
177.74743814995787
 20
313.47381675598183
 11
177.74743814995787
 21
311.11709030098183
  0
LINE
  8
_0-0_
  6
CONTINUOUS
 62
    7
 10
178.77047841495789
 20
313.47381675598183
 11
178.77047841495789
 21
311.11709030098183
  0
LINE
  8
_0-0_
  6
CONTINUOUS
 62
    7
 10
176.97220995995787
 20
315.2102592809818
 11
176.97220995995787
 21
311.11709030098183
  0
LINE
  8
_0-0_
  6
CONTINUOUS
 62
    7
 10
179.79402410495788
 20
315.2102592809818
 11
179.79402410495788
 21
314.18696703598181
  0
LINE
  8
_0-0_
  6
CONTINUOUS
 62
    7
 10
183.2976961299579
 20
312.63650919098183
 11
179.79402410495788
 21
312.63650919098183
  0
LINE
  8
_0-0_
  6
CONTINUOUS
 62
    7
 10
183.76303579995789
 20
313.47381675598183
 11
179.79402410495788
 21
314.18696703598181
  0
LINE
  8
_0-0_
  6
CONTINUOUS
 62
    7
 10
179.79402410495788
 20
312.63650919098183
 11
179.79402410495788
 21
311.11709030098183
  0
LINE
  8
_0-0_
  6
CONTINUOUS
 62
    7
 10
183.76303579995789
 20
313.47381675598183
 11
184.44539910495789
 21
312.04726421598184
  0
LINE
  8
_0-0_
  6
CONTINUOUS
 62
    7
 10
179.79402410495788
 20
311.11709030098183
 11
176.97220995995787
 21
311.11709030098183
  0
LINE
  8
_0-0_
  6
CONTINUOUS
 62
    7
 10
179.79402410495788
 20
315.2102592809818
 11
176.97220995995787
 21
315.2102592809818
  0
LINE
  8
_0-0_
  6
CONTINUOUS
 62
    7
 10
247.08351191995786
 20
129.58930801598183
 11
247.11480285495784
 21
128.62834566098184
  0
LINE
  8
_0-0_
  6
CONTINUOUS
 62
    7
 10
247.11480285495784
 20
130.5507728659818
 11
247.08351191995786
 21
129.58930801598183
  0
LINE
  8
_0-0_
  6
CONTINUOUS
 62
    7
 10
255.48737893995786
 20
129.58930801598183
 11
255.45608800495785
 21
130.61285224098179
  0
LINE
  8
_0-0_
  6
CONTINUOUS
 62
    7
 10
255.45608800495785
 20
128.53497535098182
 11
255.48737893995786
 21
129.58930801598183
  0
LINE
  8
_0-0_
  6
CONTINUOUS
 62
    7
 10
255.33192925495786
 20
127.75974716098182
 11
255.45608800495785
 21
128.53497535098182
  0
LINE
  8
_0-0_
  6
CONTINUOUS
 62
    7
 10
255.05282624495786
 20
127.04659688098184
 11
255.33192925495786
 21
127.75974716098182
  0
LINE
  8
_0-0_
  6
CONTINUOUS
 62
    7
 10
254.65007137495783
 20
126.36423357598181
 11
255.05282624495786
 21
127.04659688098184
  0
LINE
  8
_0-0_
  6
CONTINUOUS
 62
    7
 10
254.12265232995784
 20
125.7752405809818
 11
254.65007137495783
 21
126.36423357598181
  0
LINE
  8
_0-0_
  6
CONTINUOUS
 62
    7
 10
253.47158142495783
 20
125.31040633598184
 11
254.12265232995784
 21
125.7752405809818
  0
LINE
  8
_0-0_
  6
CONTINUOUS
 62
    7
 10
252.78921811995784
 20
124.96922395098181
 11
253.47158142495783
 21
125.31040633598184
  0
LINE
  8
_0-0_
  6
CONTINUOUS
 62
    7
 10
252.01398846495783
 20
124.75220031598184
 11
252.78921811995784
 21
124.96922395098181
  0
LINE
  8
_0-0_
  6
CONTINUOUS
 62
    7
 10
251.23876027495785
 20
124.69012094098184
 11
252.01398846495783
 21
124.75220031598184
  0
LINE
  8
_0-0_
  6
CONTINUOUS
 62
    7
 10
250.46353061995785
 20
124.78298729098185
 11
251.23876027495785
 21
124.69012094098184
  0
LINE
  8
_0-0_
  6
CONTINUOUS
 62
    7
 10
249.71959336495786
 20
125.00001092598183
 11
250.46353061995785
 21
124.78298729098185
  0
LINE
  8
_0-0_
  6
CONTINUOUS
 62
    7
 10
249.03723005995784
 20
125.34119331098179
 11
249.71959336495786
 21
125.00001092598183
  0
LINE
  8
_0-0_
  6
CONTINUOUS
 62
    7
 10
248.41694612995786
 20
125.8373199559818
 11
249.03723005995784
 21
125.34119331098179
  0
LINE
  8
_0-0_
  6
CONTINUOUS
 62
    7
 10
247.89003250995785
 20
126.42631148598184
 11
248.41694612995786
 21
125.8373199559818
  0
LINE
  8
_0-0_
  6
CONTINUOUS
 62
    7
 10
247.48677221495785
 20
127.10867479098181
 11
247.89003250995785
 21
126.42631148598184
  0
LINE
  8
_0-0_
  6
CONTINUOUS
 62
    7
 10
247.23896160495786
 20
127.85311747098183
 11
247.48677221495785
 21
127.10867479098181
  0
LINE
  8
_0-0_
  6
CONTINUOUS
 62
    7
 10
247.11480285495784
 20
128.62834566098184
 11
247.23896160495786
 21
127.85311747098183
  0
LINE
  8
_0-0_
  6
CONTINUOUS
 62
    7
 10
247.23896160495786
 20
131.32600252098183
 11
247.11480285495784
 21
130.5507728659818
  0
LINE
  8
_0-0_
  6
CONTINUOUS
 62
    7
 10
247.48677221495785
 20
132.06993977598182
 11
247.23896160495786
 21
131.32600252098183
  0
LINE
  8
_0-0_
  6
CONTINUOUS
 62
    7
 10
247.89003250995785
 20
132.72151610598183
 11
247.48677221495785
 21
132.06993977598182
  0
LINE
  8
_0-0_
  6
CONTINUOUS
 62
    7
 10
248.41694612995786
 20
133.31050910098179
 11
247.89003250995785
 21
132.72151610598183
  0
LINE
  8
_0-0_
  6
CONTINUOUS
 62
    7
 10
249.03723005995784
 20
133.80663428098183
 11
248.41694612995786
 21
133.31050910098179
  0
LINE
  8
_0-0_
  6
CONTINUOUS
 62
    7
 10
249.71959336495786
 20
134.17860364098181
 11
249.03723005995784
 21
133.80663428098183
  0
LINE
  8
_0-0_
  6
CONTINUOUS
 62
    7
 10
250.46353061995785
 20
134.39562727598184
 11
249.71959336495786
 21
134.17860364098181
  0
LINE
  8
_0-0_
  6
CONTINUOUS
 62
    7
 10
251.23876027495785
 20
134.45770665098183
 11
250.46353061995785
 21
134.39562727598184
  0
LINE
  8
_0-0_
  6
CONTINUOUS
 62
    7
 10
252.01398846495783
 20
134.39562727598184
 11
251.23876027495785
 21
134.45770665098183
  0
LINE
  8
_0-0_
  6
CONTINUOUS
 62
    7
 10
252.78921811995784
 20
134.17860364098181
 11
252.01398846495783
 21
134.39562727598184
  0
LINE
  8
_0-0_
  6
CONTINUOUS
 62
    7
 10
253.47158142495783
 20
133.83792668098181
 11
252.78921811995784
 21
134.17860364098181
  0
LINE
  8
_0-0_
  6
CONTINUOUS
 62
    7
 10
254.12265232995784
 20
133.37258701098182
 11
253.47158142495783
 21
133.83792668098181
  0
LINE
  8
_0-0_
  6
CONTINUOUS
 62
    7
 10
254.65007137495783
 20
132.78359548098183
 11
254.12265232995784
 21
133.37258701098182
  0
LINE
  8
_0-0_
  6
CONTINUOUS
 62
    7
 10
255.05282624495786
 20
132.13201915098182
 11
254.65007137495783
 21
132.78359548098183
  0
LINE
  8
_0-0_
  6
CONTINUOUS
 62
    7
 10
255.33192925495786
 20
131.38808189598183
 11
255.05282624495786
 21
132.13201915098182
  0
LINE
  8
_0-0_
  6
CONTINUOUS
 62
    7
 10
255.45608800495785
 20
130.61285224098179
 11
255.33192925495786
 21
131.38808189598183
  0
LINE
  8
_0-0_
  6
CONTINUOUS
 62
    7
 10
256.41755285495782
 20
125.74445360598179
 11
256.41755285495782
 21
136.03945689598186
  0
LINE
  8
_0-0_
  6
CONTINUOUS
 62
    7
 10
246.12255102995783
 20
125.74445360598179
 11
246.12255102995783
 21
136.03945689598186
  0
LINE
  8
_0-0_
  6
CONTINUOUS
 62
    7
 10
244.60287869495784
 20
136.03945689598186
 11
257.96801216495783
 21
136.03945689598186
  0
LINE
  8
_0-0_
  6
CONTINUOUS
 62
    7
 10
257.96801216495783
 20
147.29542107598184
 11
257.96801216495783
 21
138.6129550059818
  0
LINE
  8
_0-0_
  6
CONTINUOUS
 62
    7
 10
256.94446647495784
 20
142.42702244098183
 11
256.94446647495784
 21
138.6129550059818
  0
LINE
  8
_0-0_
  6
CONTINUOUS
 62
    7
 10
254.89788198495785
 20
146.79929443098183
 11
254.89788198495785
 21
138.6129550059818
  0
LINE
  8
_0-0_
  6
CONTINUOUS
 62
    7
 10
244.60287869495784
 20
147.29542107598184
 11
244.60287869495784
 21
138.6129550059818
  0
LINE
  8
_0-0_
  6
CONTINUOUS
 62
    7
 10
255.73518954995785
 20
147.72997230598185
 11
257.96801216495783
 21
145.49715115598178
  0
LINE
  8
_0-0_
  6
CONTINUOUS
 62
    7
 10
254.52591408995784
 20
146.0240647759818
 11
251.70409994495785
 21
148.84587892098182
  0
LINE
  8
_0-0_
  6
CONTINUOUS
 62
    7
 10
257.96801216495783
 20
142.58247066098181
 11
255.92142620995784
 21
144.62905661598182
  0
LINE
  8
_0-0_
  6
CONTINUOUS
 62
    7
 10
249.06852245995785
 20
148.59806831098183
 11
251.61123359495784
 21
146.0240647759818
  0
LINE
  8
_0-0_
  6
CONTINUOUS
 62
    7
 10
248.69604913995784
 20
146.0240647759818
 11
246.92856619495785
 21
147.79205168098179
  0
LINE
  8
_0-0_
  6
CONTINUOUS
 62
    7
 10
244.60287869495784
 20
147.23384566098184
 11
245.78136864495784
 21
146.0240647759818
  0
LINE
  8
_0-0_
  6
CONTINUOUS
 62
    7
 10
256.94446647495784
 20
142.42702244098183
 11
257.96801216495783
 21
142.42702244098183
  0
LINE
  8
_0-0_
  6
CONTINUOUS
 62
    7
 10
255.39400862995785
 20
124.06983701098181
 11
256.41755285495782
 21
124.65883000598183
  0
LINE
  8
_0-0_
  6
CONTINUOUS
 62
    7
 10
254.24681107995784
 20
123.60449734098182
 11
255.39400862995785
 21
124.06983701098181
  0
LINE
  8
_0-0_
  6
CONTINUOUS
 62
    7
 10
253.09961352995785
 20
123.29460882098181
 11
254.24681107995784
 21
123.60449734098182
  0
LINE
  8
_0-0_
  6
CONTINUOUS
 62
    7
 10
251.89033660495784
 20
123.13966309598186
 11
253.09961352995785
 21
123.29460882098181
  0
LINE
  8
_0-0_
  6
CONTINUOUS
 62
    7
 10
250.68055425495783
 20
123.13966309598186
 11
251.89033660495784
 21
123.13966309598186
  0
LINE
  8
_0-0_
  6
CONTINUOUS
 62
    7
 10
249.47127732995784
 20
123.29460882098181
 11
250.68055425495783
 21
123.13966309598186
  0
LINE
  8
_0-0_
  6
CONTINUOUS
 62
    7
 10
248.29329280495784
 20
123.60449734098182
 11
249.47127732995784
 21
123.29460882098181
  0
LINE
  8
_0-0_
  6
CONTINUOUS
 62
    7
 10
247.17688222995784
 20
124.06983701098181
 11
248.29329280495784
 21
123.60449734098182
  0
LINE
  8
_0-0_
  6
CONTINUOUS
 62
    7
 10
246.12255102995783
 20
124.65883000598183
 11
247.17688222995784
 21
124.06983701098181
  0
LINE
  8
_0-0_
  6
CONTINUOUS
 62
    7
 10
247.17688222995784
 20
147.91570500598181
 11
246.12255102995783
 21
147.29542107598184
  0
LINE
  8
_0-0_
  6
CONTINUOUS
 62
    7
 10
248.29329280495784
 20
148.38104467598185
 11
247.17688222995784
 21
147.91570500598181
  0
LINE
  8
_0-0_
  6
CONTINUOUS
 62
    7
 10
249.47127732995784
 20
148.69093466098181
 11
248.29329280495784
 21
148.38104467598185
  0
LINE
  8
_0-0_
  6
CONTINUOUS
 62
    7
 10
254.24681107995784
 20
148.38104467598185
 11
253.09961352995785
 21
148.69093466098181
  0
LINE
  8
_0-0_
  6
CONTINUOUS
 62
    7
 10
255.39400862995785
 20
147.91570500598181
 11
254.24681107995784
 21
148.38104467598185
  0
LINE
  8
_0-0_
  6
CONTINUOUS
 62
    7
 10
256.41755285495782
 20
147.29542107598184
 11
255.39400862995785
 21
147.91570500598181
  0
LINE
  8
_0-0_
  6
CONTINUOUS
 62
    7
 10
257.96801216495783
 20
136.03945689598186
 11
257.96801216495783
 21
124.65883000598183
  0
LINE
  8
_0-0_
  6
CONTINUOUS
 62
    7
 10
255.92142620995784
 20
138.6129550059818
 11
255.92142620995784
 21
146.0240647759818
  0
LINE
  8
_0-0_
  6
CONTINUOUS
 62
    7
 10
256.94446647495784
 20
142.42702244098183
 11
255.92142620995784
 21
143.4505666659818
  0
LINE
  8
_0-0_
  6
CONTINUOUS
 62
    7
 10
255.92142620995784
 20
146.0240647759818
 11
244.60287869495784
 21
146.0240647759818
  0
LINE
  8
_0-0_
  6
CONTINUOUS
 62
    7
 10
244.60287869495784
 20
146.79929443098183
 11
254.89788198495785
 21
146.79929443098183
  0
LINE
  8
_0-0_
  6
CONTINUOUS
 62
    7
 10
256.41755285495782
 20
124.65883000598183
 11
257.96801216495783
 21
124.65883000598183
  0
LINE
  8
_0-0_
  6
CONTINUOUS
 62
    7
 10
256.41755285495782
 20
147.29542107598184
 11
257.96801216495783
 21
147.29542107598184
  0
LINE
  8
_0-0_
  6
CONTINUOUS
 62
    7
 10
244.60287869495784
 20
124.65883000598183
 11
246.12255102995783
 21
124.65883000598183
  0
LINE
  8
_0-0_
  6
CONTINUOUS
 62
    7
 10
244.60287869495784
 20
136.03945689598186
 11
244.60287869495784
 21
124.65883000598183
  0
LINE
  8
_0-0_
  6
CONTINUOUS
 62
    7
 10
246.12255102995783
 20
147.29542107598184
 11
244.60287869495784
 21
147.29542107598184
  0
LINE
  8
_0-0_
  6
CONTINUOUS
 62
    7
 10
431.52622667995786
 20
139.14037258598182
 11
432.58055787995784
 21
140.16341285098179
  0
LINE
  8
_0-0_
  6
CONTINUOUS
 62
    7
 10
435.49549035495784
 20
140.16341285098179
 11
433.9450325099578
 21
138.6129550059818
  0
LINE
  8
_0-0_
  6
CONTINUOUS
 62
    7
 10
480.89282977995782
 20
136.0394568959818
 11
482.97045468995782
 21
138.1168283609818
  0
LINE
  8
_0-0_
  6
CONTINUOUS
 62
    7
 10
482.66031272495781
 20
140.72161887098179
 11
477.97789730495776
 21
136.0394568959818
  0
LINE
  8
_0-0_
  6
CONTINUOUS
 62
    7
 10
475.06246086995782
 20
136.0394568959818
 11
482.1016027449578
 21
143.07859730598182
  0
LINE
  8
_0-0_
  6
CONTINUOUS
 62
    7
 10
480.27254584995785
 20
144.16371694598178
 11
472.14778037495779
 21
136.0394568959818
  0
LINE
  8
_0-0_
  6
CONTINUOUS
 62
    7
 10
469.23284789995779
 20
136.0394568959818
 11
477.35786535495777
 21
144.16371694598178
  0
LINE
  8
_0-0_
  6
CONTINUOUS
 62
    7
 10
474.44293287995782
 20
144.16371694598178
 11
466.31842084995776
 21
136.0394568959818
  0
LINE
  8
_0-0_
  6
CONTINUOUS
 62
    7
 10
463.40374035495785
 20
136.0394568959818
 11
471.3420171899578
 21
143.9466933109818
  0
LINE
  8
_0-0_
  6
CONTINUOUS
 62
    7
 10
467.9309580699578
 20
143.48135364098175
 11
460.48880787995785
 21
136.0394568959818
  0
LINE
  8
_0-0_
  6
CONTINUOUS
 62
    7
 10
457.60441039995777
 20
136.0394568959818
 11
464.55093936995786
 21
143.01651939598173
  0
LINE
  8
_0-0_
  6
CONTINUOUS
 62
    7
 10
461.17041524495784
 20
142.52039275098178
 11
454.90650302495783
 21
136.28726750598179
  0
LINE
  8
_0-0_
  6
CONTINUOUS
 62
    7
 10
453.29472174495783
 20
137.58991474098178
 11
457.76011352995783
 21
142.05505308098179
  0
LINE
  8
_0-0_
  6
CONTINUOUS
 62
    7
 10
454.37958940495781
 20
141.59021883598177
 11
450.41082968995784
 21
137.58991474098178
  0
LINE
  8
_0-0_
  6
CONTINUOUS
 62
    7
 10
447.49589721495784
 20
137.58991474098178
 11
451.00007466495788
 21
141.0935867659818
  0
LINE
  8
_0-0_
  6
CONTINUOUS
 62
    7
 10
447.62005449995786
 20
140.62875252098178
 11
444.58121671995781
 21
137.58991474098178
  0
LINE
  8
_0-0_
  6
CONTINUOUS
 62
    7
 10
441.66628424495786
 20
137.58991474098178
 11
444.23953037495784
 21
140.16341285098179
  0
LINE
  8
_0-0_
  6
CONTINUOUS
 62
    7
 10
441.32459789995784
 20
140.16341285098179
 11
439.55762037995783
 21
138.42722230598179
  0
LINE
  8
_0-0_
  6
CONTINUOUS
 62
    7
 10
436.85971300495783
 20
138.6129550059818
 11
438.41017084995786
 21
140.16341285098179
  0
LINE
  8
_0-0_
  6
CONTINUOUS
 62
    7
 10
482.66031272495781
 20
140.72161887098179
 11
482.28783940495782
 21
142.5511797259818
  0
LINE
  8
_0-0_
  6
CONTINUOUS
 62
    7
 10
482.87683093495781
 20
138.86127104098176
 11
482.66031272495781
 21
140.72161887098179
  0
LINE
  8
_0-0_
  6
CONTINUOUS
 62
    7
 10
483.0009896849578
 20
137.00041778598177
 11
482.87683093495781
 21
138.86127104098176
  0
LINE
  8
_0-0_
  6
CONTINUOUS
 62
    7
 10
483.0009896849578
 20
135.10928298098179
 11
483.0009896849578
 21
137.00041778598177
  0
LINE
  8
_0-0_
  6
CONTINUOUS
 62
    7
 10
482.87683093495781
 20
133.24842972598179
 11
483.0009896849578
 21
135.10928298098179
  0
LINE
  8
_0-0_
  6
CONTINUOUS
 62
    7
 10
482.66031272495781
 20
131.38808189598177
 11
482.87683093495781
 21
133.24842972598179
  0
LINE
  8
_0-0_
  6
CONTINUOUS
 62
    7
 10
482.28783940495782
 20
129.52722864098178
 11
482.66031272495781
 21
131.38808189598177
  0
LINE
  8
_0-0_
  6
CONTINUOUS
 62
    7
 10
483.03253259995779
 20
136.0394568959818
 11
431.52622667995786
 21
136.0394568959818
  0
LINE
  8
_0-0_
  6
CONTINUOUS
 62
    7
 10
482.1016027449578
 20
129.03110199598177
 11
482.28783940495782
 21
129.52722864098178
  0
LINE
  8
_0-0_
  6
CONTINUOUS
 62
    7
 10
481.76117776495778
 20
128.56626775098175
 11
482.1016027449578
 21
129.03110199598177
  0
LINE
  8
_0-0_
  6
CONTINUOUS
 62
    7
 10
481.32637308995783
 20
128.22508536598178
 11
481.76117776495778
 21
128.56626775098175
  0
LINE
  8
_0-0_
  6
CONTINUOUS
 62
    7
 10
480.83075186995785
 20
128.00806173098181
 11
481.32637308995783
 21
128.22508536598178
  0
LINE
  8
_0-0_
  6
CONTINUOUS
 62
    7
 10
480.27254584995785
 20
127.94598382098178
 11
480.83075186995785
 21
128.00806173098181
  0
LINE
  8
_0-0_
  6
CONTINUOUS
 62
    7
 10
480.95490915495782
 20
129.99256831098182
 11
480.95490915495782
 21
136.0394568959818
  0
LINE
  8
_0-0_
  6
CONTINUOUS
 62
    7
 10
472.73677336995786
 20
136.0394568959818
 11
472.73677336995786
 21
127.94598382098178
  0
LINE
  8
_0-0_
  6
CONTINUOUS
 62
    7
 10
444.33290068495785
 20
131.91499551598179
 11
444.33290068495785
 21
136.0394568959818
  0
LINE
  8
_0-0_
  6
CONTINUOUS
 62
    7
 10
432.05339227995779
 20
131.91499551598179
 11
431.52622667995786
 21
132.44241309598181
  0
LINE
  8
_0-0_
  6
CONTINUOUS
 62
    7
 10
444.33290068495785
 20
131.91499551598179
 11
432.05339227995779
 21
131.91499551598179
  0
LINE
  8
_0-0_
  6
CONTINUOUS
 62
    7
 10
431.52622667995786
 20
136.0394568959818
 11
431.52622667995786
 21
132.44241309598181
  0
LINE
  8
_0-0_
  6
CONTINUOUS
 62
    7
 10
472.73677336995786
 20
127.94598382098178
 11
480.27254584995785
 21
127.94598382098178
  0
LINE
  8
_0-0_
  6
CONTINUOUS
 62
    7
 10
444.33290068495785
 20
131.91499551598179
 11
472.73677336995786
 21
127.94598382098178
  0
LINE
  8
_0-0_
  6
CONTINUOUS
 62
    7
 10
482.1016027449578
 20
143.07859730598182
 11
482.28783940495782
 21
142.5511797259818
  0
LINE
  8
_0-0_
  6
CONTINUOUS
 62
    7
 10
481.76117776495778
 20
143.51264604098179
 11
482.1016027449578
 21
143.07859730598182
  0
LINE
  8
_0-0_
  6
CONTINUOUS
 62
    7
 10
481.32637308995783
 20
143.85382696098179
 11
481.76117776495778
 21
143.51264604098179
  0
LINE
  8
_0-0_
  6
CONTINUOUS
 62
    7
 10
480.83075186995785
 20
144.07085059598177
 11
481.32637308995783
 21
143.85382696098179
  0
LINE
  8
_0-0_
  6
CONTINUOUS
 62
    7
 10
480.27254584995785
 20
144.16371694598178
 11
480.83075186995785
 21
144.07085059598177
  0
LINE
  8
_0-0_
  6
CONTINUOUS
 62
    7
 10
483.03253259995779
 20
136.0394568959818
 11
485.0791185549578
 21
136.0394568959818
  0
LINE
  8
_0-0_
  6
CONTINUOUS
 62
    7
 10
432.05339227995779
 20
140.16341285098179
 11
431.52622667995786
 21
139.66728620598178
  0
LINE
  8
_0-0_
  6
CONTINUOUS
 62
    7
 10
431.52622667995786
 20
139.66728620598178
 11
431.52622667995786
 21
138.6129550059818
  0
LINE
  8
_0-0_
  6
CONTINUOUS
 62
    7
 10
454.37958940495781
 20
137.58991474098178
 11
454.37958940495781
 21
136.0394568959818
  0
LINE
  8
_0-0_
  6
CONTINUOUS
 62
    7
 10
453.17056445995786
 20
138.6129550059818
 11
453.17056445995786
 21
136.0394568959818
  0
LINE
  8
_0-0_
  6
CONTINUOUS
 62
    7
 10
454.37958940495781
 20
137.58991474098178
 11
455.0306603099578
 21
136.0394568959818
  0
LINE
  8
_0-0_
  6
CONTINUOUS
 62
    7
 10
472.73677336995786
 20
144.16371694598178
 11
480.27254584995785
 21
144.16371694598178
  0
LINE
  8
_0-0_
  6
CONTINUOUS
 62
    7
 10
444.33290068495785
 20
140.16341285098179
 11
472.73677336995786
 21
144.16371694598178
  0
LINE
  8
_0-0_
  6
CONTINUOUS
 62
    7
 10
453.17056445995786
 20
138.6129550059818
 11
439.37163716495786
 21
138.6129550059818
  0
LINE
  8
_0-0_
  6
CONTINUOUS
 62
    7
 10
454.37958940495781
 20
137.58991474098178
 11
440.39492940995785
 21
137.58991474098178
  0
LINE
  8
_0-0_
  6
CONTINUOUS
 62
    7
 10
444.33290068495785
 20
140.16341285098179
 11
432.05339227995779
 21
140.16341285098179
  0
LINE
  8
_0-0_
  6
CONTINUOUS
 62
    7
 10
201.19004584995784
 20
145.68338781598186
 11
201.19004584995784
 21
138.6129550059818
  0
LINE
  8
_0-0_
  6
CONTINUOUS
 62
    7
 10
200.13571318495786
 20
144.03955966098187
 11
200.13571318495786
 21
138.6129550059818
  0
LINE
  8
_0-0_
  6
CONTINUOUS
 62
    7
 10
194.98821300495786
 20
144.03955966098187
 11
194.98821300495786
 21
138.6129550059818
  0
LINE
  8
_0-0_
  6
CONTINUOUS
 62
    7
 10
186.24366755995786
 20
143.26433000598183
 11
186.24366755995786
 21
138.6129550059818
  0
LINE
  8
_0-0_
  6
CONTINUOUS
 62
    7
 10
184.75528908995784
 20
159.54414250598182
 11
189.06548170495785
 21
163.85433512098183
  0
LINE
  8
_0-0_
  6
CONTINUOUS
 62
    7
 10
191.14335859495787
 20
163.0175329809818
 11
184.75528908995784
 21
156.62946201098183
  0
LINE
  8
_0-0_
  6
CONTINUOUS
 62
    7
 10
192.29055614495786
 20
161.28083701098183
 11
194.43000698495786
 21
163.38950087598181
  0
LINE
  8
_0-0_
  6
CONTINUOUS
 62
    7
 10
184.75528908995784
 20
153.71478298098182
 11
187.66996811995784
 21
156.62946201098183
  0
LINE
  8
_0-0_
  6
CONTINUOUS
 62
    7
 10
187.60788874495785
 20
153.65270360598186
 11
184.75528908995784
 21
150.79959706098182
  0
LINE
  8
_0-0_
  6
CONTINUOUS
 62
    7
 10
184.75528908995784
 20
147.88491803098179
 11
187.54631479495785
 21
150.70673217598181
  0
LINE
  8
_0-0_
  6
CONTINUOUS
 62
    7
 10
187.91828415495783
 20
148.13272864098184
 11
184.75528908995784
 21
144.96973357598188
  0
LINE
  8
_0-0_
  6
CONTINUOUS
 62
    7
 10
198.36823170495785
 20
144.03955966098187
 11
200.60105285495786
 21
146.27238081098182
  0
LINE
  8
_0-0_
  6
CONTINUOUS
 62
    7
 10
194.98821300495786
 20
143.57472395098182
 11
194.67832301995784
 21
143.26433000598183
  0
LINE
  8
_0-0_
  6
CONTINUOUS
 62
    7
 10
198.18250046995786
 20
146.73772048098186
 11
195.45355120995785
 21
144.03955966098187
  0
LINE
  8
_0-0_
  6
CONTINUOUS
 62
    7
 10
191.76313856495784
 20
143.26433000598183
 11
195.29860694995784
 21
146.79929443098183
  0
LINE
  8
_0-0_
  6
CONTINUOUS
 62
    7
 10
192.44550186995787
 20
146.86137234098186
 11
188.84845806995784
 21
143.26433000598183
  0
LINE
  8
_0-0_
  6
CONTINUOUS
 62
    7
 10
185.93377757495784
 20
143.26433000598183
 11
189.62368772495785
 21
146.95474411598184
  0
LINE
  8
_0-0_
  6
CONTINUOUS
 62
    7
 10
201.19004584995784
 20
145.06310388598183
 11
201.19004584995784
 21
145.68338781598186
  0
LINE
  8
_0-0_
  6
CONTINUOUS
 62
    7
 10
201.19004584995784
 20
133.46545336098183
 11
201.19004584995784
 21
126.39552451098183
  0
LINE
  8
_0-0_
  6
CONTINUOUS
 62
    7
 10
194.98821300495786
 20
133.46545336098183
 11
194.98821300495783
 21
128.07014110598186
  0
LINE
  8
_0-0_
  6
CONTINUOUS
 62
    7
 10
164.63011675495784
 20
143.26433000598183
 11
194.98821300495786
 21
143.26433000598183
  0
LINE
  8
_0-0_
  6
CONTINUOUS
 62
    7
 10
142.14847140995784
 20
124.19399576098181
 11
164.63011675495784
 21
124.19399576098181
  0
LINE
  8
_0-0_
  6
CONTINUOUS
 62
    7
 10
144.28842620995783
 20
114.42590609098181
 11
184.94152574995786
 21
114.42590609098181
  0
LINE
  8
_0-0_
  6
CONTINUOUS
 62
    7
 10
184.38331972995786
 20
126.27136722598181
 11
183.14275186995783
 21
125.03130332598187
  0
LINE
  8
_0-0_
  6
CONTINUOUS
 62
    7
 10
186.95681783995784
 20
128.84537076098184
 11
184.75528908995784
 21
126.64333512098182
  0
LINE
  8
_0-0_
  6
CONTINUOUS
 62
    7
 10
183.11196342995785
 20
122.08533189598182
 11
189.84071135995785
 21
128.84537076098184
  0
LINE
  8
_0-0_
  6
CONTINUOUS
 62
    7
 10
185.99585694995784
 20
122.05403949598184
 11
183.08067249495784
 21
119.13935900098187
  0
LINE
  8
_0-0_
  6
CONTINUOUS
 62
    7
 10
192.75589581495785
 20
128.84537076098184
 11
189.03469472995783
 21
125.09287727598183
  0
LINE
  8
_0-0_
  6
CONTINUOUS
 62
    7
 10
192.07353250995783
 20
125.21703456098186
 11
194.98821300495783
 21
128.16300745598181
  0
LINE
  8
_0-0_
  6
CONTINUOUS
 62
    7
 10
183.04988551995785
 20
116.22467997098187
 11
185.99585694995784
 21
119.13935900098187
  0
LINE
  8
_0-0_
  6
CONTINUOUS
 62
    7
 10
182.11971160495784
 20
115.29400063098183
 11
182.80156948495784
 21
115.97636393598185
  0
LINE
  8
_0-0_
  6
CONTINUOUS
 62
    7
 10
200.44610859495782
 20
127.75974716098182
 11
198.05834171995784
 21
125.37198028598186
  0
LINE
  8
_0-0_
  6
CONTINUOUS
 62
    7
 10
195.14315726495784
 20
125.37198028598186
 11
197.81002568495785
 21
128.07014110598186
  0
LINE
  8
_0-0_
  6
CONTINUOUS
 62
    7
 10
184.16629609495783
 20
114.42590609098181
 11
185.99585694995784
 21
116.22467997098187
  0
LINE
  8
_0-0_
  6
CONTINUOUS
 62
    7
 10
200.13571318495786
 20
133.46545336098183
 11
200.13571318495784
 21
128.07014110598186
  0
LINE
  8
_0-0_
  6
CONTINUOUS
 62
    7
 10
200.13571318495784
 20
128.07014110598186
 11
201.19004584995784
 21
127.04659688098184
  0
LINE
  8
_0-0_
  6
CONTINUOUS
 62
    7
 10
200.13571318495786
 20
144.03955966098187
 11
201.19004584995784
 21
145.06310388598183
  0
LINE
  8
_0-0_
  6
CONTINUOUS
 62
    7
 10
144.28842620995783
 20
114.42590609098181
 11
144.28842620995786
 21
124.19399576098181
  0
LINE
  8
_0-0_
  6
CONTINUOUS
 62
    7
 10
186.24366755995786
 20
133.46545336098183
 11
186.24366755995786
 21
128.84537076098184
  0
LINE
  8
_0-0_
  6
CONTINUOUS
 62
    7
 10
194.98821300495783
 20
128.07014110598186
 11
200.13571318495784
 21
128.07014110598186
  0
LINE
  8
_0-0_
  6
CONTINUOUS
 62
    7
 10
164.63011675495784
 20
126.27136722598181
 11
184.75528908995784
 21
126.27136722598181
  0
LINE
  8
_0-0_
  6
CONTINUOUS
 62
    7
 10
184.75528908995784
 20
161.99398729098181
 11
186.61563691995784
 21
163.85433512098183
  0
LINE
  8
_0-0_
  6
CONTINUOUS
 62
    7
 10
184.75528908995784
 20
163.85433512098183
 11
184.75528908995784
 21
126.27136722598181
  0
LINE
  8
_0-0_
  6
CONTINUOUS
 62
    7
 10
186.08872329995785
 20
163.85433512098183
 11
186.08872329995785
 21
143.26433000598183
  0
LINE
  8
_0-0_
  6
CONTINUOUS
 62
    7
 10
184.94152574995786
 20
124.19399576098181
 11
185.99585694995784
 21
124.19399576098181
  0
LINE
  8
_0-0_
  6
CONTINUOUS
 62
    7
 10
184.94152574995786
 20
114.42590609098181
 11
184.94152574995786
 21
124.19399576098181
  0
LINE
  8
_0-0_
  6
CONTINUOUS
 62
    7
 10
193.96517273995784
 20
126.39552451098183
 11
193.96517273995784
 21
125.37198028598186
  0
LINE
  8
_0-0_
  6
CONTINUOUS
 62
    7
 10
201.19004584995784
 20
126.39552451098183
 11
193.96517273995784
 21
126.39552451098183
  0
LINE
  8
_0-0_
  6
CONTINUOUS
 62
    7
 10
193.96517273995784
 20
145.68338781598186
 11
193.96517273995784
 21
146.70642808098182
  0
LINE
  8
_0-0_
  6
CONTINUOUS
 62
    7
 10
201.19004584995784
 20
145.68338781598186
 11
193.96517273995784
 21
145.68338781598186
  0
LINE
  8
_0-0_
  6
CONTINUOUS
 62
    7
 10
200.13571318495784
 20
125.37198028598186
 11
201.19004584995784
 21
126.39552451098183
  0
LINE
  8
_0-0_
  6
CONTINUOUS
 62
    7
 10
200.13571318495786
 20
146.70642808098182
 11
201.19004584995784
 21
145.68338781598186
  0
LINE
  8
_0-0_
  6
CONTINUOUS
 62
    7
 10
193.96517273995784
 20
125.24832696098184
 11
193.96517273995784
 21
125.37198028598186
  0
LINE
  8
_0-0_
  6
CONTINUOUS
 62
    7
 10
200.13571318495784
 20
125.37198028598186
 11
193.96517273995784
 21
125.37198028598186
  0
LINE
  8
_0-0_
  6
CONTINUOUS
 62
    7
 10
200.13571318495786
 20
146.70642808098182
 11
190.05773499495785
 21
146.92345171598186
  0
LINE
  8
_0-0_
  6
CONTINUOUS
 62
    7
 10
133.21819472995787
 20
163.85433512098186
 11
133.21819472995787
 21
162.67635059598183
  0
LINE
  8
_0-0_
  6
CONTINUOUS
 62
    7
 10
143.26488198495784
 20
115.44945031598184
 11
144.28842620995783
 21
114.42590609098181
  0
LINE
  8
_0-0_
  6
CONTINUOUS
 62
    7
 10
143.26488198495784
 20
124.19399576098181
 11
143.26488198495784
 21
115.44945031598184
  0
LINE
  8
_0-0_
  6
CONTINUOUS
 62
    7
 10
141.55947841495785
 20
158.42773193098182
 11
142.14847140995784
 21
124.19399576098181
  0
LINE
  8
_0-0_
  6
CONTINUOUS
 62
    7
 10
139.91615421995786
 20
160.78471036598185
 11
139.32665726495784
 21
160.93965609098183
  0
LINE
  8
_0-0_
  6
CONTINUOUS
 62
    7
 10
140.44306783995785
 20
160.50560882098182
 11
139.91615421995786
 21
160.78471036598185
  0
LINE
  8
_0-0_
  6
CONTINUOUS
 62
    7
 10
140.90840750995784
 20
160.10234706098186
 11
140.44306783995785
 21
160.50560882098182
  0
LINE
  8
_0-0_
  6
CONTINUOUS
 62
    7
 10
141.24958842995787
 20
159.57543344098184
 11
140.90840750995784
 21
160.10234706098186
  0
LINE
  8
_0-0_
  6
CONTINUOUS
 62
    7
 10
141.46661352995787
 20
159.01722888598181
 11
141.24958842995787
 21
159.57543344098184
  0
LINE
  8
_0-0_
  6
CONTINUOUS
 62
    7
 10
141.55947841495785
 20
158.42773193098182
 11
141.46661352995787
 21
159.01722888598181
  0
LINE
  8
_0-0_
  6
CONTINUOUS
 62
    7
 10
133.74510834995786
 20
161.77696365598183
 11
134.08628926995783
 21
161.65280637098186
  0
LINE
  8
_0-0_
  6
CONTINUOUS
 62
    7
 10
133.46600533995786
 20
162.02477426598182
 11
133.74510834995786
 21
161.77696365598183
  0
LINE
  8
_0-0_
  6
CONTINUOUS
 62
    7
 10
133.28027410495787
 20
162.33516967598183
 11
133.46600533995786
 21
162.02477426598182
  0
LINE
  8
_0-0_
  6
CONTINUOUS
 62
    7
 10
133.21819472995787
 20
162.67635059598183
 11
133.28027410495787
 21
162.33516967598183
  0
LINE
  8
_0-0_
  6
CONTINUOUS
 62
    7
 10
139.32665726495784
 20
160.93965609098183
 11
134.08628926995783
 21
161.65280637098186
  0
LINE
  8
_0-0_
  6
CONTINUOUS
 62
    7
 10
164.63011675495784
 20
163.85433512098183
 11
133.21819472995787
 21
163.85433512098186
  0
LINE
  8
_0-0_
  6
CONTINUOUS
 62
    7
 10
182.11971160495784
 20
115.97636393598185
 11
182.11971160495784
 21
114.42590609098181
  0
LINE
  8
_0-0_
  6
CONTINUOUS
 62
    7
 10
164.63011675495784
 20
115.97636393598185
 11
183.04988551995785
 21
115.97636393598185
  0
LINE
  8
_0-0_
  6
CONTINUOUS
 62
    7
 10
183.14275186995783
 20
126.27136722598181
 11
183.04988551995785
 21
115.97636393598185
  0
LINE
  8
_0-0_
  6
CONTINUOUS
 62
    7
 10
185.99585694995784
 20
115.44945031598184
 11
184.94152574995786
 21
114.42590609098181
  0
LINE
  8
_0-0_
  6
CONTINUOUS
 62
    7
 10
185.99585694995784
 20
124.19399576098181
 11
185.99585694995784
 21
115.44945031598184
  0
LINE
  8
_0-0_
  6
CONTINUOUS
 62
    7
 10
194.43000698495786
 20
163.38950087598181
 11
195.26731454995786
 21
163.85433512098183
  0
LINE
  8
_0-0_
  6
CONTINUOUS
 62
    7
 10
193.56191244495787
 20
163.11039786598184
 11
194.43000698495786
 21
163.38950087598181
  0
LINE
  8
_0-0_
  6
CONTINUOUS
 62
    7
 10
192.63173852995783
 20
162.95545360598183
 11
193.56191244495787
 21
163.11039786598184
  0
LINE
  8
_0-0_
  6
CONTINUOUS
 62
    7
 10
191.70156314995785
 20
162.95545360598183
 11
192.63173852995783
 21
162.95545360598183
  0
LINE
  8
_0-0_
  6
CONTINUOUS
 62
    7
 10
190.77088527495783
 20
163.11039786598184
 11
191.70156314995785
 21
162.95545360598183
  0
LINE
  8
_0-0_
  6
CONTINUOUS
 62
    7
 10
189.87200229495784
 20
163.38950087598181
 11
190.77088527495783
 21
163.11039786598184
  0
LINE
  8
_0-0_
  6
CONTINUOUS
 62
    7
 10
189.06548170495785
 20
163.85433512098183
 11
189.87200229495784
 21
163.38950087598181
  0
LINE
  8
_0-0_
  6
CONTINUOUS
 62
    7
 10
195.94967785495786
 20
162.33516967598183
 11
196.01175722995785
 21
162.67635059598183
  0
LINE
  8
_0-0_
  6
CONTINUOUS
 62
    7
 10
195.76344119495784
 20
162.02477426598182
 11
195.94967785495786
 21
162.33516967598183
  0
LINE
  8
_0-0_
  6
CONTINUOUS
 62
    7
 10
195.48433818495786
 20
161.77696365598183
 11
195.76344119495784
 21
162.02477426598182
  0
LINE
  8
_0-0_
  6
CONTINUOUS
 62
    7
 10
195.14315726495784
 20
161.65280637098186
 11
195.48433818495786
 21
161.77696365598183
  0
LINE
  8
_0-0_
  6
CONTINUOUS
 62
    7
 10
184.75528908995784
 20
163.85433512098183
 11
196.01175722995785
 21
163.85433512098183
  0
LINE
  8
_0-0_
  6
CONTINUOUS
 62
    7
 10
188.01115050495787
 20
124.59675063098183
 11
187.60788874495785
 21
124.19399576098181
  0
LINE
  8
_0-0_
  6
CONTINUOUS
 62
    7
 10
188.50727568495785
 20
124.90714604098184
 11
188.01115050495787
 21
124.59675063098183
  0
LINE
  8
_0-0_
  6
CONTINUOUS
 62
    7
 10
189.03469472995783
 20
125.09287727598183
 11
188.50727568495785
 21
124.90714604098184
  0
LINE
  8
_0-0_
  6
CONTINUOUS
 62
    7
 10
189.59290074995783
 20
125.18624758598185
 11
189.03469472995783
 21
125.09287727598183
  0
LINE
  8
_0-0_
  6
CONTINUOUS
 62
    7
 10
189.59290074995783
 20
125.18624758598185
 11
200.13571318495784
 21
125.37198028598186
  0
LINE
  8
_0-0_
  6
CONTINUOUS
 62
    7
 10
189.49952897495785
 20
146.98553109098185
 11
190.05773499495785
 21
146.92345171598186
  0
LINE
  8
_0-0_
  6
CONTINUOUS
 62
    7
 10
188.94132441995785
 20
147.17176775098187
 11
189.49952897495785
 21
146.98553109098185
  0
LINE
  8
_0-0_
  6
CONTINUOUS
 62
    7
 10
188.47648870995783
 20
147.51294867098187
 11
188.94132441995785
 21
147.17176775098187
  0
LINE
  8
_0-0_
  6
CONTINUOUS
 62
    7
 10
188.07322841495784
 20
147.91570500598181
 11
188.47648870995783
 21
147.51294867098187
  0
LINE
  8
_0-0_
  6
CONTINUOUS
 62
    7
 10
187.76333842995786
 20
148.41183165098181
 11
188.07322841495784
 21
147.91570500598181
  0
LINE
  8
_0-0_
  6
CONTINUOUS
 62
    7
 10
187.57710176995784
 20
148.93924923098183
 11
187.76333842995786
 21
148.41183165098181
  0
LINE
  8
_0-0_
  6
CONTINUOUS
 62
    7
 10
187.54631479495785
 20
149.52824222598184
 11
187.57710176995784
 21
148.93924923098183
  0
LINE
  8
_0-0_
  6
CONTINUOUS
 62
    7
 10
164.63011675495784
 20
107.63508025098184
 11
164.63011675495784
 21
106.17748729098184
  0
LINE
  8
_0-0_
  6
CONTINUOUS
 62
    7
 10
164.63011675495784
 20
119.35638410098181
 11
164.63011675495784
 21
109.12345872098183
  0
LINE
  8
_0-0_
  6
CONTINUOUS
 62
    7
 10
164.63011675495784
 20
122.30235553098186
 11
164.63011675495784
 21
120.84476257098186
  0
LINE
  8
_0-0_
  6
CONTINUOUS
 62
    7
 10
164.63011675495784
 20
134.02365938098183
 11
164.63011675495784
 21
123.79073400098184
  0
LINE
  8
_0-0_
  6
CONTINUOUS
 62
    7
 10
164.63011675495784
 20
136.96963081098181
 11
164.63011675495784
 21
135.51203785098181
  0
LINE
  8
_0-0_
  6
CONTINUOUS
 62
    7
 10
164.63011675495784
 20
148.69093466098184
 11
164.63011675495784
 21
138.45800928098186
  0
LINE
  8
_0-0_
  6
CONTINUOUS
 62
    7
 10
164.63011675495784
 20
151.63690609098185
 11
164.63011675495784
 21
150.17931313098182
  0
LINE
  8
_0-0_
  6
CONTINUOUS
 62
    7
 10
164.63011675495784
 20
163.35820994098185
 11
164.63011675495784
 21
153.12528456098181
  0
LINE
  8
_0-0_
  6
CONTINUOUS
 62
    7
 10
164.63011675495784
 20
166.30418137098184
 11
164.63011675495784
 21
164.84709383598184
  0
LINE
  8
_0-0_
  6
CONTINUOUS
 62
    7
 10
164.63011675495784
 20
178.02598918098187
 11
164.63011675495784
 21
167.79255984098185
  0
LINE
  8
_0-0_
  6
CONTINUOUS
 62
    7
 10
164.63011675495784
 20
180.97145665098185
 11
164.63011675495784
 21
179.51436911598182
  0
LINE
  8
_0-0_
  6
CONTINUOUS
 62
    7
 10
164.63011675495784
 20
192.69326446098185
 11
164.63011675495784
 21
182.45983512098184
  0
LINE
  8
_0-0_
  6
CONTINUOUS
 62
    7
 10
164.63011675495784
 20
195.63873193098183
 11
164.63011675495784
 21
194.18164439598183
  0
LINE
  8
_0-0_
  6
CONTINUOUS
 62
    7
 10
164.63011675495784
 20
207.36053974098184
 11
164.63011675495784
 21
197.12761582598185
  0
LINE
  8
_0-0_
  6
CONTINUOUS
 62
    7
 10
164.63011675495784
 20
210.30651117098182
 11
164.63011675495784
 21
208.84891967598185
  0
LINE
  8
_0-0_
  6
CONTINUOUS
 62
    7
 10
164.63011675495784
 20
222.02781502098185
 11
164.63011675495784
 21
211.79489110598183
  0
LINE
  8
_0-0_
  6
CONTINUOUS
 62
    7
 10
143.26488198495784
 20
115.44945031598184
 11
164.63011675495784
 21
115.44945031598184
  0
LINE
  8
_0-0_
  6
CONTINUOUS
 62
    7
 10
141.55947841495785
 20
158.42773193098182
 11
164.63011675495784
 21
158.42773193098182
  0
LINE
  8
_0-0_
  6
CONTINUOUS
 62
    7
 10
133.74510834995786
 20
161.77696365598183
 11
164.63011675495784
 21
161.77696365598183
  0
LINE
  8
_0-0_
  6
CONTINUOUS
 62
    7
 10
189.90278926995785
 20
160.93965609098183
 11
195.14315726495784
 21
161.65280637098186
  0
LINE
  8
_0-0_
  6
CONTINUOUS
 62
    7
 10
187.76333842995786
 20
159.01722888598181
 11
187.70126051995786
 21
158.42773193098182
  0
LINE
  8
_0-0_
  6
CONTINUOUS
 62
    7
 10
187.98036352995786
 20
159.57543344098184
 11
187.76333842995786
 21
159.01722888598181
  0
LINE
  8
_0-0_
  6
CONTINUOUS
 62
    7
 10
188.32154444995786
 20
160.10234706098186
 11
187.98036352995786
 21
159.57543344098184
  0
LINE
  8
_0-0_
  6
CONTINUOUS
 62
    7
 10
188.78637869495785
 20
160.50560882098182
 11
188.32154444995786
 21
160.10234706098186
  0
LINE
  8
_0-0_
  6
CONTINUOUS
 62
    7
 10
189.31379773995786
 20
160.78471036598185
 11
188.78637869495785
 21
160.50560882098182
  0
LINE
  8
_0-0_
  6
CONTINUOUS
 62
    7
 10
189.90278926995785
 20
160.93965609098183
 11
189.31379773995786
 21
160.78471036598185
  0
LINE
  8
_0-0_
  6
CONTINUOUS
 62
    7
 10
187.70126051995786
 20
158.42773193098182
 11
187.54631479495785
 21
149.52824222598184
  0
LINE
  8
_0-0_
  6
CONTINUOUS
 62
    7
 10
184.75528908995784
 20
128.84537076098184
 11
194.98821300495786
 21
128.84537076098184
  0
LINE
  8
_0-0_
  6
CONTINUOUS
 62
    7
 10
194.98821300495786
 20
144.03955966098187
 11
200.13571318495786
 21
144.03955966098187
  0
LINE
  8
_0-0_
  6
CONTINUOUS
 62
    7
 10
196.01175722995785
 20
163.85433512098183
 11
196.01175722995785
 21
162.67635059598183
  0
LINE
  8
_0-0_
  6
CONTINUOUS
 62
    7
 10
185.99585694995784
 20
124.19399576098181
 11
187.60788874495785
 21
124.19399576098181
  0
LINE
  8
_0-0_
  6
CONTINUOUS
 62
    7
 10
431.52622667995786
 20
134.5197845609818
 11
430.09916871495784
 21
134.5197845609818
  0
LINE
  8
_0-0_
  6
CONTINUOUS
 62
    7
 10
431.52622667995786
 20
133.46545336098177
 11
257.96801216495783
 21
133.46545336098183
  0
LINE
  8
_0-0_
  6
CONTINUOUS
 62
    7
 10
258.46413880995783
 20
136.03945689598186
 11
257.96801216495783
 21
136.03945689598186
  0
LINE
  8
_0-0_
  6
CONTINUOUS
 62
    7
 10
270.18544119495789
 20
136.03945689598186
 11
259.95251727995787
 21
136.03945689598186
  0
LINE
  8
_0-0_
  6
CONTINUOUS
 62
    7
 10
273.13141408995784
 20
136.03945689598186
 11
271.67382112995784
 21
136.03945689598186
  0
LINE
  8
_0-0_
  6
CONTINUOUS
 62
    7
 10
284.85271647495784
 20
136.0394568959818
 11
274.61979255995783
 21
136.03945689598186
  0
LINE
  8
_0-0_
  6
CONTINUOUS
 62
    7
 10
287.79868936995786
 20
136.0394568959818
 11
286.34109640995786
 21
136.0394568959818
  0
LINE
  8
_0-0_
  6
CONTINUOUS
 62
    7
 10
299.5202451999578
 20
136.0394568959818
 11
289.28706783995784
 21
136.0394568959818
  0
LINE
  8
_0-0_
  6
CONTINUOUS
 62
    7
 10
302.46596318495779
 20
136.0394568959818
 11
301.00862366995784
 21
136.0394568959818
  0
LINE
  8
_0-0_
  6
CONTINUOUS
 62
    7
 10
314.18752047995781
 20
136.0394568959818
 11
303.95459509995783
 21
136.0394568959818
  0
LINE
  8
_0-0_
  6
CONTINUOUS
 62
    7
 10
317.1334919099578
 20
136.0394568959818
 11
315.67589894995785
 21
136.0394568959818
  0
LINE
  8
_0-0_
  6
CONTINUOUS
 62
    7
 10
328.85479575995782
 20
136.0394568959818
 11
318.62187037995784
 21
136.0394568959818
  0
LINE
  8
_0-0_
  6
CONTINUOUS
 62
    7
 10
331.80076718995781
 20
136.0394568959818
 11
330.34342620995778
 21
136.0394568959818
  0
LINE
  8
_0-0_
  6
CONTINUOUS
 62
    7
 10
343.52232301995787
 20
136.0394568959818
 11
333.28864169995785
 21
136.0394568959818
  0
LINE
  8
_0-0_
  6
CONTINUOUS
 62
    7
 10
346.46753704495779
 20
136.0394568959818
 11
345.01019752995785
 21
136.0394568959818
  0
LINE
  8
_0-0_
  6
CONTINUOUS
 62
    7
 10
358.18909287495785
 20
136.0394568959818
 11
347.95591697995781
 21
136.0394568959818
  0
LINE
  8
_0-0_
  6
CONTINUOUS
 62
    7
 10
361.13481232495781
 20
136.0394568959818
 11
359.67747280995786
 21
136.0394568959818
  0
LINE
  8
_0-0_
  6
CONTINUOUS
 62
    7
 10
372.85636815495786
 20
136.0394568959818
 11
362.62394966495776
 21
136.0394568959818
  0
LINE
  8
_0-0_
  6
CONTINUOUS
 62
    7
 10
375.80284500995776
 20
136.0394568959818
 11
374.34474808995787
 21
136.0394568959818
  0
LINE
  8
_0-0_
  6
CONTINUOUS
 62
    7
 10
387.52364343495788
 20
136.0394568959818
 11
377.29122494495778
 21
136.0394568959818
  0
LINE
  8
_0-0_
  6
CONTINUOUS
 62
    7
 10
390.47012028995778
 20
136.0394568959818
 11
389.01202336995777
 21
136.0394568959818
  0
LINE
  8
_0-0_
  6
CONTINUOUS
 62
    7
 10
402.19091871495777
 20
136.0394568959818
 11
391.95850022495779
 21
136.0394568959818
  0
LINE
  8
_0-0_
  6
CONTINUOUS
 62
    7
 10
405.13739556995779
 20
136.0394568959818
 11
403.68005605495779
 21
136.0394568959818
  0
LINE
  8
_0-0_
  6
CONTINUOUS
 62
    7
 10
416.85895139995785
 20
136.0394568959818
 11
406.6257755049578
 21
136.0394568959818
  0
LINE
  8
_0-0_
  6
CONTINUOUS
 62
    7
 10
419.80467084995786
 20
136.0394568959818
 11
418.34733133495786
 21
136.0394568959818
  0
LINE
  8
_0-0_
  6
CONTINUOUS
 62
    7
 10
431.52622667995786
 20
136.0394568959818
 11
421.29330276495784
 21
136.0394568959818
  0
LINE
  8
_0-0_
  6
CONTINUOUS
 62
    7
 10
223.11348663995784
 20
133.46545336098183
 11
215.45456479495783
 21
133.46545336098183
  0
LINE
  8
_0-0_
  6
CONTINUOUS
 62
    7
 10
218.21430102995785
 20
136.03945689598186
 11
216.75670806995785
 21
136.03945689598186
  0
LINE
  8
_0-0_
  6
CONTINUOUS
 62
    7
 10
229.93560341495785
 20
136.03945689598186
 11
219.70267949995784
 21
136.03945689598186
  0
LINE
  8
_0-0_
  6
CONTINUOUS
 62
    7
 10
232.88157630995784
 20
136.03945689598186
 11
231.42398334995784
 21
136.03945689598186
  0
LINE
  8
_0-0_
  6
CONTINUOUS
 62
    7
 10
244.60287869495784
 20
136.03945689598186
 11
234.36995477995785
 21
136.03945689598186
  0
LINE
  8
_0-0_
  6
CONTINUOUS
 62
    7
 10
235.48636535495785
 20
139.76065798098182
 11
235.48636535495785
 21
132.34904278598179
  0
LINE
  8
_0-0_
  6
CONTINUOUS
 62
    7
 10
223.11348663995784
 20
139.76065798098182
 11
223.11348663995784
 21
132.34904278598179
  0
LINE
  8
_0-0_
  6
CONTINUOUS
 62
    7
 10
244.60287869495784
 20
133.46545336098183
 11
235.48636535495785
 21
133.46545336098183
  0
LINE
  8
_0-0_
  6
CONTINUOUS
 62
    7
 10
439.37163716495786
 20
138.6129550059818
 11
235.48636535495785
 21
138.6129550059818
  0
LINE
  8
_0-0_
  6
CONTINUOUS
 62
    7
 10
234.86608142495783
 20
131.48094678098181
 11
235.48636535495785
 21
132.34904278598179
  0
LINE
  8
_0-0_
  6
CONTINUOUS
 62
    7
 10
234.12163874495783
 20
130.7057185909818
 11
234.86608142495783
 21
131.48094678098181
  0
LINE
  8
_0-0_
  6
CONTINUOUS
 62
    7
 10
233.28483660495783
 20
130.05464622098179
 11
234.12163874495783
 21
130.7057185909818
  0
LINE
  8
_0-0_
  6
CONTINUOUS
 62
    7
 10
232.38544966495783
 20
129.52722864098178
 11
233.28483660495783
 21
130.05464622098179
  0
LINE
  8
_0-0_
  6
CONTINUOUS
 62
    7
 10
231.39319637495782
 20
129.15525928098185
 11
232.38544966495783
 21
129.52722864098178
  0
LINE
  8
_0-0_
  6
CONTINUOUS
 62
    7
 10
230.33886370995785
 20
128.90744867098181
 11
231.39319637495782
 21
129.15525928098185
  0
LINE
  8
_0-0_
  6
CONTINUOUS
 62
    7
 10
229.28453250995784
 20
128.84537076098184
 11
230.33886370995785
 21
128.90744867098181
  0
LINE
  8
_0-0_
  6
CONTINUOUS
 62
    7
 10
228.23020130995786
 20
128.90744867098181
 11
229.28453250995784
 21
128.84537076098184
  0
LINE
  8
_0-0_
  6
CONTINUOUS
 62
    7
 10
227.20665561995784
 20
129.15525928098185
 11
228.23020130995786
 21
128.90744867098181
  0
LINE
  8
_0-0_
  6
CONTINUOUS
 62
    7
 10
226.21440232995786
 20
129.52722864098178
 11
227.20665561995784
 21
129.15525928098185
  0
LINE
  8
_0-0_
  6
CONTINUOUS
 62
    7
 10
225.28422841495785
 20
130.05464622098179
 11
226.21440232995786
 21
129.52722864098178
  0
LINE
  8
_0-0_
  6
CONTINUOUS
 62
    7
 10
224.44692084995785
 20
130.7057185909818
 11
225.28422841495785
 21
130.05464622098179
  0
LINE
  8
_0-0_
  6
CONTINUOUS
 62
    7
 10
223.73377056995784
 20
131.48094678098181
 11
224.44692084995785
 21
130.7057185909818
  0
LINE
  8
_0-0_
  6
CONTINUOUS
 62
    7
 10
223.11348663995784
 20
132.34904278598179
 11
223.73377056995784
 21
131.48094678098181
  0
LINE
  8
_0-0_
  6
CONTINUOUS
 62
    7
 10
223.73377056995784
 20
140.62875252098183
 11
223.11348663995784
 21
139.76065798098182
  0
LINE
  8
_0-0_
  6
CONTINUOUS
 62
    7
 10
224.44692084995785
 20
141.40398217598181
 11
223.73377056995784
 21
140.62875252098183
  0
LINE
  8
_0-0_
  6
CONTINUOUS
 62
    7
 10
225.28422841495785
 20
142.05505308098185
 11
224.44692084995785
 21
141.40398217598181
  0
LINE
  8
_0-0_
  6
CONTINUOUS
 62
    7
 10
226.21440232995786
 20
142.5511797259818
 11
225.28422841495785
 21
142.05505308098185
  0
LINE
  8
_0-0_
  6
CONTINUOUS
 62
    7
 10
227.20665561995784
 20
142.95444002098179
 11
226.21440232995786
 21
142.5511797259818
  0
LINE
  8
_0-0_
  6
CONTINUOUS
 62
    7
 10
228.23020130995786
 20
143.17146365598182
 11
227.20665561995784
 21
142.95444002098179
  0
LINE
  8
_0-0_
  6
CONTINUOUS
 62
    7
 10
229.28453250995784
 20
143.26433000598183
 11
228.23020130995786
 21
143.17146365598182
  0
LINE
  8
_0-0_
  6
CONTINUOUS
 62
    7
 10
230.33886370995785
 20
143.17146365598182
 11
229.28453250995784
 21
143.26433000598183
  0
LINE
  8
_0-0_
  6
CONTINUOUS
 62
    7
 10
231.39319637495782
 20
142.95444002098179
 11
230.33886370995785
 21
143.17146365598182
  0
LINE
  8
_0-0_
  6
CONTINUOUS
 62
    7
 10
232.38544966495783
 20
142.5511797259818
 11
231.39319637495782
 21
142.95444002098179
  0
LINE
  8
_0-0_
  6
CONTINUOUS
 62
    7
 10
233.28483660495783
 20
142.05505308098185
 11
232.38544966495783
 21
142.5511797259818
  0
LINE
  8
_0-0_
  6
CONTINUOUS
 62
    7
 10
234.12163874495783
 20
141.40398217598181
 11
233.28483660495783
 21
142.05505308098185
  0
LINE
  8
_0-0_
  6
CONTINUOUS
 62
    7
 10
234.86608142495783
 20
140.62875252098183
 11
234.12163874495783
 21
141.40398217598181
  0
LINE
  8
_0-0_
  6
CONTINUOUS
 62
    7
 10
235.48636535495785
 20
139.76065798098182
 11
234.86608142495783
 21
140.62875252098183
  0
LINE
  8
_0-0_
  6
CONTINUOUS
 62
    7
 10
229.28453250995784
 20
132.69022370598179
 11
229.28453250995784
 21
122.45729979098184
  0
LINE
  8
_0-0_
  6
CONTINUOUS
 62
    7
 10
229.28453250995784
 20
135.63619660098186
 11
229.28453250995784
 21
134.17860364098181
  0
LINE
  8
_0-0_
  6
CONTINUOUS
 62
    7
 10
229.28453250995784
 20
147.35749898598181
 11
229.28453250995784
 21
137.12457507098179
  0
LINE
  8
_0-0_
  6
CONTINUOUS
 62
    7
 10
186.05743089995784
 20
138.6129550059818
 11
186.05743089995784
 21
133.46545336098183
  0
LINE
  8
_0-0_
  6
CONTINUOUS
 62
    7
 10
439.37163716495786
 20
138.6129550059818
 11
439.37163716495786
 21
136.0394568959818
  0
LINE
  8
_0-0_
  6
CONTINUOUS
 62
    7
 10
440.39492940995785
 20
137.58991474098178
 11
430.09916871495784
 21
137.58991474098178
  0
LINE
  8
_0-0_
  6
CONTINUOUS
 62
    7
 10
430.09916871495784
 20
138.6129550059818
 11
430.09916871495784
 21
133.46545336098177
  0
LINE
  8
_0-0_
  6
CONTINUOUS
 62
    7
 10
185.00360365995783
 20
134.48899758598185
 11
186.05743089995784
 21
133.46545336098183
  0
LINE
  8
_0-0_
  6
CONTINUOUS
 62
    7
 10
186.05743089995784
 20
138.6129550059818
 11
185.00360365995783
 21
137.58991474098184
  0
LINE
  8
_0-0_
  6
CONTINUOUS
 62
    7
 10
185.00360365995783
 20
137.58991474098184
 11
185.00360365995783
 21
134.48899758598185
  0
LINE
  8
_0-0_
  6
CONTINUOUS
 62
    7
 10
440.39492940995785
 20
137.58991474098178
 11
439.37163716495786
 21
138.6129550059818
  0
LINE
  8
_0-0_
  6
CONTINUOUS
 62
    7
 10
440.39492940995785
 20
137.58991474098178
 11
440.39492940995785
 21
136.0394568959818
  0
LINE
  8
_0-0_
  6
CONTINUOUS
 62
    7
 10
223.11348663995784
 20
138.6129550059818
 11
186.05743089995784
 21
138.6129550059818
  0
LINE
  8
_0-0_
  6
CONTINUOUS
 62
    7
 10
209.46975558495785
 20
133.46545336098183
 11
186.05743089995784
 21
133.46545336098183
  0
LINE
  8
_0-0_
  6
CONTINUOUS
 62
    7
 10
183.08067249495784
 20
136.03945689598186
 11
181.77852921995785
 21
136.03945689598186
  0
LINE
  8
_0-0_
  6
CONTINUOUS
 62
    7
 10
194.80248030495784
 20
136.03945689598186
 11
184.56905096495785
 21
136.03945689598186
  0
LINE
  8
_0-0_
  6
CONTINUOUS
 62
    7
 10
197.74794777495785
 20
136.03945689598186
 11
196.29086023995785
 21
136.03945689598186
  0
LINE
  8
_0-0_
  6
CONTINUOUS
 62
    7
 10
209.46975558495785
 20
136.03945689598186
 11
199.23632624495784
 21
136.03945689598186
  0
LINE
  8
_0-0_
  6
CONTINUOUS
 62
    7
 10
213.71787028995783
 20
128.84537076098184
 11
213.71787028995783
 21
136.03945689598186
  0
LINE
  8
_0-0_
  6
CONTINUOUS
 62
    7
 10
209.46975558495785
 20
136.03945689598186
 11
215.45456479495783
 21
136.03945689598186
  0
LINE
  8
_0-0_
  6
CONTINUOUS
 62
    7
 10
213.71787028995783
 20
143.97748028598181
 11
209.46975558495785
 21
143.97748028598181
  0
LINE
  8
_0-0_
  6
CONTINUOUS
 62
    7
 10
213.96568089995785
 20
144.07085059598182
 11
213.71787028995783
 21
143.97748028598181
  0
LINE
  8
_0-0_
  6
CONTINUOUS
 62
    7
 10
214.15191755995784
 20
144.25658329598184
 11
213.96568089995785
 21
144.07085059598182
  0
LINE
  8
_0-0_
  6
CONTINUOUS
 62
    7
 10
214.21399693495783
 20
144.50489786598183
 11
214.15191755995784
 21
144.25658329598184
  0
LINE
  8
_0-0_
  6
CONTINUOUS
 62
    7
 10
213.96568089995785
 20
127.94598382098184
 11
213.71787028995783
 21
128.03884870598182
  0
LINE
  8
_0-0_
  6
CONTINUOUS
 62
    7
 10
214.15191755995784
 20
127.75974716098182
 11
213.96568089995785
 21
127.94598382098184
  0
LINE
  8
_0-0_
  6
CONTINUOUS
 62
    7
 10
214.21399693495783
 20
127.5119350859818
 11
214.15191755995784
 21
127.75974716098182
  0
LINE
  8
_0-0_
  6
CONTINUOUS
 62
    7
 10
215.45456479495783
 20
144.47360693098187
 11
214.36894119495784
 21
145.59001750598179
  0
LINE
  8
_0-0_
  6
CONTINUOUS
 62
    7
 10
214.21399693495783
 20
144.2878742309818
 11
215.45456479495783
 21
143.01651939598179
  0
LINE
  8
_0-0_
  6
CONTINUOUS
 62
    7
 10
214.46231296995785
 20
142.58247066098181
 11
213.15966426995783
 21
143.8846139359818
  0
LINE
  8
_0-0_
  6
CONTINUOUS
 62
    7
 10
211.70207277495786
 20
143.8846139359818
 11
213.15966426995783
 21
142.39623400098185
  0
LINE
  8
_0-0_
  6
CONTINUOUS
 62
    7
 10
211.88830943495785
 20
142.24128974098181
 11
210.24498523995783
 21
143.8846139359818
  0
LINE
  8
_0-0_
  6
CONTINUOUS
 62
    7
 10
209.46975558495785
 20
143.17146365598182
 11
210.46200887495786
 21
142.17921036598182
  0
LINE
  8
_0-0_
  6
CONTINUOUS
 62
    7
 10
209.46975558495785
 20
143.10938428098183
 11
210.27577221495784
 21
143.8846139359818
  0
LINE
  8
_0-0_
  6
CONTINUOUS
 62
    7
 10
215.45456479495783
 20
143.26433000598183
 11
214.83428086495786
 21
142.61325910098185
  0
LINE
  8
_0-0_
  6
CONTINUOUS
 62
    7
 10
213.12887729495785
 20
142.39623400098185
 11
215.45456479495783
 21
144.69113452598185
  0
LINE
  8
_0-0_
  6
CONTINUOUS
 62
    7
 10
213.15966426995783
 20
143.8846139359818
 11
211.48454371495785
 21
142.17921036598182
  0
LINE
  8
_0-0_
  6
CONTINUOUS
 62
    7
 10
214.86506783995785
 20
145.59001750598179
 11
214.21399693495783
 21
144.93894660098181
  0
LINE
  8
_0-0_
  6
CONTINUOUS
 62
    7
 10
210.02796160495785
 20
142.17921036598182
 11
211.73336370995784
 21
143.8846139359818
  0
LINE
  8
_0-0_
  6
CONTINUOUS
 62
    7
 10
214.27607630995783
 20
126.48839086098184
 11
214.43102056995784
 21
126.42631148598184
  0
LINE
  8
_0-0_
  6
CONTINUOUS
 62
    7
 10
214.21399693495783
 20
126.64333512098182
 11
214.27607630995783
 21
126.48839086098184
  0
LINE
  8
_0-0_
  6
CONTINUOUS
 62
    7
 10
209.46975558495785
 20
136.03945689598186
 11
209.46975558495785
 21
128.03884870598182
  0
LINE
  8
_0-0_
  6
CONTINUOUS
 62
    7
 10
214.21399693495783
 20
126.64333512098182
 11
214.21399693495783
 21
136.03945689598186
  0
LINE
  8
_0-0_
  6
CONTINUOUS
 62
    7
 10
215.45456479495783
 20
126.42631148598184
 11
214.43102056995784
 21
126.42631148598184
  0
LINE
  8
_0-0_
  6
CONTINUOUS
 62
    7
 10
215.45456479495783
 20
126.42631148598184
 11
215.45456479495783
 21
136.03945689598186
  0
LINE
  8
_0-0_
  6
CONTINUOUS
 62
    7
 10
213.71787028995783
 20
128.03884870598182
 11
209.46975558495785
 21
128.03884870598182
  0
LINE
  8
_0-0_
  6
CONTINUOUS
 62
    7
 10
214.27607630995783
 20
145.52793813098179
 11
214.43102056995784
 21
145.59001750598179
  0
LINE
  8
_0-0_
  6
CONTINUOUS
 62
    7
 10
214.21399693495783
 20
145.37299387098182
 11
214.27607630995783
 21
145.52793813098179
  0
LINE
  8
_0-0_
  6
CONTINUOUS
 62
    7
 10
209.46975558495785
 20
138.6129550059818
 11
209.46975558495785
 21
143.97748028598181
  0
LINE
  8
_0-0_
  6
CONTINUOUS
 62
    7
 10
211.54712704995785
 20
142.17921036598182
 11
215.45456479495783
 21
142.70612398598183
  0
LINE
  8
_0-0_
  6
CONTINUOUS
 62
    7
 10
211.54712704995785
 20
138.6129550059818
 11
211.54712704995785
 21
142.17921036598182
  0
LINE
  8
_0-0_
  6
CONTINUOUS
 62
    7
 10
214.21399693495783
 20
145.37299387098182
 11
214.21399693495783
 21
144.50489786598183
  0
LINE
  8
_0-0_
  6
CONTINUOUS
 62
    7
 10
215.45456479495783
 20
145.59001750598179
 11
214.43102056995784
 21
145.59001750598179
  0
LINE
  8
_0-0_
  6
CONTINUOUS
 62
    7
 10
215.45456479495783
 20
145.59001750598179
 11
215.45456479495783
 21
138.6129550059818
  0
LINE
  8
_0-0_
  6
CONTINUOUS
 62
    7
 10
209.46975558495785
 20
142.17921036598182
 11
211.54712704995785
 21
142.17921036598182
  0
LINE
  8
_0-0_
  6
CONTINUOUS
 62
    7
 10
183.14275186995786
 20
205.12771859098183
 11
183.14275186995786
 21
196.72435553098182
  0
LINE
  8
_0-0_
  6
CONTINUOUS
 62
    7
 10
183.91798005995787
 20
181.28185059598184
 11
185.99585694995784
 21
179.20397370598181
  0
LINE
  8
_0-0_
  6
CONTINUOUS
 62
    7
 10
185.99585694995784
 20
176.28929467598181
 11
183.14275186995786
 21
179.14189579598184
  0
LINE
  8
_0-0_
  6
CONTINUOUS
 62
    7
 10
183.14275186995786
 20
176.22721530098181
 11
185.99585694995784
 21
173.37461418098184
  0
LINE
  8
_0-0_
  6
CONTINUOUS
 62
    7
 10
185.99585694995784
 20
170.45942972598186
 11
183.14275186995786
 21
173.31253480598184
  0
LINE
  8
_0-0_
  6
CONTINUOUS
 62
    7
 10
183.14275186995786
 20
170.39735035098181
 11
185.99585694995784
 21
167.54474923098181
  0
LINE
  8
_0-0_
  6
CONTINUOUS
 62
    7
 10
185.99585694995784
 20
164.66085717598182
 11
183.14275186995786
 21
167.48267132098181
  0
LINE
  8
_0-0_
  6
CONTINUOUS
 62
    7
 10
183.14275186995786
 20
164.56799082598184
 11
184.75528908995784
 21
162.98624058098181
  0
LINE
  8
_0-0_
  6
CONTINUOUS
 62
    7
 10
184.75528908995784
 20
160.07156008598184
 11
183.14275186995786
 21
161.65280637098186
  0
LINE
  8
_0-0_
  6
CONTINUOUS
 62
    7
 10
183.14275186995786
 20
158.73812587598184
 11
184.75528908995784
 21
157.15637563098181
  0
LINE
  8
_0-0_
  6
CONTINUOUS
 62
    7
 10
183.14275186995786
 20
158.42773193098182
 11
164.63011675495784
 21
158.42773193098182
  0
LINE
  8
_0-0_
  6
CONTINUOUS
 62
    7
 10
144.28842620995786
 20
181.28185059598184
 11
144.28842620995786
 21
179.32813245598186
  0
LINE
  8
_0-0_
  6
CONTINUOUS
 62
    7
 10
143.26488198495787
 20
165.80805472598183
 11
143.26488198495787
 21
163.85433512098186
  0
LINE
  8
_0-0_
  6
CONTINUOUS
 62
    7
 10
144.28842620995786
 20
165.80805472598183
 11
144.28842620995786
 21
163.85433512098183
  0
LINE
  8
_0-0_
  6
CONTINUOUS
 62
    7
 10
143.26488198495787
 20
174.18063081098185
 11
143.26488198495787
 21
170.45942972598186
  0
LINE
  8
_0-0_
  6
CONTINUOUS
 62
    7
 10
144.28842620995786
 20
174.18063081098182
 11
144.28842620995786
 21
170.45942972598186
  0
LINE
  8
_0-0_
  6
CONTINUOUS
 62
    7
 10
143.26488198495787
 20
180.25830637098184
 11
143.26488198495787
 21
179.23526610598185
  0
LINE
  8
_0-0_
  6
CONTINUOUS
 62
    7
 10
184.94152574995786
 20
181.28185059598184
 11
184.94152574995786
 21
163.85433512098183
  0
LINE
  8
_0-0_
  6
CONTINUOUS
 62
    7
 10
185.99585694995784
 20
174.18063081098182
 11
185.99585694995784
 21
170.45942972598186
  0
LINE
  8
_0-0_
  6
CONTINUOUS
 62
    7
 10
185.99585694995784
 20
163.85433512098183
 11
185.99585694995784
 21
180.25830637098181
  0
LINE
  8
_0-0_
  6
CONTINUOUS
 62
    7
 10
144.28842620995786
 20
206.98806642098185
 11
164.63011675495784
 21
206.98806642098185
  0
LINE
  8
_0-0_
  6
CONTINUOUS
 62
    7
 10
133.21819472995787
 20
217.84127426598184
 11
164.63011675495784
 21
217.84127426598184
  0
LINE
  8
_0-0_
  6
CONTINUOUS
 62
    7
 10
133.21819472995787
 20
218.36869331098183
 11
164.63011675495784
 21
218.36869331098183
  0
LINE
  8
_0-0_
  6
CONTINUOUS
 62
    7
 10
152.25774199995786
 20
196.72435553098182
 11
144.28842620995786
 21
196.72435553098182
  0
LINE
  8
_0-0_
  6
CONTINUOUS
 62
    7
 10
176.97220995995787
 20
196.72435553098182
 11
184.94152574995786
 21
196.72435553098182
  0
LINE
  8
_0-0_
  6
CONTINUOUS
 62
    7
 10
152.25774199995786
 20
181.28185059598184
 11
144.28842620995786
 21
181.28185059598184
  0
LINE
  8
_0-0_
  6
CONTINUOUS
 62
    7
 10
152.25774199995786
 20
196.72435553098182
 11
152.25774199995786
 21
181.28185059598184
  0
LINE
  8
_0-0_
  6
CONTINUOUS
 62
    7
 10
144.28842620995786
 20
206.98806642098185
 11
144.28842620995786
 21
196.72435553098182
  0
LINE
  8
_0-0_
  6
CONTINUOUS
 62
    7
 10
144.19505589995785
 20
208.10447699598186
 11
144.28842620995786
 21
206.98806642098185
  0
LINE
  8
_0-0_
  6
CONTINUOUS
 62
    7
 10
143.97803226495787
 20
209.19010059598185
 11
144.19505589995785
 21
208.10447699598186
  0
LINE
  8
_0-0_
  6
CONTINUOUS
 62
    7
 10
143.60606436995786
 20
210.24443326098182
 11
143.97803226495787
 21
209.19010059598185
  0
LINE
  8
_0-0_
  6
CONTINUOUS
 62
    7
 10
143.10993772495786
 20
211.23668508598183
 11
143.60606436995786
 21
210.24443326098182
  0
LINE
  8
_0-0_
  6
CONTINUOUS
 62
    7
 10
142.45886535495785
 20
212.13607202598183
 11
143.10993772495786
 21
211.23668508598183
  0
LINE
  8
_0-0_
  6
CONTINUOUS
 62
    7
 10
141.71442413995786
 20
212.97287563098183
 11
142.45886535495785
 21
212.13607202598183
  0
LINE
  8
_0-0_
  6
CONTINUOUS
 62
    7
 10
140.87711510995786
 20
213.68653133598184
 11
141.71442413995786
 21
212.97287563098183
  0
LINE
  8
_0-0_
  6
CONTINUOUS
 62
    7
 10
139.91615421995786
 20
214.27552286598183
 11
140.87711510995786
 21
213.68653133598184
  0
LINE
  8
_0-0_
  6
CONTINUOUS
 62
    7
 10
144.28842620995786
 20
181.28185059598184
 11
143.26488198495787
 21
180.25830637098184
  0
LINE
  8
_0-0_
  6
CONTINUOUS
 62
    7
 10
133.21819472995787
 20
217.84127426598184
 11
139.91615421995786
 21
214.27552286598183
  0
LINE
  8
_0-0_
  6
CONTINUOUS
 62
    7
 10
133.21819472995787
 20
218.36869331098183
 11
133.21819472995787
 21
217.84127426598184
  0
LINE
  8
_0-0_
  6
CONTINUOUS
 62
    7
 10
133.71432137495788
 20
218.86481995598183
 11
164.63011675495784
 21
218.86481995598183
  0
LINE
  8
_0-0_
  6
CONTINUOUS
 62
    7
 10
133.71432137495788
 20
218.86481995598183
 11
133.21819472995787
 21
218.36869331098183
  0
LINE
  8
_0-0_
  6
CONTINUOUS
 62
    7
 10
164.63011675495784
 20
157.09480168098185
 11
184.75528908995784
 21
157.09480168098185
  0
LINE
  8
_0-0_
  6
CONTINUOUS
 62
    7
 10
186.15080120995788
 20
211.26747206098182
 11
184.53826398995784
 21
212.91130168098184
  0
LINE
  8
_0-0_
  6
CONTINUOUS
 62
    7
 10
184.94152574995786
 20
208.10447699598183
 11
183.85590068495787
 21
209.19010059598185
  0
LINE
  8
_0-0_
  6
CONTINUOUS
 62
    7
 10
184.94152574995786
 20
206.98806642098182
 11
184.94152574995786
 21
196.72435553098182
  0
LINE
  8
_0-0_
  6
CONTINUOUS
 62
    7
 10
188.38311839995785
 20
213.68653133598181
 11
189.31379773995786
 21
214.27552286598183
  0
LINE
  8
_0-0_
  6
CONTINUOUS
 62
    7
 10
187.51502385995786
 20
212.97287563098183
 11
188.38311839995785
 21
213.68653133598181
  0
LINE
  8
_0-0_
  6
CONTINUOUS
 62
    7
 10
186.77108660495787
 20
212.13607202598183
 11
187.51502385995786
 21
212.97287563098183
  0
LINE
  8
_0-0_
  6
CONTINUOUS
 62
    7
 10
186.11951027495786
 20
211.23668508598183
 11
186.77108660495787
 21
212.13607202598183
  0
LINE
  8
_0-0_
  6
CONTINUOUS
 62
    7
 10
185.62338362995786
 20
210.24443326098182
 11
186.11951027495786
 21
211.23668508598183
  0
LINE
  8
_0-0_
  6
CONTINUOUS
 62
    7
 10
185.25141426995788
 20
209.19010059598185
 11
185.62338362995786
 21
210.24443326098182
  0
LINE
  8
_0-0_
  6
CONTINUOUS
 62
    7
 10
185.03439063495784
 20
208.10447699598183
 11
185.25141426995788
 21
209.19010059598185
  0
LINE
  8
_0-0_
  6
CONTINUOUS
 62
    7
 10
184.94152574995786
 20
206.98806642098182
 11
185.03439063495784
 21
208.10447699598183
  0
LINE
  8
_0-0_
  6
CONTINUOUS
 62
    7
 10
184.94152574995786
 20
199.35993301598182
 11
183.14275186995786
 21
201.15870689598182
  0
LINE
  8
_0-0_
  6
CONTINUOUS
 62
    7
 10
184.94152574995786
 20
181.28185059598184
 11
185.99585694995784
 21
180.25830637098181
  0
LINE
  8
_0-0_
  6
CONTINUOUS
 62
    7
 10
185.09647000995784
 20
203.57725928098182
 11
183.20482977995786
 21
205.46889951098183
  0
LINE
  8
_0-0_
  6
CONTINUOUS
 62
    7
 10
188.41441079995786
 20
213.37613592598183
 11
185.18933635995788
 21
216.60121036598181
  0
LINE
  8
_0-0_
  6
CONTINUOUS
 62
    7
 10
190.98790890995787
 20
215.17490980598183
 11
188.69351380995784
 21
217.46930637098183
  0
LINE
  8
_0-0_
  6
CONTINUOUS
 62
    7
 10
193.84101398995787
 20
216.69407671598185
 11
192.35263551995786
 21
218.18245665098183
  0
LINE
  8
_0-0_
  6
CONTINUOUS
 62
    7
 10
196.01175722995785
 20
217.84127426598184
 11
189.31379773995786
 21
214.27552286598183
  0
LINE
  8
_0-0_
  6
CONTINUOUS
 62
    7
 10
176.97220995995787
 20
181.28185059598184
 11
184.94152574995786
 21
181.28185059598184
  0
LINE
  8
_0-0_
  6
CONTINUOUS
 62
    7
 10
176.97220995995787
 20
181.28185059598184
 11
176.97220995995787
 21
196.72435553098182
  0
LINE
  8
_0-0_
  6
CONTINUOUS
 62
    7
 10
196.01175722995785
 20
218.36869331098183
 11
196.01175722995785
 21
217.84127426598184
  0
LINE
  8
_0-0_
  6
CONTINUOUS
 62
    7
 10
195.51563058495788
 20
218.86481995598183
 11
164.63011675495784
 21
218.86481995598183
  0
LINE
  8
_0-0_
  6
CONTINUOUS
 62
    7
 10
195.60849693495788
 20
218.80274058098183
 11
185.22062729495786
 21
216.81823400098182
  0
LINE
  8
_0-0_
  6
CONTINUOUS
 62
    7
 10
195.51563058495788
 20
218.86481995598183
 11
196.01175722995785
 21
218.36869331098183
  0
LINE
  8
_0-0_
  6
CONTINUOUS
 62
    7
 10
183.14275186995786
 20
181.28185059598184
 11
183.14275186995783
 21
157.09480168098185
  0
LINE
  8
_0-0_
  6
CONTINUOUS
 62
    7
 10
183.14275186995786
 20
205.12771859098183
 11
164.63011675495784
 21
205.12771859098183
  0
LINE
  8
_0-0_
  6
CONTINUOUS
 62
    7
 10
185.22062729495786
 20
216.81823400098182
 11
164.63011675495784
 21
216.81823400098182
  0
LINE
  8
_0-0_
  6
CONTINUOUS
 62
    7
 10
185.22062729495786
 20
216.81823400098182
 11
164.63011675495784
 21
216.81823400098182
  0
LINE
  8
_0-0_
  6
CONTINUOUS
 62
    7
 10
185.22062729495786
 20
216.81823400098182
 11
183.14275186995786
 21
205.12771859098183
  0
LINE
  8
_0-0_
  6
CONTINUOUS
 62
    7
 10
186.77108660495784
 20
176.72334194598182
 11
189.37587564995786
 21
179.32813245598186
  0
LINE
  8
_0-0_
  6
CONTINUOUS
 62
    7
 10
192.29055614495786
 20
179.32813245598186
 11
187.14305449995786
 21
174.18063081098182
  0
LINE
  8
_0-0_
  6
CONTINUOUS
 62
    7
 10
190.05773499495785
 20
174.18063081098182
 11
194.98821300495786
 21
179.14189579598184
  0
LINE
  8
_0-0_
  6
CONTINUOUS
 62
    7
 10
194.98821300495786
 20
176.22721530098181
 11
192.94162704995784
 21
174.18063081098182
  0
LINE
  8
_0-0_
  6
CONTINUOUS
 62
    7
 10
193.00370642495787
 20
179.32813245598186
 11
194.98821300495786
 21
177.34362587598184
  0
LINE
  8
_0-0_
  6
CONTINUOUS
 62
    7
 10
194.98821300495786
 20
174.42844142098181
 11
190.08902592995784
 21
179.32813245598186
  0
LINE
  8
_0-0_
  6
CONTINUOUS
 62
    7
 10
186.77108660495784
 20
176.84749923098184
 11
189.43745106495783
 21
174.18063081098182
  0
LINE
  8
_0-0_
  6
CONTINUOUS
 62
    7
 10
192.32134311995787
 20
174.18063081098182
 11
187.17384147495784
 21
179.32813245598186
  0
LINE
  8
_0-0_
  6
CONTINUOUS
 62
    7
 10
134.24123499495786
 20
174.18063081098185
 11
134.24123499495786
 21
179.32813245598186
  0
LINE
  8
_0-0_
  6
CONTINUOUS
 62
    7
 10
164.63011675495784
 20
174.18063081098182
 11
134.24123499495786
 21
174.18063081098185
  0
LINE
  8
_0-0_
  6
CONTINUOUS
 62
    7
 10
134.24123499495786
 20
179.32813245598186
 11
164.63011675495784
 21
179.32813245598186
  0
LINE
  8
_0-0_
  6
CONTINUOUS
 62
    7
 10
186.77108660495784
 20
174.18063081098182
 11
186.77108660495784
 21
179.32813245598186
  0
LINE
  8
_0-0_
  6
CONTINUOUS
 62
    7
 10
194.98821300495786
 20
174.18063081098182
 11
194.98821300495786
 21
179.32813245598186
  0
LINE
  8
_0-0_
  6
CONTINUOUS
 62
    7
 10
185.99585694995784
 20
174.18063081098182
 11
194.98821300495786
 21
174.18063081098182
  0
LINE
  8
_0-0_
  6
CONTINUOUS
 62
    7
 10
194.98821300495786
 20
179.32813245598186
 11
185.99585694995784
 21
179.32813245598186
  0
LINE
  8
_0-0_
  6
CONTINUOUS
 62
    7
 10
197.06608842995786
 20
170.45942972598186
 11
185.96456454995786
 21
170.45942972598186
  0
LINE
  8
_0-0_
  6
CONTINUOUS
 62
    7
 10
188.04244143995783
 20
167.8859316159818
 11
187.26721324995788
 21
167.8859316159818
  0
LINE
  8
_0-0_
  6
CONTINUOUS
 62
    7
 10
132.93909171995787
 20
167.88593161598183
 11
132.19465050495785
 21
167.88593161598183
  0
LINE
  8
_0-0_
  6
CONTINUOUS
 62
    7
 10
187.91828415495786
 20
170.45942972598186
 11
187.26721324995788
 21
169.80835882098182
  0
LINE
  8
_0-0_
  6
CONTINUOUS
 62
    7
 10
187.26721324995788
 20
168.35076586098182
 11
189.37587564995783
 21
170.45942972598186
  0
LINE
  8
_0-0_
  6
CONTINUOUS
 62
    7
 10
190.83296318495783
 20
170.45942972598186
 11
188.13530778995784
 21
167.76177286598184
  0
LINE
  8
_0-0_
  6
CONTINUOUS
 62
    7
 10
188.84845806995787
 20
167.01733165098182
 11
192.29055614495786
 21
170.45942972598186
  0
LINE
  8
_0-0_
  6
CONTINUOUS
 62
    7
 10
193.74814910495786
 20
170.45942972598186
 11
189.71655260995786
 21
166.42833865598186
  0
LINE
  8
_0-0_
  6
CONTINUOUS
 62
    7
 10
190.77088527495783
 20
166.02507836098181
 11
195.20523663995783
 21
170.45942972598186
  0
LINE
  8
_0-0_
  6
CONTINUOUS
 62
    7
 10
196.66282813495786
 20
170.45942972598186
 11
192.01145313495786
 21
165.80805472598183
  0
LINE
  8
_0-0_
  6
CONTINUOUS
 62
    7
 10
193.71685670495785
 20
166.05637076098185
 11
197.06608842995786
 21
169.40509706098183
  0
LINE
  8
_0-0_
  6
CONTINUOUS
 62
    7
 10
197.06608842995786
 20
167.94800952598183
 11
196.97271811995785
 21
167.8859316159818
  0
LINE
  8
_0-0_
  6
CONTINUOUS
 62
    7
 10
195.91838691995787
 20
170.45942972598186
 11
197.06608842995786
 21
169.31223217598182
  0
LINE
  8
_0-0_
  6
CONTINUOUS
 62
    7
 10
197.03479749495787
 20
167.8859316159818
 11
194.46129938495784
 21
170.45942972598186
  0
LINE
  8
_0-0_
  6
CONTINUOUS
 62
    7
 10
193.00370642495784
 20
170.45942972598186
 11
195.98046482995784
 21
167.48267132098181
  0
LINE
  8
_0-0_
  6
CONTINUOUS
 62
    7
 10
189.77863198495785
 20
166.39755168098185
 11
187.26721324995788
 21
168.90897188098182
  0
LINE
  8
_0-0_
  6
CONTINUOUS
 62
    7
 10
187.26721324995788
 20
170.3665633759818
 11
191.79442949995786
 21
165.83934566098182
  0
LINE
  8
_0-0_
  6
CONTINUOUS
 62
    7
 10
193.18994308495786
 20
165.9322120109818
 11
188.63143443495784
 21
170.45942972598186
  0
LINE
  8
_0-0_
  6
CONTINUOUS
 62
    7
 10
190.08902592995784
 20
170.45942972598186
 11
194.27506272495785
 21
166.27339439598182
  0
LINE
  8
_0-0_
  6
CONTINUOUS
 62
    7
 10
195.20523663995783
 20
166.80030801598181
 11
191.54611346495784
 21
170.45942972598186
  0
LINE
  8
_0-0_
  6
CONTINUOUS
 62
    7
 10
137.06304913995785
 20
165.80805472598183
 11
164.63011675495784
 21
165.80805472598183
  0
LINE
  8
_0-0_
  6
CONTINUOUS
 62
    7
 10
136.28781948495788
 20
165.87013410098183
 11
137.06304913995785
 21
165.80805472598183
  0
LINE
  8
_0-0_
  6
CONTINUOUS
 62
    7
 10
135.51258982995788
 20
166.05637076098185
 11
136.28781948495788
 21
165.87013410098183
  0
LINE
  8
_0-0_
  6
CONTINUOUS
 62
    7
 10
134.76865257495785
 20
166.36625928098184
 11
135.51258982995788
 21
166.05637076098185
  0
LINE
  8
_0-0_
  6
CONTINUOUS
 62
    7
 10
134.08628926995783
 20
166.76952104098186
 11
134.76865257495785
 21
166.36625928098184
  0
LINE
  8
_0-0_
  6
CONTINUOUS
 62
    7
 10
133.46600533995786
 20
167.26564622098186
 11
134.08628926995783
 21
166.76952104098186
  0
LINE
  8
_0-0_
  6
CONTINUOUS
 62
    7
 10
132.93909171995787
 20
167.88593161598183
 11
133.46600533995786
 21
167.26564622098186
  0
LINE
  8
_0-0_
  6
CONTINUOUS
 62
    7
 10
132.19465050495785
 20
170.45942972598186
 11
164.63011675495784
 21
170.45942972598186
  0
LINE
  8
_0-0_
  6
CONTINUOUS
 62
    7
 10
164.63011675495784
 20
167.8859316159818
 11
132.19465050495785
 21
167.88593161598183
  0
LINE
  8
_0-0_
  6
CONTINUOUS
 62
    7
 10
185.96456454995786
 20
167.8859316159818
 11
188.04244143995783
 21
167.8859316159818
  0
LINE
  8
_0-0_
  6
CONTINUOUS
 62
    7
 10
188.63143443495784
 20
167.23435528598182
 11
188.04244143995783
 21
167.8859316159818
  0
LINE
  8
_0-0_
  6
CONTINUOUS
 62
    7
 10
189.31379773995786
 20
166.67614926598185
 11
188.63143443495784
 21
167.23435528598182
  0
LINE
  8
_0-0_
  6
CONTINUOUS
 62
    7
 10
190.05773499495785
 20
166.27339439598182
 11
189.31379773995786
 21
166.67614926598185
  0
LINE
  8
_0-0_
  6
CONTINUOUS
 62
    7
 10
190.86425558495785
 20
165.99429138598185
 11
190.05773499495785
 21
166.27339439598182
  0
LINE
  8
_0-0_
  6
CONTINUOUS
 62
    7
 10
191.73235158995783
 20
165.83934566098182
 11
190.86425558495785
 21
165.99429138598185
  0
LINE
  8
_0-0_
  6
CONTINUOUS
 62
    7
 10
192.60044612995785
 20
165.83934566098182
 11
191.73235158995783
 21
165.83934566098182
  0
LINE
  8
_0-0_
  6
CONTINUOUS
 62
    7
 10
193.43775369495785
 20
165.99429138598185
 11
192.60044612995785
 21
165.83934566098182
  0
LINE
  8
_0-0_
  6
CONTINUOUS
 62
    7
 10
194.27506272495785
 20
166.27339439598182
 11
193.43775369495785
 21
165.99429138598185
  0
LINE
  8
_0-0_
  6
CONTINUOUS
 62
    7
 10
195.01950393995784
 20
166.67614926598185
 11
194.27506272495785
 21
166.27339439598182
  0
LINE
  8
_0-0_
  6
CONTINUOUS
 62
    7
 10
195.70136328495786
 20
167.23435528598182
 11
195.01950393995784
 21
166.67614926598185
  0
LINE
  8
_0-0_
  6
CONTINUOUS
 62
    7
 10
196.29086023995785
 20
167.8859316159818
 11
195.70136328495786
 21
167.23435528598182
  0
LINE
  8
_0-0_
  6
CONTINUOUS
 62
    7
 10
187.26721324995788
 20
170.45942972598186
 11
187.26721324995788
 21
167.8859316159818
  0
LINE
  8
_0-0_
  6
CONTINUOUS
 62
    7
 10
192.16639885995784
 20
165.80805472598183
 11
185.96456454995786
 21
165.80805472598183
  0
LINE
  8
_0-0_
  6
CONTINUOUS
 62
    7
 10
196.29086023995785
 20
167.8859316159818
 11
197.06608842995786
 21
167.8859316159818
  0
LINE
  8
_0-0_
  6
CONTINUOUS
 62
    7
 10
197.06608842995786
 20
170.45942972598186
 11
197.06608842995786
 21
167.8859316159818
  0
LINE
  8
_0-0_
  6
CONTINUOUS
 62
    7
 10
165.28169308495791
 20
361.07293837598183
 11
164.63011675495787
 21
360.42161549098182
  0
LINE
  8
_0-0_
  6
CONTINUOUS
 62
    7
 10
165.6844494199579
 20
360.04964613098184
 11
166.73878061995788
 21
361.07293837598183
  0
LINE
  8
_0-0_
  6
CONTINUOUS
 62
    7
 10
168.19637357995788
 20
361.07293837598183
 11
167.1420409149579
 21
360.04964613098184
  0
LINE
  8
_0-0_
  6
CONTINUOUS
 62
    7
 10
168.5996338749579
 20
360.04964613098184
 11
169.65396507495788
 21
361.07293837598183
  0
LINE
  8
_0-0_
  6
CONTINUOUS
 62
    7
 10
171.11105260995788
 20
361.07293837598183
 11
170.0567214099579
 21
360.04964613098184
  0
LINE
  8
_0-0_
  6
CONTINUOUS
 62
    7
 10
171.5143143699579
 20
360.04964613098184
 11
172.56864556995788
 21
361.07293837598183
  0
LINE
  8
_0-0_
  6
CONTINUOUS
 62
    7
 10
199.39177592995787
 20
352.94842634598183
 11
198.89565074995789
 21
352.45229970098183
  0
LINE
  8
_0-0_
  6
CONTINUOUS
 62
    7
 10
198.18250046995789
 20
353.19648893598185
 11
198.95772865995789
 21
353.97171859098182
  0
LINE
  8
_0-0_
  6
CONTINUOUS
 62
    7
 10
198.5544683649579
 20
355.0260497909818
 11
197.46884476495788
 21
353.94067817098181
  0
LINE
  8
_0-0_
  6
CONTINUOUS
 62
    7
 10
197.37597841495787
 20
355.30515280098177
 11
198.12042109495789
 21
356.04934203598179
  0
LINE
  8
_0-0_
  6
CONTINUOUS
 62
    7
 10
196.75569448495787
 20
354.68486887098186
 11
197.31390050495787
 21
355.24307342598183
  0
LINE
  8
_0-0_
  6
CONTINUOUS
 62
    7
 10
197.68586839995788
 20
357.07263428098179
 11
197.06608842995789
 21
356.45260233098179
  0
LINE
  8
_0-0_
  6
CONTINUOUS
 62
    7
 10
195.82552056995789
 20
356.66962743098179
 11
196.72490750995786
 21
357.56876092598179
  0
LINE
  8
_0-0_
  6
CONTINUOUS
 62
    7
 10
195.48433818495789
 20
357.78578456098182
 11
194.58495124495789
 21
356.88665106598182
  0
LINE
  8
_0-0_
  6
CONTINUOUS
 62
    7
 10
193.34488880995789
 20
357.1036747009818
 11
194.24427574995786
 21
358.00306164098185
  0
LINE
  8
_0-0_
  6
CONTINUOUS
 62
    7
 10
193.0037064249579
 20
358.22008527598183
 11
192.1043194849579
 21
357.32069833598177
  0
LINE
  8
_0-0_
  6
CONTINUOUS
 62
    7
 10
190.86425558495787
 20
357.53772197098181
 11
191.7631385649579
 21
358.43710891098181
  0
LINE
  8
_0-0_
  6
CONTINUOUS
 62
    7
 10
190.5230746649579
 20
358.65413254598184
 11
189.6236877249579
 21
357.75499758598181
  0
LINE
  8
_0-0_
  6
CONTINUOUS
 62
    7
 10
188.38311839995788
 20
357.97202122098179
 11
189.28250533995788
 21
358.87115618098181
  0
LINE
  8
_0-0_
  6
CONTINUOUS
 62
    7
 10
188.04244143995788
 20
359.08817981598179
 11
187.14305449995788
 21
358.18904632098179
  0
LINE
  8
_0-0_
  6
CONTINUOUS
 62
    7
 10
185.90248663995789
 20
358.40606995598182
 11
186.80187357995788
 21
359.30545689598182
  0
LINE
  8
_0-0_
  6
CONTINUOUS
 62
    7
 10
185.56130425495789
 20
359.5224805309818
 11
184.6932097149579
 21
358.62309359098185
  0
LINE
  8
_0-0_
  6
CONTINUOUS
 62
    7
 10
183.45314581495791
 20
358.84011722598183
 11
184.32124035495789
 21
359.73950416598177
  0
LINE
  8
_0-0_
  6
CONTINUOUS
 62
    7
 10
183.08067249495789
 20
359.9565278009818
 11
182.21257648995788
 21
359.0571408609818
  0
LINE
  8
_0-0_
  6
CONTINUOUS
 62
    7
 10
180.97200862995788
 20
359.30545689598182
 11
181.84060859495787
 21
360.17355143598184
  0
LINE
  8
_0-0_
  6
CONTINUOUS
 62
    7
 10
180.63082624495789
 20
360.39057507098181
 11
179.73194472995789
 21
359.5224805309818
  0
LINE
  8
_0-0_
  6
CONTINUOUS
 62
    7
 10
178.49137686995789
 20
359.73950416598177
 11
179.39076380995789
 21
360.60759870598179
  0
LINE
  8
_0-0_
  6
CONTINUOUS
 62
    7
 10
178.15019448495786
 20
360.82487578598182
 11
177.25131296995789
 21
359.9565278009818
  0
LINE
  8
_0-0_
  6
CONTINUOUS
 62
    7
 10
175.8865863599579
 20
360.04964613098184
 11
176.9101305849579
 21
361.04189942098185
  0
LINE
  8
_0-0_
  6
CONTINUOUS
 62
    7
 10
175.4525390899579
 20
361.07293837598183
 11
174.42899339995787
 21
360.04964613098184
  0
LINE
  8
_0-0_
  6
CONTINUOUS
 62
    7
 10
172.97190586495788
 20
360.04964613098184
 11
173.9949461299579
 21
361.07293837598183
  0
LINE
  8
_0-0_
  6
CONTINUOUS
 62
    7
 10
164.63011675495787
 20
361.07293837598183
 11
164.63011675495787
 21
352.32839439598183
  0
LINE
  8
_0-0_
  6
CONTINUOUS
 62
    7
 10
164.63011675495787
 20
364.17385553098183
 11
164.63011675495787
 21
361.07293837598183
  0
LINE
  8
_0-0_
  6
CONTINUOUS
 62
    7
 10
131.45071324995789
 20
356.88665106598182
 11
164.63011675495787
 21
356.88665106598182
  0
LINE
  8
_0-0_
  6
CONTINUOUS
 62
    7
 10
164.63011675495787
 20
361.07293837598183
 11
152.44397865995791
 21
361.07293837598183
  0
LINE
  8
_0-0_
  6
CONTINUOUS
 62
    7
 10
132.22594143995789
 20
357.50668301598182
 11
152.44397865995791
 21
361.07293837598183
  0
LINE
  8
_0-0_
  6
CONTINUOUS
 62
    7
 10
131.63644448495788
 20
357.16575261098183
 11
131.45071324995789
 21
356.88665106598182
  0
LINE
  8
_0-0_
  6
CONTINUOUS
 62
    7
 10
131.88476051995789
 20
357.38277771098183
 11
131.63644448495788
 21
357.16575261098183
  0
LINE
  8
_0-0_
  6
CONTINUOUS
 62
    7
 10
132.22594143995789
 20
357.50668301598182
 11
131.88476051995789
 21
357.38277771098183
  0
LINE
  8
_0-0_
  6
CONTINUOUS
 62
    7
 10
129.62115092995788
 20
352.32839439598183
 11
131.45071324995789
 21
356.88665106598182
  0
LINE
  8
_0-0_
  6
CONTINUOUS
 62
    7
 10
129.62115092995788
 20
352.32839439598183
 11
164.63011675495787
 21
352.32839439598183
  0
LINE
  8
_0-0_
  6
CONTINUOUS
 62
    7
 10
197.59300204995787
 20
357.16575261098183
 11
197.77923870995789
 21
356.88665106598182
  0
LINE
  8
_0-0_
  6
CONTINUOUS
 62
    7
 10
197.34519143995789
 20
357.38277771098183
 11
197.59300204995787
 21
357.16575261098183
  0
LINE
  8
_0-0_
  6
CONTINUOUS
 62
    7
 10
197.00401051995789
 20
357.50668301598182
 11
197.34519143995789
 21
357.38277771098183
  0
LINE
  8
_0-0_
  6
CONTINUOUS
 62
    7
 10
197.37597841495787
 20
356.39052442098182
 11
164.63011675495787
 21
356.39052442098182
  0
LINE
  8
_0-0_
  6
CONTINUOUS
 62
    7
 10
197.37597841495787
 20
355.27411384598179
 11
164.63011675495787
 21
355.27411384598179
  0
LINE
  8
_0-0_
  6
CONTINUOUS
 62
    7
 10
196.5386708499579
 20
354.90214448598181
 11
164.63011675495787
 21
354.90214448598181
  0
LINE
  8
_0-0_
  6
CONTINUOUS
 62
    7
 10
197.37597841495787
 20
356.39052442098182
 11
197.37597841495787
 21
355.27411384598179
  0
LINE
  8
_0-0_
  6
CONTINUOUS
 62
    7
 10
164.63011675495787
 20
360.04964613098184
 11
176.69310694995789
 21
360.04964613098184
  0
LINE
  8
_0-0_
  6
CONTINUOUS
 62
    7
 10
197.37597841495787
 20
356.39052442098182
 11
176.69310694995789
 21
360.04964613098184
  0
LINE
  8
_0-0_
  6
CONTINUOUS
 62
    7
 10
199.01930260995789
 20
352.32839439598183
 11
196.5386708499579
 21
354.90214448598181
  0
LINE
  8
_0-0_
  6
CONTINUOUS
 62
    7
 10
197.37597841495787
 20
355.27411384598179
 11
196.5386708499579
 21
354.90214448598181
  0
LINE
  8
_0-0_
  6
CONTINUOUS
 62
    7
 10
199.63958800495789
 20
352.32839439598183
 11
164.63011675495787
 21
352.32839439598183
  0
LINE
  8
_0-0_
  6
CONTINUOUS
 62
    7
 10
164.63011675495787
 20
361.07293837598183
 11
176.7859732999579
 21
361.07293837598183
  0
LINE
  8
_0-0_
  6
CONTINUOUS
 62
    7
 10
197.00401051995789
 20
357.50668301598182
 11
176.7859732999579
 21
361.07293837598183
  0
LINE
  8
_0-0_
  6
CONTINUOUS
 62
    7
 10
199.63958800495789
 20
352.32839439598183
 11
197.77923870995789
 21
356.88665106598182
  0
LINE
  8
_0-0_
  6
CONTINUOUS
 62
    7
 10
132.19465050495785
 20
170.45942972598186
 11
132.19465050495785
 21
167.88593161598183
  0
LINE
  8
_0-0_
  6
CONTINUOUS
 62
    7
 10
250.68055425495783
 20
148.84587892098182
 11
249.47127732995784
 21
148.69093466098181
  0
LINE
  8
_0-0_
  6
CONTINUOUS
 62
    7
 10
251.89033660495784
 20
148.84587892098182
 11
250.68055425495783
 21
148.84587892098182
  0
LINE
  8
_0-0_
  6
CONTINUOUS
 62
    7
 10
253.09961352995785
 20
148.69093466098181
 11
251.89033660495784
 21
148.84587892098182
  0
TEXT
  8
_0-0_
 62
    7
 10
129.04491383110835
 20
116.05995092598187
 40
6
 41
1
 50
90
  1
11
  0
TEXT
  8
_0-0_
 62
    7
 10
216.04355778995784
 20
184.41212484098185
 40
6
 41
1
 50
90
  1
35～48
  0
TEXT
  8
_0-0_
 62
    7
 10
107.60433982995787
 20
196.82333527598183
 40
6
 41
1
 50
90
  1
40
  0
TEXT
  8
_0-0_
 62
    7
 10
157.86497597995788
 20
224.44636887098184
 40
6
 41
1
 50
0
  1
φ63
  0
TEXT
  8
_0-0_
 62
    7
 10
318.83132467745781
 20
233.19116483098176
 40
6
 41
1
 50
0
  1
370
  0
TEXT
  8
_0-0_
 62
    7
 10
161.36472326745789
 20
344.29699923098178
 40
6
 41
1
 50
0
  1
φ67
  0
LINE
  8
ADD_LINE
  6
DOT
 62
    7
 10
11
 20
10
 11
583
 21
10
  0
LINE
  8
ADD_LINE
  6
DOT
 62
    7
 10
583
 20
10
 11
583
 21
410
  0
LINE
  8
ADD_LINE
  6
DOT
 62
    7
 10
583
 20
410
 11
11
 21
410
  0
LINE
  8
ADD_LINE
  6
DOT
 62
    7
 10
11
 20
410
 11
11
 21
10
  0
LINE
  8
_0-0_
  6
CONTINUOUS
 62
    1
 10
21
 20
16
 11
573
 21
16
  0
LINE
  8
_0-0_
  6
CONTINUOUS
 62
    1
 10
573
 20
16
 11
573
 21
404
  0
LINE
  8
_0-0_
  6
CONTINUOUS
 62
    1
 10
573
 20
404
 11
21
 21
404
  0
LINE
  8
_0-0_
  6
CONTINUOUS
 62
    1
 10
21
 20
404
 11
21
 21
16
  0
LINE
  8
_0-0_
  6
CONTINUOUS
 62
    1
 10
443
 20
51.999999996399964
 11
443
 21
16
  0
LINE
  8
_0-0_
  6
CONTINUOUS
 62
    1
 10
573
 20
51.999999996399822
 11
188.10688609811734
 21
51.999999996399822
  0
LINE
  8
_0-0_
  6
CONTINUOUS
 62
    7
 10
211.37576836020418
 20
22.96185764430021
 11
219.78346796460022
 21
22.96185764430021
  0
LINE
  8
_0-0_
  6
CONTINUOUS
 62
    7
 10
219.78346796460022
 20
22.96185764430021
 11
219.78346796460022
 21
31.381396065784031
  0
LINE
  8
_0-0_
  6
CONTINUOUS
 62
    7
 10
211.37576836020418
 20
31.381396065784031
 11
211.37576836020418
 21
22.96185764430021
  0
LINE
  8
_0-0_
  6
CONTINUOUS
 62
    7
 10
219.78346796460022
 20
31.381396065784031
 11
211.37576836020418
 21
31.381396065784031
  0
LINE
  8
_0-0_
  6
CONTINUOUS
 62
    7
 10
220.73611228951705
 20
34.126979592031887
 11
225.03611228951701
 21
41.574798064577863
  0
LINE
  8
_0-0_
  6
CONTINUOUS
 62
    7
 10
220.73611228951705
 20
34.126979592031887
 11
229.33611228951708
 21
34.126979592031887
  0
LINE
  8
_0-0_
  6
CONTINUOUS
 62
    7
 10
225.03611228951701
 20
41.574798064577863
 11
229.33611228951708
 21
34.126979592031887
  0
CIRCLE
  8
_0-0_
  6
CONTINUOUS
 62
    7
 10
231.80165120985686
 20
43.166338020588171
 40
2.9517431670324767
  0
LINE
  8
_0-0_
  6
CONTINUOUS
 62
    2
 10
237.73524300475805
 20
27.354857968659019
 11
241.35977294244896
 21
27.354857968659019
  0
LINE
  8
_0-0_
  6
CONTINUOUS
 62
    2
 10
242.29238825875899
 20
25.354857968659132
 11
243.50478816996207
 21
22.754857968658996
  0
LINE
  8
_0-0_
  6
CONTINUOUS
 62
    2
 10
236.80262768844801
 20
25.354857968659132
 11
235.59022777724505
 21
22.754857968658996
  0
LINE
  8
_0-0_
  6
CONTINUOUS
 62
    2
 10
239.54750797360356
 20
31.241272736145277
 11
241.35977294244896
 21
27.354857968659019
  0
LINE
  8
_0-0_
  6
CONTINUOUS
 62
    2
 10
239.54750797360356
 20
31.241272736145277
 11
237.73524300475805
 21
27.354857968659019
  0
LINE
  8
_0-0_
  6
CONTINUOUS
 62
    2
 10
238.35754834137339
 20
34.265114063025578
 11
232.99022777724502
 21
22.754857968658996
  0
LINE
  8
_0-0_
  6
CONTINUOUS
 62
    2
 10
254.04329391956372
 20
32.265114063025578
 11
254.19292193607043
 21
32.183000573506604
  0
LINE
  8
_0-0_
  6
CONTINUOUS
 62
    2
 10
254.19292193607043
 20
32.183000573506604
 11
254.44811484166644
 21
32.039541508010586
  0
LINE
  8
_0-0_
  6
CONTINUOUS
 62
    2
 10
254.44811484166644
 20
32.039541508010586
 11
254.69556765501585
 21
31.89084887704945
  0
LINE
  8
_0-0_
  6
CONTINUOUS
 62
    2
 10
254.69556765501585
 20
31.89084887704945
 11
254.93038158355722
 21
31.733610297418466
  0
LINE
  8
_0-0_
  6
CONTINUOUS
 62
    2
 10
254.93038158355722
 20
31.733610297418466
 11
255.14765783472956
 21
31.564513385911653
  0
LINE
  8
_0-0_
  6
CONTINUOUS
 62
    2
 10
255.14765783472956
 20
31.564513385911653
 11
255.34249761597169
 21
31.380245759323827
  0
LINE
  8
_0-0_
  6
CONTINUOUS
 62
    2
 10
255.34249761597169
 20
31.380245759323827
 11
255.44329391956376
 21
31.265114063025578
  0
LINE
  8
_0-0_
  6
CONTINUOUS
 62
    2
 10
255.44329391956376
 20
31.265114063025578
 11
255.58719119402969
 21
31.062045003476499
  0
LINE
  8
_0-0_
  6
CONTINUOUS
 62
    2
 10
255.58719119402969
 20
31.062045003476499
 11
255.77810233554095
 21
30.673689104445259
  0
LINE
  8
_0-0_
  6
CONTINUOUS
 62
    2
 10
255.77810233554095
 20
30.673689104445259
 11
255.90697588230984
 21
30.244583790563695
  0
LINE
  8
_0-0_
  6
CONTINUOUS
 62
    2
 10
255.90697588230984
 20
30.244583790563695
 11
255.98584879006455
 21
29.783626313981983
  0
LINE
  8
_0-0_
  6
CONTINUOUS
 62
    2
 10
255.98584879006455
 20
29.783626313981983
 11
256.02675801453324
 21
29.299713926851553
  0
LINE
  8
_0-0_
  6
CONTINUOUS
 62
    2
 10
256.02675801453324
 20
29.299713926851553
 11
256.041740511444
 21
28.801743881322693
  0
LINE
  8
_0-0_
  6
CONTINUOUS
 62
    2
 10
256.041740511444
 20
28.801743881322693
 11
256.04329391956372
 21
28.509986015842344
  0
LINE
  8
_0-0_
  6
CONTINUOUS
 62
    2
 10
256.04329391956372
 20
28.509986015842344
 11
256.041740511444
 21
28.218228150362108
  0
LINE
  8
_0-0_
  6
CONTINUOUS
 62
    2
 10
256.041740511444
 20
28.218228150362108
 11
256.02675801453324
 21
27.720258104833249
  0
LINE
  8
_0-0_
  6
CONTINUOUS
 62
    2
 10
256.02675801453324
 20
27.720258104833249
 11
255.98584879006455
 21
27.236345717702932
  0
LINE
  8
_0-0_
  6
CONTINUOUS
 62
    2
 10
255.98584879006455
 20
27.236345717702932
 11
255.90697588230984
 21
26.77538824112122
  0
LINE
  8
_0-0_
  6
CONTINUOUS
 62
    2
 10
255.90697588230984
 20
26.77538824112122
 11
255.77810233554095
 21
26.346282927239315
  0
LINE
  8
_0-0_
  6
CONTINUOUS
 62
    2
 10
255.77810233554095
 20
26.346282927239315
 11
255.58719119402969
 21
25.957927028208189
  0
LINE
  8
_0-0_
  6
CONTINUOUS
 62
    2
 10
255.58719119402969
 20
25.957927028208189
 11
255.44329391956376
 21
25.754857968658996
  0
LINE
  8
_0-0_
  6
CONTINUOUS
 62
    2
 10
255.44329391956376
 20
25.754857968658996
 11
255.34249761597169
 21
25.639726272361088
  0
LINE
  8
_0-0_
  6
CONTINUOUS
 62
    2
 10
255.34249761597169
 20
25.639726272361088
 11
255.14765783472956
 21
25.455458645773263
  0
LINE
  8
_0-0_
  6
CONTINUOUS
 62
    2
 10
255.14765783472956
 20
25.455458645773263
 11
254.93038158355722
 21
25.286361734266222
  0
LINE
  8
_0-0_
  6
CONTINUOUS
 62
    2
 10
254.93038158355722
 20
25.286361734266222
 11
254.69556765501585
 21
25.129123154635238
  0
LINE
  8
_0-0_
  6
CONTINUOUS
 62
    2
 10
254.69556765501585
 20
25.129123154635238
 11
254.44811484166644
 21
24.980430523674215
  0
LINE
  8
_0-0_
  6
CONTINUOUS
 62
    2
 10
254.44811484166644
 20
24.980430523674215
 11
254.19292193607043
 21
24.836971458177857
  0
LINE
  8
_0-0_
  6
CONTINUOUS
 62
    2
 10
254.19292193607043
 20
24.836971458177857
 11
254.04329391956372
 21
24.754857968658996
  0
LINE
  8
_0-0_
  6
CONTINUOUS
 62
    2
 10
254.04329391956372
 20
22.754857968658996
 11
254.17427137261245
 21
22.78876557856853
  0
LINE
  8
_0-0_
  6
CONTINUOUS
 62
    2
 10
254.17427137261245
 20
22.78876557856853
 11
254.40022610353236
 21
22.847814419950566
  0
LINE
  8
_0-0_
  6
CONTINUOUS
 62
    2
 10
254.40022610353236
 20
22.847814419950566
 11
254.62654621225306
 21
22.908495052962564
  0
LINE
  8
_0-0_
  6
CONTINUOUS
 62
    2
 10
254.62654621225306
 20
22.908495052962564
 11
254.85346295054705
 21
22.971840257116526
  0
LINE
  8
_0-0_
  6
CONTINUOUS
 62
    2
 10
254.85346295054705
 20
22.971840257116526
 11
255.08120757018696
 21
23.038882811924225
  0
LINE
  8
_0-0_
  6
CONTINUOUS
 62
    2
 10
255.08120757018696
 20
23.038882811924225
 11
255.3100113229454
 21
23.110655496899028
  0
LINE
  8
_0-0_
  6
CONTINUOUS
 62
    2
 10
255.3100113229454
 20
23.110655496899028
 11
255.44329391956376
 21
23.154857968658973
  0
LINE
  8
_0-0_
  6
CONTINUOUS
 62
    2
 10
255.44329391956376
 20
23.154857968658973
 11
255.70830239815035
 21
23.248823435020256
  0
LINE
  8
_0-0_
  6
CONTINUOUS
 62
    2
 10
255.70830239815035
 20
23.248823435020256
 11
256.16210758034492
 21
23.43310452160614
  0
LINE
  8
_0-0_
  6
CONTINUOUS
 62
    2
 10
256.16210758034492
 20
23.43310452160614
 11
256.60060743711614
 21
23.649428993478807
  0
LINE
  8
_0-0_
  6
CONTINUOUS
 62
    2
 10
256.60060743711614
 20
23.649428993478807
 11
257.01057674134819
 21
23.902275232374393
  0
LINE
  8
_0-0_
  6
CONTINUOUS
 62
    2
 10
257.01057674134819
 20
23.902275232374393
 11
257.37879026592555
 21
24.19612162002926
  0
LINE
  8
_0-0_
  6
CONTINUOUS
 62
    2
 10
257.37879026592555
 20
24.19612162002926
 11
257.69202278373297
 21
24.535446538179201
  0
LINE
  8
_0-0_
  6
CONTINUOUS
 62
    2
 10
257.69202278373297
 20
24.535446538179201
 11
257.84329391956368
 21
24.754857968658996
  0
LINE
  8
_0-0_
  6
CONTINUOUS
 62
    2
 10
257.84329391956368
 20
24.754857968658996
 11
257.89343492105746
 21
24.841227214704816
  0
LINE
  8
_0-0_
  6
CONTINUOUS
 62
    2
 10
257.89343492105746
 20
24.841227214704816
 11
257.97225351400743
 21
24.995291431378575
  0
LINE
  8
_0-0_
  6
CONTINUOUS
 62
    2
 10
257.97225351400743
 20
24.995291431378575
 11
258.04250975802734
 21
25.154913947288776
  0
LINE
  8
_0-0_
  6
CONTINUOUS
 62
    2
 10
258.04250975802734
 20
25.154913947288776
 11
258.105480005738
 21
25.318975146459536
  0
LINE
  8
_0-0_
  6
CONTINUOUS
 62
    2
 10
258.105480005738
 20
25.318975146459536
 11
258.16244060975998
 21
25.486355412915316
  0
LINE
  8
_0-0_
  6
CONTINUOUS
 62
    2
 10
258.16244060975998
 20
25.486355412915316
 11
258.2146679227144
 21
25.65593513068012
  0
LINE
  8
_0-0_
  6
CONTINUOUS
 62
    2
 10
258.2146679227144
 20
25.65593513068012
 11
258.24329391956371
 21
25.754857968658996
  0
LINE
  8
_0-0_
  6
CONTINUOUS
 62
    2
 10
258.24329391956371
 20
25.754857968658996
 11
258.31292424944371
 21
26.011312630989153
  0
LINE
  8
_0-0_
  6
CONTINUOUS
 62
    2
 10
258.31292424944371
 20
26.011312630989153
 11
258.41823067584778
 21
26.455482441776041
  0
LINE
  8
_0-0_
  6
CONTINUOUS
 62
    2
 10
258.41823067584778
 20
26.455482441776041
 11
258.50425764221274
 21
26.901790708309989
  0
LINE
  8
_0-0_
  6
CONTINUOUS
 62
    2
 10
258.50425764221274
 20
26.901790708309989
 11
258.57029142033826
 21
27.349770518855792
  0
LINE
  8
_0-0_
  6
CONTINUOUS
 62
    2
 10
258.57029142033826
 20
27.349770518855792
 11
258.61561828202508
 21
27.798954961678248
  0
LINE
  8
_0-0_
  6
CONTINUOUS
 62
    2
 10
258.61561828202508
 20
27.798954961678248
 11
258.63952449907362
 21
28.24887712504227
  0
LINE
  8
_0-0_
  6
CONTINUOUS
 62
    2
 10
258.63952449907362
 20
28.24887712504227
 11
258.64329391956369
 21
28.509986015842344
  0
LINE
  8
_0-0_
  6
CONTINUOUS
 62
    2
 10
258.64329391956369
 20
28.509986015842344
 11
258.63952449907362
 21
28.771094906642531
  0
LINE
  8
_0-0_
  6
CONTINUOUS
 62
    2
 10
258.63952449907362
 20
28.771094906642531
 11
258.61561828202508
 21
29.22101707000644
  0
LINE
  8
_0-0_
  6
CONTINUOUS
 62
    2
 10
258.61561828202508
 20
29.22101707000644
 11
258.57029142033826
 21
29.670201512828669
  0
LINE
  8
_0-0_
  6
CONTINUOUS
 62
    2
 10
258.57029142033826
 20
29.670201512828669
 11
258.50425764221274
 21
30.118181323374472
  0
LINE
  8
_0-0_
  6
CONTINUOUS
 62
    2
 10
258.50425764221274
 20
30.118181323374472
 11
258.41823067584778
 21
30.564489589908646
  0
LINE
  8
_0-0_
  6
CONTINUOUS
 62
    2
 10
258.41823067584778
 20
30.564489589908646
 11
258.31292424944371
 21
31.008659400695421
  0
LINE
  8
_0-0_
  6
CONTINUOUS
 62
    2
 10
258.31292424944371
 20
31.008659400695421
 11
258.24329391956371
 21
31.265114063025578
  0
LINE
  8
_0-0_
  6
CONTINUOUS
 62
    2
 10
258.24329391956371
 20
31.265114063025578
 11
258.2146679227144
 21
31.364036901004567
  0
LINE
  8
_0-0_
  6
CONTINUOUS
 62
    2
 10
258.2146679227144
 20
31.364036901004567
 11
258.16244060975998
 21
31.533616618769145
  0
LINE
  8
_0-0_
  6
CONTINUOUS
 62
    2
 10
258.16244060975998
 20
31.533616618769145
 11
258.105480005738
 21
31.700996885224924
  0
LINE
  8
_0-0_
  6
CONTINUOUS
 62
    2
 10
258.105480005738
 20
31.700996885224924
 11
258.04250975802734
 21
31.865058084396026
  0
LINE
  8
_0-0_
  6
CONTINUOUS
 62
    2
 10
258.04250975802734
 20
31.865058084396026
 11
257.97225351400743
 21
32.024680600306112
  0
LINE
  8
_0-0_
  6
CONTINUOUS
 62
    2
 10
257.97225351400743
 20
32.024680600306112
 11
257.89343492105746
 21
32.178744816979645
  0
LINE
  8
_0-0_
  6
CONTINUOUS
 62
    2
 10
257.89343492105746
 20
32.178744816979645
 11
257.84329391956368
 21
32.265114063025578
  0
LINE
  8
_0-0_
  6
CONTINUOUS
 62
    2
 10
257.84329391956368
 20
32.265114063025578
 11
257.69202278373297
 21
32.4845254935056
  0
LINE
  8
_0-0_
  6
CONTINUOUS
 62
    2
 10
257.69202278373297
 20
32.4845254935056
 11
257.37879026592555
 21
32.823850411655542
  0
LINE
  8
_0-0_
  6
CONTINUOUS
 62
    2
 10
257.37879026592555
 20
32.823850411655542
 11
257.01057674134819
 21
33.117696799310181
  0
LINE
  8
_0-0_
  6
CONTINUOUS
 62
    2
 10
257.01057674134819
 20
33.117696799310181
 11
256.60060743711614
 21
33.370543038205653
  0
LINE
  8
_0-0_
  6
CONTINUOUS
 62
    2
 10
256.60060743711614
 20
33.370543038205653
 11
256.16210758034492
 21
33.586867510078434
  0
LINE
  8
_0-0_
  6
CONTINUOUS
 62
    2
 10
256.16210758034492
 20
33.586867510078434
 11
255.70830239815035
 21
33.771148596664318
  0
LINE
  8
_0-0_
  6
CONTINUOUS
 62
    2
 10
255.70830239815035
 20
33.771148596664318
 11
255.44329391956376
 21
33.865114063025601
  0
LINE
  8
_0-0_
  6
CONTINUOUS
 62
    2
 10
255.44329391956376
 20
33.865114063025601
 11
255.3100113229454
 21
33.909316534785432
  0
LINE
  8
_0-0_
  6
CONTINUOUS
 62
    2
 10
255.3100113229454
 20
33.909316534785432
 11
255.08120757018696
 21
33.981089219760463
  0
LINE
  8
_0-0_
  6
CONTINUOUS
 62
    2
 10
255.08120757018696
 20
33.981089219760463
 11
254.85346295054705
 21
34.04813177456839
  0
LINE
  8
_0-0_
  6
CONTINUOUS
 62
    2
 10
254.85346295054705
 20
34.04813177456839
 11
254.62654621225306
 21
34.11147697872201
  0
LINE
  8
_0-0_
  6
CONTINUOUS
 62
    2
 10
254.62654621225306
 20
34.11147697872201
 11
254.40022610353236
 21
34.172157611733894
  0
LINE
  8
_0-0_
  6
CONTINUOUS
 62
    2
 10
254.40022610353236
 20
34.172157611733894
 11
254.17427137261245
 21
34.231206453115931
  0
LINE
  8
_0-0_
  6
CONTINUOUS
 62
    2
 10
254.17427137261245
 20
34.231206453115931
 11
254.04329391956372
 21
34.265114063025578
  0
LINE
  8
_0-0_
  6
CONTINUOUS
 62
    2
 10
261.24329391956377
 20
34.265114063025578
 11
265.31061448369206
 21
25.542716965321404
  0
LINE
  8
_0-0_
  6
CONTINUOUS
 62
    2
 10
269.37793504782047
 20
34.265114063025578
 11
265.31061448369206
 21
25.542716965321404
  0
LINE
  8
_0-0_
  6
CONTINUOUS
 62
    2
 10
258.64329391956369
 20
34.265114063025578
 11
264.01061448369211
 21
22.754857968658996
  0
LINE
  8
_0-0_
  6
CONTINUOUS
 62
    2
 10
266.61061448369213
 20
22.754857968658996
 11
271.97793504782044
 21
34.265114063025578
  0
LINE
  8
_0-0_
  6
CONTINUOUS
 62
    2
 10
273.97793504782049
 20
34.265114063025578
 11
268.61061448369207
 21
22.754857968658996
  0
LINE
  8
_0-0_
  6
CONTINUOUS
 62
    2
 10
276.64880296871434
 20
34.265114063025578
 11
282.01612353284264
 21
22.754857968658996
  0
LINE
  8
_0-0_
  6
CONTINUOUS
 62
    2
 10
236.80262768844801
 20
25.354857968659132
 11
242.29238825875899
 21
25.354857968659132
  0
LINE
  8
_0-0_
  6
CONTINUOUS
 62
    2
 10
272.42301439489512
 20
25.354857968659132
 11
278.20372362163977
 21
25.354857968659132
  0
LINE
  8
_0-0_
  6
CONTINUOUS
 62
    2
 10
273.35562971120515
 20
27.354857968659019
 11
277.27110830532968
 21
27.354857968659019
  0
LINE
  8
_0-0_
  6
CONTINUOUS
 62
    2
 10
285.76922045560866
 20
32.265114063025578
 11
291.71188801778732
 21
22.754857968658996
  0
LINE
  8
_0-0_
  6
CONTINUOUS
 62
    2
 10
292.92673921085833
 20
24.962265469300689
 11
292.92673921085833
 21
34.265114063025578
  0
LINE
  8
_0-0_
  6
CONTINUOUS
 62
    2
 10
295.12673921085837
 20
22.754857968658996
 11
295.12673921085837
 21
34.265114063025578
  0
LINE
  8
_0-0_
  6
CONTINUOUS
 62
    2
 10
287.11367423918676
 20
34.265114063025578
 11
292.92673921085833
 21
24.962265469300689
  0
LINE
  8
_0-0_
  6
CONTINUOUS
 62
    2
 10
283.16922045560869
 20
34.265114063025578
 11
283.16922045560869
 21
22.754857968658996
  0
LINE
  8
_0-0_
  6
CONTINUOUS
 62
    2
 10
254.04329391956372
 20
32.265114063025578
 11
250.04329391956372
 21
32.265114063025578
  0
LINE
  8
_0-0_
  6
CONTINUOUS
 62
    2
 10
250.04329391956372
 20
24.754857968658996
 11
254.04329391956372
 21
24.754857968658996
  0
LINE
  8
_0-0_
  6
CONTINUOUS
 62
    2
 10
277.27110830532968
 20
27.354857968659019
 11
275.31336900826739
 21
31.553243439762753
  0
LINE
  8
_0-0_
  6
CONTINUOUS
 62
    2
 10
273.35562971120515
 20
27.354857968659019
 11
275.31336900826739
 21
31.553243439762753
  0
LINE
  8
_0-0_
  6
CONTINUOUS
 62
    2
 10
271.21061448369215
 20
22.754857968658996
 11
272.42301439489512
 21
25.354857968659132
  0
LINE
  8
_0-0_
  6
CONTINUOUS
 62
    2
 10
279.41612353284273
 20
22.754857968658996
 11
278.20372362163977
 21
25.354857968659132
  0
LINE
  8
_0-0_
  6
CONTINUOUS
 62
    2
 10
285.76922045560866
 20
32.265114063025578
 11
285.76922045560866
 21
22.754857968658996
  0
LINE
  8
_0-0_
  6
CONTINUOUS
 62
    2
 10
232.99022777724502
 20
22.754857968658996
 11
235.59022777724505
 21
22.754857968658996
  0
LINE
  8
_0-0_
  6
CONTINUOUS
 62
    2
 10
243.50478816996207
 20
22.754857968658996
 11
246.10478816996198
 21
22.754857968658996
  0
LINE
  8
_0-0_
  6
CONTINUOUS
 62
    2
 10
240.73746760583373
 20
34.265114063025578
 11
246.10478816996198
 21
22.754857968658996
  0
LINE
  8
_0-0_
  6
CONTINUOUS
 62
    2
 10
240.73746760583373
 20
34.265114063025578
 11
238.35754834137339
 21
34.265114063025578
  0
LINE
  8
_0-0_
  6
CONTINUOUS
 62
    2
 10
247.44329391956381
 20
34.265114063025578
 11
247.44329391956381
 21
22.754857968658996
  0
LINE
  8
_0-0_
  6
CONTINUOUS
 62
    2
 10
250.04329391956372
 20
32.265114063025578
 11
250.04329391956372
 21
24.754857968658996
  0
LINE
  8
_0-0_
  6
CONTINUOUS
 62
    2
 10
247.44329391956381
 20
22.754857968658996
 11
254.04329391956372
 21
22.754857968658996
  0
LINE
  8
_0-0_
  6
CONTINUOUS
 62
    2
 10
254.04329391956372
 20
34.265114063025578
 11
247.44329391956381
 21
34.265114063025578
  0
LINE
  8
_0-0_
  6
CONTINUOUS
 62
    2
 10
261.24329391956377
 20
34.265114063025578
 11
258.64329391956369
 21
34.265114063025578
  0
LINE
  8
_0-0_
  6
CONTINUOUS
 62
    2
 10
264.01061448369211
 20
22.754857968658996
 11
266.61061448369213
 21
22.754857968658996
  0
LINE
  8
_0-0_
  6
CONTINUOUS
 62
    2
 10
271.97793504782044
 20
34.265114063025578
 11
269.37793504782047
 21
34.265114063025578
  0
LINE
  8
_0-0_
  6
CONTINUOUS
 62
    2
 10
268.61061448369207
 20
22.754857968658996
 11
271.21061448369215
 21
22.754857968658996
  0
LINE
  8
_0-0_
  6
CONTINUOUS
 62
    2
 10
279.41612353284273
 20
22.754857968658996
 11
282.01612353284264
 21
22.754857968658996
  0
LINE
  8
_0-0_
  6
CONTINUOUS
 62
    2
 10
283.16922045560869
 20
22.754857968658996
 11
285.76922045560866
 21
22.754857968658996
  0
LINE
  8
_0-0_
  6
CONTINUOUS
 62
    2
 10
291.71188801778732
 20
22.754857968658996
 11
295.12673921085837
 21
22.754857968658996
  0
LINE
  8
_0-0_
  6
CONTINUOUS
 62
    2
 10
295.12673921085837
 20
34.265114063025578
 11
292.92673921085833
 21
34.265114063025578
  0
LINE
  8
_0-0_
  6
CONTINUOUS
 62
    2
 10
287.11367423918676
 20
34.265114063025578
 11
283.16922045560869
 21
34.265114063025578
  0
LINE
  8
_0-0_
  6
CONTINUOUS
 62
    2
 10
276.64880296871434
 20
34.265114063025578
 11
273.97793504782049
 21
34.265114063025578
  0
LINE
  8
_0-0_
  6
CONTINUOUS
 62
    2
 10
233.13490257003735
 20
23.065114063025533
 11
235.73490257003738
 21
23.065114063025533
  0
LINE
  8
_0-0_
  6
CONTINUOUS
 62
    2
 10
243.36011337716974
 20
23.065114063025533
 11
245.96011337716965
 21
23.065114063025533
  0
LINE
  8
_0-0_
  6
CONTINUOUS
 62
    2
 10
247.44329391956381
 20
23.065114063025533
 11
255.16483003315659
 21
23.065114063025533
  0
LINE
  8
_0-0_
  6
CONTINUOUS
 62
    2
 10
263.86593969089978
 20
23.065114063025533
 11
266.75528927648446
 21
23.065114063025533
  0
LINE
  8
_0-0_
  6
CONTINUOUS
 62
    2
 10
268.75528927648458
 20
23.065114063025533
 11
271.35528927648448
 21
23.065114063025533
  0
LINE
  8
_0-0_
  6
CONTINUOUS
 62
    2
 10
279.2714487400504
 20
23.065114063025533
 11
281.87144874005031
 21
23.065114063025533
  0
LINE
  8
_0-0_
  6
CONTINUOUS
 62
    2
 10
283.16922045560869
 20
23.065114063025533
 11
285.76922045560866
 21
23.065114063025533
  0
LINE
  8
_0-0_
  6
CONTINUOUS
 62
    2
 10
291.51801849317457
 20
23.065114063025533
 11
295.12673921085837
 21
23.065114063025533
  0
LINE
  8
_0-0_
  6
CONTINUOUS
 62
    2
 10
233.32142563329938
 20
23.465114063025624
 11
235.92142563329941
 21
23.465114063025624
  0
LINE
  8
_0-0_
  6
CONTINUOUS
 62
    2
 10
243.17359031390771
 20
23.465114063025624
 11
245.77359031390762
 21
23.465114063025624
  0
LINE
  8
_0-0_
  6
CONTINUOUS
 62
    2
 10
247.44329391956381
 20
23.465114063025624
 11
256.22699242303617
 21
23.465114063025624
  0
LINE
  8
_0-0_
  6
CONTINUOUS
 62
    2
 10
263.67941662763775
 20
23.465114063025624
 11
266.94181233974649
 21
23.465114063025624
  0
LINE
  8
_0-0_
  6
CONTINUOUS
 62
    2
 10
268.94181233974643
 20
23.465114063025624
 11
271.54181233974651
 21
23.465114063025624
  0
LINE
  8
_0-0_
  6
CONTINUOUS
 62
    2
 10
279.08492567678837
 20
23.465114063025624
 11
281.68492567678828
 21
23.465114063025624
  0
LINE
  8
_0-0_
  6
CONTINUOUS
 62
    2
 10
283.16922045560869
 20
23.465114063025624
 11
285.76922045560866
 21
23.465114063025624
  0
LINE
  8
_0-0_
  6
CONTINUOUS
 62
    2
 10
291.26807075241089
 20
23.465114063025624
 11
295.12673921085837
 21
23.465114063025624
  0
LINE
  8
_0-0_
  6
CONTINUOUS
 62
    2
 10
233.50794869656141
 20
23.865114063025601
 11
236.10794869656144
 21
23.865114063025601
  0
LINE
  8
_0-0_
  6
CONTINUOUS
 62
    2
 10
242.98706725064568
 20
23.865114063025601
 11
245.58706725064559
 21
23.865114063025601
  0
LINE
  8
_0-0_
  6
CONTINUOUS
 62
    2
 10
247.44329391956381
 20
23.865114063025601
 11
256.95032297285667
 21
23.865114063025601
  0
LINE
  8
_0-0_
  6
CONTINUOUS
 62
    2
 10
263.49289356437572
 20
23.865114063025601
 11
267.12833540300852
 21
23.865114063025601
  0
LINE
  8
_0-0_
  6
CONTINUOUS
 62
    2
 10
269.12833540300846
 20
23.865114063025601
 11
271.72833540300854
 21
23.865114063025601
  0
LINE
  8
_0-0_
  6
CONTINUOUS
 62
    2
 10
278.89840261352634
 20
23.865114063025601
 11
281.49840261352625
 21
23.865114063025601
  0
LINE
  8
_0-0_
  6
CONTINUOUS
 62
    2
 10
283.16922045560869
 20
23.865114063025601
 11
285.76922045560866
 21
23.865114063025601
  0
LINE
  8
_0-0_
  6
CONTINUOUS
 62
    2
 10
291.01812301164711
 20
23.865114063025601
 11
295.12673921085837
 21
23.865114063025601
  0
LINE
  8
_0-0_
  6
CONTINUOUS
 62
    2
 10
233.69447175982333
 20
24.265114063025692
 11
236.29447175982347
 21
24.265114063025692
  0
LINE
  8
_0-0_
  6
CONTINUOUS
 62
    2
 10
242.80054418738365
 20
24.265114063025692
 11
245.40054418738367
 21
24.265114063025692
  0
LINE
  8
_0-0_
  6
CONTINUOUS
 62
    2
 10
247.44329391956381
 20
24.265114063025692
 11
257.4424775328298
 21
24.265114063025692
  0
LINE
  8
_0-0_
  6
CONTINUOUS
 62
    2
 10
263.30637050111369
 20
24.265114063025692
 11
267.31485846627044
 21
24.265114063025692
  0
LINE
  8
_0-0_
  6
CONTINUOUS
 62
    2
 10
269.31485846627044
 20
24.265114063025692
 11
271.9148584662704
 21
24.265114063025692
  0
LINE
  8
_0-0_
  6
CONTINUOUS
 62
    2
 10
278.71187955026431
 20
24.265114063025692
 11
281.31187955026428
 21
24.265114063025692
  0
LINE
  8
_0-0_
  6
CONTINUOUS
 62
    2
 10
283.16922045560869
 20
24.265114063025692
 11
285.76922045560866
 21
24.265114063025692
  0
LINE
  8
_0-0_
  6
CONTINUOUS
 62
    2
 10
290.76817527088343
 20
24.265114063025692
 11
295.12673921085837
 21
24.265114063025692
  0
LINE
  8
_0-0_
  6
CONTINUOUS
 62
    2
 10
233.88099482308536
 20
24.665114063025555
 11
236.48099482308538
 21
24.665114063025555
  0
LINE
  8
_0-0_
  6
CONTINUOUS
 62
    2
 10
242.61402112412162
 20
24.665114063025555
 11
245.21402112412164
 21
24.665114063025555
  0
LINE
  8
_0-0_
  6
CONTINUOUS
 62
    2
 10
247.44329391956381
 20
24.665114063025555
 11
257.7814208325081
 21
24.665114063025555
  0
LINE
  8
_0-0_
  6
CONTINUOUS
 62
    2
 10
263.11984743785177
 20
24.665114063025555
 11
267.50138152953247
 21
24.665114063025555
  0
LINE
  8
_0-0_
  6
CONTINUOUS
 62
    2
 10
269.50138152953247
 20
24.665114063025555
 11
272.10138152953243
 21
24.665114063025555
  0
LINE
  8
_0-0_
  6
CONTINUOUS
 62
    2
 10
278.52535648700228
 20
24.665114063025555
 11
281.12535648700242
 21
24.665114063025555
  0
LINE
  8
_0-0_
  6
CONTINUOUS
 62
    2
 10
283.16922045560869
 20
24.665114063025555
 11
285.76922045560866
 21
24.665114063025555
  0
LINE
  8
_0-0_
  6
CONTINUOUS
 62
    2
 10
290.51822753011965
 20
24.665114063025555
 11
295.12673921085837
 21
24.665114063025555
  0
LINE
  8
_0-0_
  6
CONTINUOUS
 62
    2
 10
234.06751788634739
 20
25.065114063025419
 11
236.66751788634741
 21
25.065114063025419
  0
LINE
  8
_0-0_
  6
CONTINUOUS
 62
    2
 10
242.42749806085959
 20
25.065114063025419
 11
245.02749806085973
 21
25.065114063025419
  0
LINE
  8
_0-0_
  6
CONTINUOUS
 62
    2
 10
247.44329391956381
 20
25.065114063025419
 11
250.04329391956372
 21
25.065114063025419
  0
LINE
  8
_0-0_
  6
CONTINUOUS
 62
    2
 10
254.58904435459152
 20
25.065114063025419
 11
258.00298524266833
 21
25.065114063025419
  0
LINE
  8
_0-0_
  6
CONTINUOUS
 62
    2
 10
262.93332437458974
 20
25.065114063025419
 11
267.6879045927945
 21
25.065114063025419
  0
LINE
  8
_0-0_
  6
CONTINUOUS
 62
    2
 10
269.6879045927945
 20
25.065114063025419
 11
272.28790459279446
 21
25.065114063025419
  0
LINE
  8
_0-0_
  6
CONTINUOUS
 62
    2
 10
278.33883342374031
 20
25.065114063025419
 11
280.93883342374039
 21
25.065114063025419
  0
LINE
  8
_0-0_
  6
CONTINUOUS
 62
    2
 10
283.16922045560869
 20
25.065114063025419
 11
285.76922045560866
 21
25.065114063025419
  0
LINE
  8
_0-0_
  6
CONTINUOUS
 62
    2
 10
290.26827978935586
 20
25.065114063025419
 11
292.8624722767525
 21
25.065114063025419
  0
LINE
  8
_0-0_
  6
CONTINUOUS
 62
    2
 10
292.92673921085833
 20
25.065114063025419
 11
295.12673921085837
 21
25.065114063025419
  0
LINE
  8
_0-0_
  6
CONTINUOUS
 62
    2
 10
234.25404094960942
 20
25.465114063025624
 11
244.8409749975977
 21
25.465114063025624
  0
LINE
  8
_0-0_
  6
CONTINUOUS
 62
    2
 10
247.44329391956381
 20
25.465114063025624
 11
250.04329391956372
 21
25.465114063025624
  0
LINE
  8
_0-0_
  6
CONTINUOUS
 62
    2
 10
255.15786722104514
 20
25.465114063025624
 11
258.15521203888017
 21
25.465114063025624
  0
LINE
  8
_0-0_
  6
CONTINUOUS
 62
    2
 10
262.74680131132772
 20
25.465114063025624
 11
267.87442765605653
 21
25.465114063025624
  0
LINE
  8
_0-0_
  6
CONTINUOUS
 62
    2
 10
269.87442765605653
 20
25.465114063025624
 11
280.75231036047836
 21
25.465114063025624
  0
LINE
  8
_0-0_
  6
CONTINUOUS
 62
    2
 10
283.16922045560869
 20
25.465114063025624
 11
285.76922045560866
 21
25.465114063025624
  0
LINE
  8
_0-0_
  6
CONTINUOUS
 62
    2
 10
290.01833204859213
 20
25.465114063025624
 11
292.61252453598883
 21
25.465114063025624
  0
LINE
  8
_0-0_
  6
CONTINUOUS
 62
    2
 10
292.92673921085833
 20
25.465114063025624
 11
295.12673921085837
 21
25.465114063025624
  0
LINE
  8
_0-0_
  6
CONTINUOUS
 62
    2
 10
234.44056401287145
 20
25.865114063025715
 11
244.65445193433567
 21
25.865114063025715
  0
LINE
  8
_0-0_
  6
CONTINUOUS
 62
    2
 10
247.44329391956381
 20
25.865114063025715
 11
250.04329391956372
 21
25.865114063025715
  0
LINE
  8
_0-0_
  6
CONTINUOUS
 62
    2
 10
255.5214227665079
 20
25.865114063025715
 11
258.27322969126027
 21
25.865114063025715
  0
LINE
  8
_0-0_
  6
CONTINUOUS
 62
    2
 10
262.56027824806574
 20
25.865114063025715
 11
265.16027824806565
 21
25.865114063025715
  0
LINE
  8
_0-0_
  6
CONTINUOUS
 62
    2
 10
265.46095071931848
 20
25.865114063025715
 11
268.06095071931856
 21
25.865114063025715
  0
LINE
  8
_0-0_
  6
CONTINUOUS
 62
    2
 10
270.06095071931856
 20
25.865114063025715
 11
280.56578729721633
 21
25.865114063025715
  0
LINE
  8
_0-0_
  6
CONTINUOUS
 62
    2
 10
283.16922045560869
 20
25.865114063025715
 11
285.76922045560866
 21
25.865114063025715
  0
LINE
  8
_0-0_
  6
CONTINUOUS
 62
    2
 10
289.76838430782851
 20
25.865114063025715
 11
292.36257679522498
 21
25.865114063025715
  0
LINE
  8
_0-0_
  6
CONTINUOUS
 62
    2
 10
292.92673921085833
 20
25.865114063025715
 11
295.12673921085837
 21
25.865114063025715
  0
LINE
  8
_0-0_
  6
CONTINUOUS
 62
    2
 10
234.62708707613348
 20
26.265114063025692
 11
244.46792887107364
 21
26.265114063025692
  0
LINE
  8
_0-0_
  6
CONTINUOUS
 62
    2
 10
247.44329391956381
 20
26.265114063025692
 11
250.04329391956372
 21
26.265114063025692
  0
LINE
  8
_0-0_
  6
CONTINUOUS
 62
    2
 10
255.73820068717953
 20
26.265114063025692
 11
258.37309700584211
 21
26.265114063025692
  0
LINE
  8
_0-0_
  6
CONTINUOUS
 62
    2
 10
262.37375518480371
 20
26.265114063025692
 11
264.97375518480362
 21
26.265114063025692
  0
LINE
  8
_0-0_
  6
CONTINUOUS
 62
    2
 10
265.64747378258045
 20
26.265114063025692
 11
268.24747378258041
 21
26.265114063025692
  0
LINE
  8
_0-0_
  6
CONTINUOUS
 62
    2
 10
270.24747378258047
 20
26.265114063025692
 11
280.3792642339543
 21
26.265114063025692
  0
LINE
  8
_0-0_
  6
CONTINUOUS
 62
    2
 10
283.16922045560869
 20
26.265114063025692
 11
285.76922045560866
 21
26.265114063025692
  0
LINE
  8
_0-0_
  6
CONTINUOUS
 62
    2
 10
289.51843656706473
 20
26.265114063025692
 11
292.11262905446137
 21
26.265114063025692
  0
LINE
  8
_0-0_
  6
CONTINUOUS
 62
    2
 10
292.92673921085833
 20
26.265114063025692
 11
295.12673921085837
 21
26.265114063025692
  0
LINE
  8
_0-0_
  6
CONTINUOUS
 62
    2
 10
234.81361013939539
 20
26.665114063025555
 11
244.28140580781161
 21
26.665114063025555
  0
LINE
  8
_0-0_
  6
CONTINUOUS
 62
    2
 10
247.44329391956381
 20
26.665114063025555
 11
250.04329391956372
 21
26.665114063025555
  0
LINE
  8
_0-0_
  6
CONTINUOUS
 62
    2
 10
255.8738571490095
 20
26.665114063025555
 11
258.45863766308622
 21
26.665114063025555
  0
LINE
  8
_0-0_
  6
CONTINUOUS
 62
    2
 10
262.18723212154168
 20
26.665114063025555
 11
264.78723212154176
 21
26.665114063025555
  0
LINE
  8
_0-0_
  6
CONTINUOUS
 62
    2
 10
265.83399684584248
 20
26.665114063025555
 11
268.43399684584244
 21
26.665114063025555
  0
LINE
  8
_0-0_
  6
CONTINUOUS
 62
    2
 10
270.4339968458425
 20
26.665114063025555
 11
280.19274117069227
 21
26.665114063025555
  0
LINE
  8
_0-0_
  6
CONTINUOUS
 62
    2
 10
283.16922045560869
 20
26.665114063025555
 11
285.76922045560866
 21
26.665114063025555
  0
LINE
  8
_0-0_
  6
CONTINUOUS
 62
    2
 10
289.268488826301
 20
26.665114063025555
 11
291.86268131369758
 21
26.665114063025555
  0
LINE
  8
_0-0_
  6
CONTINUOUS
 62
    2
 10
292.92673921085833
 20
26.665114063025555
 11
295.12673921085837
 21
26.665114063025555
  0
LINE
  8
_0-0_
  6
CONTINUOUS
 62
    2
 10
235.00013320265742
 20
27.065114063025533
 11
244.09488274454958
 21
27.065114063025533
  0
LINE
  8
_0-0_
  6
CONTINUOUS
 62
    2
 10
247.44329391956381
 20
27.065114063025533
 11
250.04329391956372
 21
27.065114063025533
  0
LINE
  8
_0-0_
  6
CONTINUOUS
 62
    2
 10
255.95654990851875
 20
27.065114063025533
 11
258.52833207126974
 21
27.065114063025533
  0
LINE
  8
_0-0_
  6
CONTINUOUS
 62
    2
 10
262.00070905827965
 20
27.065114063025533
 11
264.60070905827973
 21
27.065114063025533
  0
LINE
  8
_0-0_
  6
CONTINUOUS
 62
    2
 10
266.02051990910451
 20
27.065114063025533
 11
268.62051990910442
 21
27.065114063025533
  0
LINE
  8
_0-0_
  6
CONTINUOUS
 62
    2
 10
270.62051990910453
 20
27.065114063025533
 11
280.0062181074303
 21
27.065114063025533
  0
LINE
  8
_0-0_
  6
CONTINUOUS
 62
    2
 10
283.16922045560869
 20
27.065114063025533
 11
285.76922045560866
 21
27.065114063025533
  0
LINE
  8
_0-0_
  6
CONTINUOUS
 62
    2
 10
289.01854108553727
 20
27.065114063025533
 11
291.61273357293385
 21
27.065114063025533
  0
LINE
  8
_0-0_
  6
CONTINUOUS
 62
    2
 10
292.92673921085833
 20
27.065114063025533
 11
295.12673921085837
 21
27.065114063025533
  0
LINE
  8
_0-0_
  6
CONTINUOUS
 62
    2
 10
235.18665626591934
 20
27.465114063025624
 11
237.78665626591936
 21
27.465114063025624
  0
LINE
  8
_0-0_
  6
CONTINUOUS
 62
    2
 10
241.30835968128764
 20
27.465114063025624
 11
243.90835968128766
 21
27.465114063025624
  0
LINE
  8
_0-0_
  6
CONTINUOUS
 62
    2
 10
247.44329391956381
 20
27.465114063025624
 11
250.04329391956372
 21
27.465114063025624
  0
LINE
  8
_0-0_
  6
CONTINUOUS
 62
    2
 10
256.00518852146843
 20
27.465114063025624
 11
258.58193064996118
 21
27.465114063025624
  0
LINE
  8
_0-0_
  6
CONTINUOUS
 62
    2
 10
261.81418599501762
 20
27.465114063025624
 11
264.41418599501776
 21
27.465114063025624
  0
LINE
  8
_0-0_
  6
CONTINUOUS
 62
    2
 10
266.20704297236654
 20
27.465114063025624
 11
268.80704297236645
 21
27.465114063025624
  0
LINE
  8
_0-0_
  6
CONTINUOUS
 62
    2
 10
270.80704297236639
 20
27.465114063025624
 11
273.40704297236647
 21
27.465114063025624
  0
LINE
  8
_0-0_
  6
CONTINUOUS
 62
    2
 10
277.2196950441683
 20
27.465114063025624
 11
279.81969504416827
 21
27.465114063025624
  0
LINE
  8
_0-0_
  6
CONTINUOUS
 62
    2
 10
283.16922045560869
 20
27.465114063025624
 11
285.76922045560866
 21
27.465114063025624
  0
LINE
  8
_0-0_
  6
CONTINUOUS
 62
    2
 10
288.76859334477359
 20
27.465114063025624
 11
291.36278583217012
 21
27.465114063025624
  0
LINE
  8
_0-0_
  6
CONTINUOUS
 62
    2
 10
292.92673921085833
 20
27.465114063025624
 11
295.12673921085837
 21
27.465114063025624
  0
LINE
  8
_0-0_
  6
CONTINUOUS
 62
    2
 10
235.37317932918137
 20
27.865114063025828
 11
237.97317932918139
 21
27.865114063025828
  0
LINE
  8
_0-0_
  6
CONTINUOUS
 62
    2
 10
241.12183661802561
 20
27.865114063025828
 11
243.72183661802563
 21
27.865114063025828
  0
LINE
  8
_0-0_
  6
CONTINUOUS
 62
    2
 10
247.44329391956381
 20
27.865114063025828
 11
250.04329391956372
 21
27.865114063025828
  0
LINE
  8
_0-0_
  6
CONTINUOUS
 62
    2
 10
256.03111631673551
 20
27.865114063025828
 11
258.61913358748308
 21
27.865114063025828
  0
LINE
  8
_0-0_
  6
CONTINUOUS
 62
    2
 10
261.62766293175559
 20
27.865114063025828
 11
264.22766293175573
 21
27.865114063025828
  0
LINE
  8
_0-0_
  6
CONTINUOUS
 62
    2
 10
266.39356603562857
 20
27.865114063025828
 11
268.99356603562848
 21
27.865114063025828
  0
LINE
  8
_0-0_
  6
CONTINUOUS
 62
    2
 10
270.99356603562842
 20
27.865114063025828
 11
273.5935660356285
 21
27.865114063025828
  0
LINE
  8
_0-0_
  6
CONTINUOUS
 62
    2
 10
277.03317198090633
 20
27.865114063025828
 11
279.63317198090641
 21
27.865114063025828
  0
LINE
  8
_0-0_
  6
CONTINUOUS
 62
    2
 10
283.16922045560869
 20
27.865114063025828
 11
285.76922045560866
 21
27.865114063025828
  0
LINE
  8
_0-0_
  6
CONTINUOUS
 62
    2
 10
288.51864560400981
 20
27.865114063025828
 11
291.11283809140645
 21
27.865114063025828
  0
LINE
  8
_0-0_
  6
CONTINUOUS
 62
    2
 10
292.92673921085833
 20
27.865114063025828
 11
295.12673921085837
 21
27.865114063025828
  0
LINE
  8
_0-0_
  6
CONTINUOUS
 62
    2
 10
235.5597023924434
 20
28.265114063025578
 11
238.15970239244331
 21
28.265114063025578
  0
LINE
  8
_0-0_
  6
CONTINUOUS
 62
    2
 10
240.93531355476358
 20
28.265114063025578
 11
243.53531355476372
 21
28.265114063025578
  0
LINE
  8
_0-0_
  6
CONTINUOUS
 62
    2
 10
247.44329391956381
 20
28.265114063025578
 11
250.04329391956372
 21
28.265114063025578
  0
LINE
  8
_0-0_
  6
CONTINUOUS
 62
    2
 10
256.04199014638465
 20
28.265114063025578
 11
258.63975889877759
 21
28.265114063025578
  0
LINE
  8
_0-0_
  6
CONTINUOUS
 62
    2
 10
261.44113986849374
 20
28.265114063025578
 11
264.0411398684937
 21
28.265114063025578
  0
LINE
  8
_0-0_
  6
CONTINUOUS
 62
    2
 10
266.58008909889043
 20
28.265114063025578
 11
269.18008909889051
 21
28.265114063025578
  0
LINE
  8
_0-0_
  6
CONTINUOUS
 62
    2
 10
271.18008909889045
 20
28.265114063025578
 11
273.78008909889036
 21
28.265114063025578
  0
LINE
  8
_0-0_
  6
CONTINUOUS
 62
    2
 10
276.8466489176443
 20
28.265114063025578
 11
279.44664891764438
 21
28.265114063025578
  0
LINE
  8
_0-0_
  6
CONTINUOUS
 62
    2
 10
283.16922045560869
 20
28.265114063025578
 11
285.76922045560866
 21
28.265114063025578
  0
LINE
  8
_0-0_
  6
CONTINUOUS
 62
    2
 10
288.26869786324613
 20
28.265114063025578
 11
290.86289035064266
 21
28.265114063025578
  0
LINE
  8
_0-0_
  6
CONTINUOUS
 62
    2
 10
292.92673921085833
 20
28.265114063025578
 11
295.12673921085837
 21
28.265114063025578
  0
LINE
  8
_0-0_
  6
CONTINUOUS
 62
    2
 10
235.74622545570543
 20
28.665114063025669
 11
238.34622545570534
 21
28.665114063025669
  0
LINE
  8
_0-0_
  6
CONTINUOUS
 62
    2
 10
240.74879049150167
 20
28.665114063025669
 11
243.34879049150169
 21
28.665114063025669
  0
LINE
  8
_0-0_
  6
CONTINUOUS
 62
    2
 10
247.44329391956381
 20
28.665114063025669
 11
250.04329391956372
 21
28.665114063025669
  0
LINE
  8
_0-0_
  6
CONTINUOUS
 62
    2
 10
256.04246797038934
 20
28.665114063025669
 11
258.64105445985831
 21
28.665114063025669
  0
LINE
  8
_0-0_
  6
CONTINUOUS
 62
    2
 10
261.25461680523176
 20
28.665114063025669
 11
263.85461680523167
 21
28.665114063025669
  0
LINE
  8
_0-0_
  6
CONTINUOUS
 62
    2
 10
266.76661216215246
 20
28.665114063025669
 11
269.36661216215253
 21
28.665114063025669
  0
LINE
  8
_0-0_
  6
CONTINUOUS
 62
    2
 10
271.36661216215248
 20
28.665114063025669
 11
273.96661216215239
 21
28.665114063025669
  0
LINE
  8
_0-0_
  6
CONTINUOUS
 62
    2
 10
276.66012585438244
 20
28.665114063025669
 11
279.26012585438235
 21
28.665114063025669
  0
LINE
  8
_0-0_
  6
CONTINUOUS
 62
    2
 10
283.16922045560869
 20
28.665114063025669
 11
285.76922045560866
 21
28.665114063025669
  0
LINE
  8
_0-0_
  6
CONTINUOUS
 62
    2
 10
288.01875012248234
 20
28.665114063025669
 11
290.61294260987898
 21
28.665114063025669
  0
LINE
  8
_0-0_
  6
CONTINUOUS
 62
    2
 10
292.92673921085833
 20
28.665114063025669
 11
295.12673921085837
 21
28.665114063025669
  0
LINE
  8
_0-0_
  6
CONTINUOUS
 62
    2
 10
235.93274851896746
 20
29.065114063025646
 11
238.53274851896737
 21
29.065114063025646
  0
LINE
  8
_0-0_
  6
CONTINUOUS
 62
    2
 10
240.56226742823975
 20
29.065114063025646
 11
243.16226742823966
 21
29.065114063025646
  0
LINE
  8
_0-0_
  6
CONTINUOUS
 62
    2
 10
247.44329391956381
 20
29.065114063025646
 11
250.04329391956372
 21
29.065114063025646
  0
LINE
  8
_0-0_
  6
CONTINUOUS
 62
    2
 10
256.03381645462736
 20
29.065114063025646
 11
258.62390205070074
 21
29.065114063025646
  0
LINE
  8
_0-0_
  6
CONTINUOUS
 62
    2
 10
261.06809374196973
 20
29.065114063025646
 11
263.66809374196964
 21
29.065114063025646
  0
LINE
  8
_0-0_
  6
CONTINUOUS
 62
    2
 10
266.95313522541443
 20
29.065114063025646
 11
269.55313522541439
 21
29.065114063025646
  0
LINE
  8
_0-0_
  6
CONTINUOUS
 62
    2
 10
271.55313522541451
 20
29.065114063025646
 11
274.15313522541442
 21
29.065114063025646
  0
LINE
  8
_0-0_
  6
CONTINUOUS
 62
    2
 10
276.47360279112041
 20
29.065114063025646
 11
279.07360279112032
 21
29.065114063025646
  0
LINE
  8
_0-0_
  6
CONTINUOUS
 62
    2
 10
283.16922045560869
 20
29.065114063025646
 11
285.76922045560866
 21
29.065114063025646
  0
LINE
  8
_0-0_
  6
CONTINUOUS
 62
    2
 10
287.76880238171856
 20
29.065114063025646
 11
290.3629948691152
 21
29.065114063025646
  0
LINE
  8
_0-0_
  6
CONTINUOUS
 62
    2
 10
292.92673921085833
 20
29.065114063025646
 11
295.12673921085837
 21
29.065114063025646
  0
LINE
  8
_0-0_
  6
CONTINUOUS
 62
    2
 10
236.11927158222937
 20
29.465114063025396
 11
238.7192715822294
 21
29.465114063025396
  0
LINE
  8
_0-0_
  6
CONTINUOUS
 62
    2
 10
240.37574436497772
 20
29.465114063025396
 11
242.97574436497763
 21
29.465114063025396
  0
LINE
  8
_0-0_
  6
CONTINUOUS
 62
    2
 10
247.44329391956381
 20
29.465114063025396
 11
250.04329391956372
 21
29.465114063025396
  0
LINE
  8
_0-0_
  6
CONTINUOUS
 62
    2
 10
256.01277533610249
 20
29.465114063025396
 11
258.59098663946145
 21
29.465114063025396
  0
LINE
  8
_0-0_
  6
CONTINUOUS
 62
    2
 10
260.8815706787077
 20
29.465114063025396
 11
263.48157067870778
 21
29.465114063025396
  0
LINE
  8
_0-0_
  6
CONTINUOUS
 62
    2
 10
267.13965828867646
 20
29.465114063025396
 11
269.73965828867642
 21
29.465114063025396
  0
LINE
  8
_0-0_
  6
CONTINUOUS
 62
    2
 10
271.73965828867648
 20
29.465114063025396
 11
274.33965828867645
 21
29.465114063025396
  0
LINE
  8
_0-0_
  6
CONTINUOUS
 62
    2
 10
276.28707972785838
 20
29.465114063025396
 11
278.88707972785841
 21
29.465114063025396
  0
LINE
  8
_0-0_
  6
CONTINUOUS
 62
    2
 10
283.16922045560869
 20
29.465114063025396
 11
285.76922045560866
 21
29.465114063025396
  0
LINE
  8
_0-0_
  6
CONTINUOUS
 62
    2
 10
287.51885464095483
 20
29.465114063025396
 11
290.11304712835152
 21
29.465114063025396
  0
LINE
  8
_0-0_
  6
CONTINUOUS
 62
    2
 10
292.92673921085833
 20
29.465114063025396
 11
295.12673921085837
 21
29.465114063025396
  0
LINE
  8
_0-0_
  6
CONTINUOUS
 62
    2
 10
236.3057946454914
 20
29.865114063025828
 11
238.90579464549143
 21
29.865114063025828
  0
LINE
  8
_0-0_
  6
CONTINUOUS
 62
    2
 10
240.18922130171569
 20
29.865114063025828
 11
242.7892213017156
 21
29.865114063025828
  0
LINE
  8
_0-0_
  6
CONTINUOUS
 62
    2
 10
247.44329391956381
 20
29.865114063025828
 11
250.04329391956372
 21
29.865114063025828
  0
LINE
  8
_0-0_
  6
CONTINUOUS
 62
    2
 10
255.97190569110205
 20
29.865114063025828
 11
258.5415606342836
 21
29.865114063025828
  0
LINE
  8
_0-0_
  6
CONTINUOUS
 62
    2
 10
260.69504761544567
 20
29.865114063025828
 11
263.29504761544575
 21
29.865114063025828
  0
LINE
  8
_0-0_
  6
CONTINUOUS
 62
    2
 10
267.32618135193849
 20
29.865114063025828
 11
269.92618135193845
 21
29.865114063025828
  0
LINE
  8
_0-0_
  6
CONTINUOUS
 62
    2
 10
271.92618135193851
 20
29.865114063025828
 11
274.52618135193848
 21
29.865114063025828
  0
LINE
  8
_0-0_
  6
CONTINUOUS
 62
    2
 10
276.10055666459635
 20
29.865114063025828
 11
278.70055666459638
 21
29.865114063025828
  0
LINE
  8
_0-0_
  6
CONTINUOUS
 62
    2
 10
283.16922045560869
 20
29.865114063025828
 11
285.76922045560866
 21
29.865114063025828
  0
LINE
  8
_0-0_
  6
CONTINUOUS
 62
    2
 10
287.26890690019121
 20
29.865114063025828
 11
289.86309938758768
 21
29.865114063025828
  0
LINE
  8
_0-0_
  6
CONTINUOUS
 62
    2
 10
292.92673921085833
 20
29.865114063025828
 11
295.12673921085837
 21
29.865114063025828
  0
LINE
  8
_0-0_
  6
CONTINUOUS
 62
    2
 10
236.49231770875332
 20
30.265114063025578
 11
239.09231770875346
 21
30.265114063025578
  0
LINE
  8
_0-0_
  6
CONTINUOUS
 62
    2
 10
240.00269823845366
 20
30.265114063025578
 11
242.60269823845368
 21
30.265114063025578
  0
LINE
  8
_0-0_
  6
CONTINUOUS
 62
    2
 10
247.44329391956381
 20
30.265114063025578
 11
250.04329391956372
 21
30.265114063025578
  0
LINE
  8
_0-0_
  6
CONTINUOUS
 62
    2
 10
255.90081000893866
 20
30.265114063025578
 11
258.47593601162754
 21
30.265114063025578
  0
LINE
  8
_0-0_
  6
CONTINUOUS
 62
    2
 10
260.50852455218364
 20
30.265114063025578
 11
263.10852455218372
 21
30.265114063025578
  0
LINE
  8
_0-0_
  6
CONTINUOUS
 62
    2
 10
267.51270441520052
 20
30.265114063025578
 11
270.11270441520043
 21
30.265114063025578
  0
LINE
  8
_0-0_
  6
CONTINUOUS
 62
    2
 10
272.11270441520037
 20
30.265114063025578
 11
274.71270441520051
 21
30.265114063025578
  0
LINE
  8
_0-0_
  6
CONTINUOUS
 62
    2
 10
275.91403360133432
 20
30.265114063025578
 11
278.51403360133435
 21
30.265114063025578
  0
LINE
  8
_0-0_
  6
CONTINUOUS
 62
    2
 10
283.16922045560869
 20
30.265114063025578
 11
285.76922045560866
 21
30.265114063025578
  0
LINE
  8
_0-0_
  6
CONTINUOUS
 62
    2
 10
287.01895915942742
 20
30.265114063025578
 11
289.61315164682406
 21
30.265114063025578
  0
LINE
  8
_0-0_
  6
CONTINUOUS
 62
    2
 10
292.92673921085833
 20
30.265114063025578
 11
295.12673921085837
 21
30.265114063025578
  0
LINE
  8
_0-0_
  6
CONTINUOUS
 62
    2
 10
236.67884077201535
 20
30.665114063025669
 11
239.27884077201549
 21
30.665114063025669
  0
LINE
  8
_0-0_
  6
CONTINUOUS
 62
    2
 10
239.81617517519163
 20
30.665114063025669
 11
242.41617517519165
 21
30.665114063025669
  0
LINE
  8
_0-0_
  6
CONTINUOUS
 62
    2
 10
247.44329391956381
 20
30.665114063025669
 11
250.04329391956372
 21
30.665114063025669
  0
LINE
  8
_0-0_
  6
CONTINUOUS
 62
    2
 10
255.78067768468168
 20
30.665114063025669
 11
258.39437402594643
 21
30.665114063025669
  0
LINE
  8
_0-0_
  6
CONTINUOUS
 62
    2
 10
260.32200148892161
 20
30.665114063025669
 11
262.92200148892181
 21
30.665114063025669
  0
LINE
  8
_0-0_
  6
CONTINUOUS
 62
    2
 10
267.69922747846255
 20
30.665114063025669
 11
270.29922747846246
 21
30.665114063025669
  0
LINE
  8
_0-0_
  6
CONTINUOUS
 62
    2
 10
272.2992274784624
 20
30.665114063025669
 11
274.89922747846248
 21
30.665114063025669
  0
LINE
  8
_0-0_
  6
CONTINUOUS
 62
    2
 10
275.72751053807229
 20
30.665114063025669
 11
278.32751053807232
 21
30.665114063025669
  0
LINE
  8
_0-0_
  6
CONTINUOUS
 62
    2
 10
283.16922045560869
 20
30.665114063025669
 11
285.76922045560866
 21
30.665114063025669
  0
LINE
  8
_0-0_
  6
CONTINUOUS
 62
    2
 10
286.76901141866364
 20
30.665114063025669
 11
289.36320390606028
 21
30.665114063025669
  0
LINE
  8
_0-0_
  6
CONTINUOUS
 62
    2
 10
292.92673921085833
 20
30.665114063025669
 11
295.12673921085837
 21
30.665114063025669
  0
LINE
  8
_0-0_
  6
CONTINUOUS
 62
    2
 10
236.86536383527738
 20
31.065114063025646
 11
239.4653638352774
 21
31.065114063025646
  0
LINE
  8
_0-0_
  6
CONTINUOUS
 62
    2
 10
239.6296521119296
 20
31.065114063025646
 11
242.22965211192974
 21
31.065114063025646
  0
LINE
  8
_0-0_
  6
CONTINUOUS
 62
    2
 10
247.44329391956381
 20
31.065114063025646
 11
250.04329391956372
 21
31.065114063025646
  0
LINE
  8
_0-0_
  6
CONTINUOUS
 62
    2
 10
255.58501642006229
 20
31.065114063025646
 11
258.29759617263829
 21
31.065114063025646
  0
LINE
  8
_0-0_
  6
CONTINUOUS
 62
    2
 10
260.13547842565976
 20
31.065114063025646
 11
262.73547842565978
 21
31.065114063025646
  0
LINE
  8
_0-0_
  6
CONTINUOUS
 62
    2
 10
267.88575054172446
 20
31.065114063025646
 11
270.48575054172449
 21
31.065114063025646
  0
LINE
  8
_0-0_
  6
CONTINUOUS
 62
    2
 10
272.48575054172443
 20
31.065114063025646
 11
275.08575054172434
 21
31.065114063025646
  0
LINE
  8
_0-0_
  6
CONTINUOUS
 62
    2
 10
275.54098747481038
 20
31.065114063025646
 11
278.14098747481034
 21
31.065114063025646
  0
LINE
  8
_0-0_
  6
CONTINUOUS
 62
    2
 10
283.16922045560869
 20
31.065114063025646
 11
285.76922045560866
 21
31.065114063025646
  0
LINE
  8
_0-0_
  6
CONTINUOUS
 62
    2
 10
286.51906367789996
 20
31.065114063025646
 11
289.11325616529655
 21
31.065114063025646
  0
LINE
  8
_0-0_
  6
CONTINUOUS
 62
    2
 10
292.92673921085833
 20
31.065114063025646
 11
295.12673921085837
 21
31.065114063025646
  0
LINE
  8
_0-0_
  6
CONTINUOUS
 62
    2
 10
237.05188689853941
 20
31.465114063025396
 11
242.04312904866771
 21
31.465114063025396
  0
LINE
  8
_0-0_
  6
CONTINUOUS
 62
    2
 10
247.44329391956381
 20
31.465114063025396
 11
250.04329391956372
 21
31.465114063025396
  0
LINE
  8
_0-0_
  6
CONTINUOUS
 62
    2
 10
255.25276008565305
 20
31.465114063025396
 11
258.18353808806785
 21
31.465114063025396
  0
LINE
  8
_0-0_
  6
CONTINUOUS
 62
    2
 10
259.94895536239773
 20
31.465114063025396
 11
262.54895536239775
 21
31.465114063025396
  0
LINE
  8
_0-0_
  6
CONTINUOUS
 62
    2
 10
268.07227360498649
 20
31.465114063025396
 11
270.67227360498651
 21
31.465114063025396
  0
LINE
  8
_0-0_
  6
CONTINUOUS
 62
    2
 10
272.67227360498646
 20
31.465114063025396
 11
275.27227360498637
 21
31.465114063025396
  0
LINE
  8
_0-0_
  6
CONTINUOUS
 62
    2
 10
275.35446441154835
 20
31.465114063025396
 11
277.95446441154832
 21
31.465114063025396
  0
LINE
  8
_0-0_
  6
CONTINUOUS
 62
    2
 10
283.16922045560869
 20
31.465114063025396
 11
285.76922045560866
 21
31.465114063025396
  0
LINE
  8
_0-0_
  6
CONTINUOUS
 62
    2
 10
286.26911593713618
 20
31.465114063025396
 11
288.86330842453282
 21
31.465114063025396
  0
LINE
  8
_0-0_
  6
CONTINUOUS
 62
    2
 10
292.92673921085833
 20
31.465114063025396
 11
295.12673921085837
 21
31.465114063025396
  0
LINE
  8
_0-0_
  6
CONTINUOUS
 62
    2
 10
237.23840996180144
 20
31.865114063025715
 11
241.85660598540568
 21
31.865114063025715
  0
LINE
  8
_0-0_
  6
CONTINUOUS
 62
    2
 10
247.44329391956381
 20
31.865114063025715
 11
250.04329391956372
 21
31.865114063025715
  0
LINE
  8
_0-0_
  6
CONTINUOUS
 62
    2
 10
254.73399901706063
 20
31.865114063025715
 11
258.04248511959679
 21
31.865114063025715
  0
LINE
  8
_0-0_
  6
CONTINUOUS
 62
    2
 10
259.76243229913581
 20
31.865114063025715
 11
262.36243229913572
 21
31.865114063025715
  0
LINE
  8
_0-0_
  6
CONTINUOUS
 62
    2
 10
268.25879666824852
 20
31.865114063025715
 11
270.85879666824854
 21
31.865114063025715
  0
LINE
  8
_0-0_
  6
CONTINUOUS
 62
    2
 10
272.85879666824849
 20
31.865114063025715
 11
277.76794134828629
 21
31.865114063025715
  0
LINE
  8
_0-0_
  6
CONTINUOUS
 62
    2
 10
283.16922045560869
 20
31.865114063025715
 11
285.76922045560866
 21
31.865114063025715
  0
LINE
  8
_0-0_
  6
CONTINUOUS
 62
    2
 10
286.0191681963725
 20
31.865114063025715
 11
288.61336068376914
 21
31.865114063025715
  0
LINE
  8
_0-0_
  6
CONTINUOUS
 62
    2
 10
292.92673921085833
 20
31.865114063025715
 11
295.12673921085837
 21
31.865114063025715
  0
LINE
  8
_0-0_
  6
CONTINUOUS
 62
    2
 10
237.42493302506347
 20
32.265114063025578
 11
241.67008292214365
 21
32.265114063025578
  0
LINE
  8
_0-0_
  6
CONTINUOUS
 62
    2
 10
247.44329391956381
 20
32.265114063025578
 11
250.04329391956372
 21
32.265114063025578
  0
LINE
  8
_0-0_
  6
CONTINUOUS
 62
    2
 10
254.04329391956372
 20
32.265114063025578
 11
257.84329391956368
 21
32.265114063025578
  0
LINE
  8
_0-0_
  6
CONTINUOUS
 62
    2
 10
259.57590923587378
 20
32.265114063025578
 11
262.17590923587369
 21
32.265114063025578
  0
LINE
  8
_0-0_
  6
CONTINUOUS
 62
    2
 10
268.44531973151038
 20
32.265114063025578
 11
271.04531973151046
 21
32.265114063025578
  0
LINE
  8
_0-0_
  6
CONTINUOUS
 62
    2
 10
273.04531973151046
 20
32.265114063025578
 11
277.58141828502426
 21
32.265114063025578
  0
LINE
  8
_0-0_
  6
CONTINUOUS
 62
    2
 10
283.16922045560869
 20
32.265114063025578
 11
285.76922045560866
 21
32.265114063025578
  0
LINE
  8
_0-0_
  6
CONTINUOUS
 62
    2
 10
285.76922045560866
 20
32.265114063025578
 11
288.36341294300536
 21
32.265114063025578
  0
LINE
  8
_0-0_
  6
CONTINUOUS
 62
    2
 10
292.92673921085833
 20
32.265114063025578
 11
295.12673921085837
 21
32.265114063025578
  0
LINE
  8
_0-0_
  6
CONTINUOUS
 62
    2
 10
237.61145608832538
 20
32.665114063025669
 11
241.48355985888162
 21
32.665114063025669
  0
LINE
  8
_0-0_
  6
CONTINUOUS
 62
    2
 10
247.44329391956381
 20
32.665114063025669
 11
257.52532057799334
 21
32.665114063025669
  0
LINE
  8
_0-0_
  6
CONTINUOUS
 62
    2
 10
259.38938617261175
 20
32.665114063025669
 11
261.98938617261172
 21
32.665114063025669
  0
LINE
  8
_0-0_
  6
CONTINUOUS
 62
    2
 10
268.63184279477241
 20
32.665114063025669
 11
271.23184279477249
 21
32.665114063025669
  0
LINE
  8
_0-0_
  6
CONTINUOUS
 62
    2
 10
273.23184279477249
 20
32.665114063025669
 11
277.39489522176223
 21
32.665114063025669
  0
LINE
  8
_0-0_
  6
CONTINUOUS
 62
    2
 10
283.16922045560869
 20
32.665114063025669
 11
288.11346520224168
 21
32.665114063025669
  0
LINE
  8
_0-0_
  6
CONTINUOUS
 62
    2
 10
292.92673921085833
 20
32.665114063025669
 11
295.12673921085837
 21
32.665114063025669
  0
LINE
  8
_0-0_
  6
CONTINUOUS
 62
    2
 10
237.79797915158741
 20
33.065114063025533
 11
241.29703679561959
 21
33.065114063025533
  0
LINE
  8
_0-0_
  6
CONTINUOUS
 62
    2
 10
247.44329391956381
 20
33.065114063025533
 11
257.07646720477652
 21
33.065114063025533
  0
LINE
  8
_0-0_
  6
CONTINUOUS
 62
    2
 10
259.20286310934972
 20
33.065114063025533
 11
261.80286310934969
 21
33.065114063025533
  0
LINE
  8
_0-0_
  6
CONTINUOUS
 62
    2
 10
268.81836585803444
 20
33.065114063025533
 11
271.41836585803452
 21
33.065114063025533
  0
LINE
  8
_0-0_
  6
CONTINUOUS
 62
    2
 10
273.41836585803452
 20
33.065114063025533
 11
277.20837215850037
 21
33.065114063025533
  0
LINE
  8
_0-0_
  6
CONTINUOUS
 62
    2
 10
283.16922045560869
 20
33.065114063025533
 11
287.8635174614779
 21
33.065114063025533
  0
LINE
  8
_0-0_
  6
CONTINUOUS
 62
    2
 10
292.92673921085833
 20
33.065114063025533
 11
295.12673921085837
 21
33.065114063025533
  0
LINE
  8
_0-0_
  6
CONTINUOUS
 62
    2
 10
237.98450221484933
 20
33.465114063025396
 11
241.11051373235767
 21
33.465114063025396
  0
LINE
  8
_0-0_
  6
CONTINUOUS
 62
    2
 10
247.44329391956381
 20
33.465114063025396
 11
256.40890753151058
 21
33.465114063025396
  0
LINE
  8
_0-0_
  6
CONTINUOUS
 62
    2
 10
259.01634004608769
 20
33.465114063025396
 11
261.61634004608783
 21
33.465114063025396
  0
LINE
  8
_0-0_
  6
CONTINUOUS
 62
    2
 10
269.00488892129647
 20
33.465114063025396
 11
271.60488892129638
 21
33.465114063025396
  0
LINE
  8
_0-0_
  6
CONTINUOUS
 62
    2
 10
273.60488892129644
 20
33.465114063025396
 11
277.02184909523834
 21
33.465114063025396
  0
LINE
  8
_0-0_
  6
CONTINUOUS
 62
    2
 10
283.16922045560869
 20
33.465114063025396
 11
287.61356972071422
 21
33.465114063025396
  0
LINE
  8
_0-0_
  6
CONTINUOUS
 62
    2
 10
292.92673921085833
 20
33.465114063025396
 11
295.12673921085837
 21
33.465114063025396
  0
LINE
  8
_0-0_
  6
CONTINUOUS
 62
    2
 10
238.17102527811136
 20
33.865114063025601
 11
240.92399066909564
 21
33.865114063025601
  0
LINE
  8
_0-0_
  6
CONTINUOUS
 62
    2
 10
247.44329391956381
 20
33.865114063025601
 11
255.44329391956376
 21
33.865114063025601
  0
LINE
  8
_0-0_
  6
CONTINUOUS
 62
    2
 10
258.82981698282572
 20
33.865114063025601
 11
261.4298169828258
 21
33.865114063025601
  0
LINE
  8
_0-0_
  6
CONTINUOUS
 62
    2
 10
269.1914119845585
 20
33.865114063025601
 11
271.79141198455841
 21
33.865114063025601
  0
LINE
  8
_0-0_
  6
CONTINUOUS
 62
    2
 10
273.79141198455847
 20
33.865114063025601
 11
276.83532603197636
 21
33.865114063025601
  0
LINE
  8
_0-0_
  6
CONTINUOUS
 62
    2
 10
283.16922045560869
 20
33.865114063025601
 11
287.36362197995038
 21
33.865114063025601
  0
LINE
  8
_0-0_
  6
CONTINUOUS
 62
    2
 10
292.92673921085833
 20
33.865114063025601
 11
295.12673921085837
 21
33.865114063025601
  0
LINE
  8
_0-0_
  6
CONTINUOUS
 62
    2
 10
238.35754834137339
 20
34.265114063025578
 11
240.73746760583373
 21
34.265114063025578
  0
LINE
  8
_0-0_
  6
CONTINUOUS
 62
    2
 10
247.44329391956381
 20
34.265114063025578
 11
254.04329391956372
 21
34.265114063025578
  0
LINE
  8
_0-0_
  6
CONTINUOUS
 62
    2
 10
258.64329391956369
 20
34.265114063025578
 11
261.24329391956377
 21
34.265114063025578
  0
LINE
  8
_0-0_
  6
CONTINUOUS
 62
    2
 10
269.37793504782047
 20
34.265114063025578
 11
271.97793504782044
 21
34.265114063025578
  0
LINE
  8
_0-0_
  6
CONTINUOUS
 62
    2
 10
273.97793504782049
 20
34.265114063025578
 11
276.64880296871434
 21
34.265114063025578
  0
LINE
  8
_0-0_
  6
CONTINUOUS
 62
    2
 10
283.16922045560869
 20
34.265114063025578
 11
287.11367423918676
 21
34.265114063025578
  0
LINE
  8
_0-0_
  6
CONTINUOUS
 62
    2
 10
292.92673921085833
 20
34.265114063025578
 11
295.12673921085837
 21
34.265114063025578
  0
LINE
  8
_0-0_
  6
CONTINUOUS
 62
    2
 10
233.04164103840645
 20
22.865114063025715
 11
235.64164103840636
 21
22.865114063025715
  0
LINE
  8
_0-0_
  6
CONTINUOUS
 62
    2
 10
243.45337490880064
 20
22.865114063025715
 11
246.05337490880066
 21
22.865114063025715
  0
LINE
  8
_0-0_
  6
CONTINUOUS
 62
    2
 10
247.44329391956381
 20
22.865114063025715
 11
254.4647484545232
 21
22.865114063025715
  0
LINE
  8
_0-0_
  6
CONTINUOUS
 62
    2
 10
263.95920122253079
 20
22.865114063025715
 11
266.6620277448535
 21
22.865114063025715
  0
LINE
  8
_0-0_
  6
CONTINUOUS
 62
    2
 10
268.66202774485356
 20
22.865114063025715
 11
271.26202774485347
 21
22.865114063025715
  0
LINE
  8
_0-0_
  6
CONTINUOUS
 62
    2
 10
279.36471027168142
 20
22.865114063025715
 11
281.96471027168133
 21
22.865114063025715
  0
LINE
  8
_0-0_
  6
CONTINUOUS
 62
    2
 10
283.16922045560869
 20
22.865114063025715
 11
285.76922045560866
 21
22.865114063025715
  0
LINE
  8
_0-0_
  6
CONTINUOUS
 62
    2
 10
291.64299236355635
 20
22.865114063025715
 11
295.12673921085837
 21
22.865114063025715
  0
LINE
  8
_0-0_
  6
CONTINUOUS
 62
    2
 10
233.22816410166837
 20
23.265114063025578
 11
235.82816410166839
 21
23.265114063025578
  0
LINE
  8
_0-0_
  6
CONTINUOUS
 62
    2
 10
243.26685184553872
 20
23.265114063025578
 11
245.86685184553863
 21
23.265114063025578
  0
LINE
  8
_0-0_
  6
CONTINUOUS
 62
    2
 10
247.44329391956381
 20
23.265114063025578
 11
255.74841921939861
 21
23.265114063025578
  0
LINE
  8
_0-0_
  6
CONTINUOUS
 62
    2
 10
263.77267815926876
 20
23.265114063025578
 11
266.84855080811548
 21
23.265114063025578
  0
LINE
  8
_0-0_
  6
CONTINUOUS
 62
    2
 10
268.84855080811542
 20
23.265114063025578
 11
271.4485508081155
 21
23.265114063025578
  0
LINE
  8
_0-0_
  6
CONTINUOUS
 62
    2
 10
279.17818720841939
 20
23.265114063025578
 11
281.7781872084193
 21
23.265114063025578
  0
LINE
  8
_0-0_
  6
CONTINUOUS
 62
    2
 10
283.16922045560869
 20
23.265114063025578
 11
285.76922045560866
 21
23.265114063025578
  0
LINE
  8
_0-0_
  6
CONTINUOUS
 62
    2
 10
291.39304462279273
 20
23.265114063025578
 11
295.12673921085837
 21
23.265114063025578
  0
LINE
  8
_0-0_
  6
CONTINUOUS
 62
    2
 10
233.4146871649304
 20
23.665114063025555
 11
236.01468716493042
 21
23.665114063025555
  0
LINE
  8
_0-0_
  6
CONTINUOUS
 62
    2
 10
243.08032878227669
 20
23.665114063025555
 11
245.6803287822766
 21
23.665114063025555
  0
LINE
  8
_0-0_
  6
CONTINUOUS
 62
    2
 10
247.44329391956381
 20
23.665114063025555
 11
256.62603948260357
 21
23.665114063025555
  0
LINE
  8
_0-0_
  6
CONTINUOUS
 62
    2
 10
263.58615509600673
 20
23.665114063025555
 11
267.03507387137751
 21
23.665114063025555
  0
LINE
  8
_0-0_
  6
CONTINUOUS
 62
    2
 10
269.03507387137745
 20
23.665114063025555
 11
271.63507387137753
 21
23.665114063025555
  0
LINE
  8
_0-0_
  6
CONTINUOUS
 62
    2
 10
278.99166414515736
 20
23.665114063025555
 11
281.59166414515727
 21
23.665114063025555
  0
LINE
  8
_0-0_
  6
CONTINUOUS
 62
    2
 10
283.16922045560869
 20
23.665114063025555
 11
285.76922045560866
 21
23.665114063025555
  0
LINE
  8
_0-0_
  6
CONTINUOUS
 62
    2
 10
291.14309688202894
 20
23.665114063025555
 11
295.12673921085837
 21
23.665114063025555
  0
LINE
  8
_0-0_
  6
CONTINUOUS
 62
    2
 10
233.60121022819243
 20
24.065114063025533
 11
236.20121022819245
 21
24.065114063025533
  0
LINE
  8
_0-0_
  6
CONTINUOUS
 62
    2
 10
242.89380571901467
 20
24.065114063025533
 11
245.49380571901469
 21
24.065114063025533
  0
LINE
  8
_0-0_
  6
CONTINUOUS
 62
    2
 10
247.44329391956381
 20
24.065114063025533
 11
257.21462709653781
 21
24.065114063025533
  0
LINE
  8
_0-0_
  6
CONTINUOUS
 62
    2
 10
263.39963203274471
 20
24.065114063025533
 11
267.22159693463942
 21
24.065114063025533
  0
LINE
  8
_0-0_
  6
CONTINUOUS
 62
    2
 10
269.22159693463942
 20
24.065114063025533
 11
271.82159693463956
 21
24.065114063025533
  0
LINE
  8
_0-0_
  6
CONTINUOUS
 62
    2
 10
278.80514108189533
 20
24.065114063025533
 11
281.40514108189529
 21
24.065114063025533
  0
LINE
  8
_0-0_
  6
CONTINUOUS
 62
    2
 10
283.16922045560869
 20
24.065114063025533
 11
285.76922045560866
 21
24.065114063025533
  0
LINE
  8
_0-0_
  6
CONTINUOUS
 62
    2
 10
290.89314914126521
 20
24.065114063025533
 11
295.12673921085837
 21
24.065114063025533
  0
LINE
  8
_0-0_
  6
CONTINUOUS
 62
    2
 10
233.78773329145434
 20
24.465114063025624
 11
236.38773329145437
 21
24.465114063025624
  0
LINE
  8
_0-0_
  6
CONTINUOUS
 62
    2
 10
242.70728265575264
 20
24.465114063025624
 11
245.30728265575266
 21
24.465114063025624
  0
LINE
  8
_0-0_
  6
CONTINUOUS
 62
    2
 10
247.44329391956381
 20
24.465114063025624
 11
257.62709852648686
 21
24.465114063025624
  0
LINE
  8
_0-0_
  6
CONTINUOUS
 62
    2
 10
263.21310896948268
 20
24.465114063025624
 11
267.40811999790145
 21
24.465114063025624
  0
LINE
  8
_0-0_
  6
CONTINUOUS
 62
    2
 10
269.40811999790145
 20
24.465114063025624
 11
272.00811999790142
 21
24.465114063025624
  0
LINE
  8
_0-0_
  6
CONTINUOUS
 62
    2
 10
278.6186180186333
 20
24.465114063025624
 11
281.21861801863326
 21
24.465114063025624
  0
LINE
  8
_0-0_
  6
CONTINUOUS
 62
    2
 10
283.16922045560869
 20
24.465114063025624
 11
285.76922045560866
 21
24.465114063025624
  0
LINE
  8
_0-0_
  6
CONTINUOUS
 62
    2
 10
290.6432014005016
 20
24.465114063025624
 11
295.12673921085837
 21
24.465114063025624
  0
LINE
  8
_0-0_
  6
CONTINUOUS
 62
    2
 10
233.97425635471637
 20
24.865114063025601
 11
236.5742563547164
 21
24.865114063025601
  0
LINE
  8
_0-0_
  6
CONTINUOUS
 62
    2
 10
242.52075959249061
 20
24.865114063025601
 11
245.12075959249063
 21
24.865114063025601
  0
LINE
  8
_0-0_
  6
CONTINUOUS
 62
    2
 10
247.44329391956381
 20
24.865114063025601
 11
250.04329391956372
 21
24.865114063025601
  0
LINE
  8
_0-0_
  6
CONTINUOUS
 62
    2
 10
254.24298355523189
 20
24.865114063025601
 11
257.90565533028217
 21
24.865114063025601
  0
LINE
  8
_0-0_
  6
CONTINUOUS
 62
    2
 10
263.02658590622065
 20
24.865114063025601
 11
267.59464306116348
 21
24.865114063025601
  0
LINE
  8
_0-0_
  6
CONTINUOUS
 62
    2
 10
269.59464306116348
 20
24.865114063025601
 11
272.19464306116345
 21
24.865114063025601
  0
LINE
  8
_0-0_
  6
CONTINUOUS
 62
    2
 10
278.43209495537127
 20
24.865114063025601
 11
281.03209495537141
 21
24.865114063025601
  0
LINE
  8
_0-0_
  6
CONTINUOUS
 62
    2
 10
283.16922045560869
 20
24.865114063025601
 11
285.76922045560866
 21
24.865114063025601
  0
LINE
  8
_0-0_
  6
CONTINUOUS
 62
    2
 10
290.39325365973781
 20
24.865114063025601
 11
295.12673921085837
 21
24.865114063025601
  0
LINE
  8
_0-0_
  6
CONTINUOUS
 62
    2
 10
234.1607794179784
 20
25.265114063025692
 11
236.76077941797843
 21
25.265114063025692
  0
LINE
  8
_0-0_
  6
CONTINUOUS
 62
    2
 10
242.33423652922869
 20
25.265114063025692
 11
244.93423652922871
 21
25.265114063025692
  0
LINE
  8
_0-0_
  6
CONTINUOUS
 62
    2
 10
247.44329391956381
 20
25.265114063025692
 11
250.04329391956372
 21
25.265114063025692
  0
LINE
  8
_0-0_
  6
CONTINUOUS
 62
    2
 10
254.8986511445766
 20
25.265114063025692
 11
258.08480695334674
 21
25.265114063025692
  0
LINE
  8
_0-0_
  6
CONTINUOUS
 62
    2
 10
262.84006284295873
 20
25.265114063025692
 11
267.78116612442551
 21
25.265114063025692
  0
LINE
  8
_0-0_
  6
CONTINUOUS
 62
    2
 10
269.78116612442551
 20
25.265114063025692
 11
272.38116612442542
 21
25.265114063025692
  0
LINE
  8
_0-0_
  6
CONTINUOUS
 62
    2
 10
278.2455718921093
 20
25.265114063025692
 11
280.84557189210938
 21
25.265114063025692
  0
LINE
  8
_0-0_
  6
CONTINUOUS
 62
    2
 10
283.16922045560869
 20
25.265114063025692
 11
285.76922045560866
 21
25.265114063025692
  0
LINE
  8
_0-0_
  6
CONTINUOUS
 62
    2
 10
290.14330591897402
 20
25.265114063025692
 11
292.73749840637066
 21
25.265114063025692
  0
LINE
  8
_0-0_
  6
CONTINUOUS
 62
    2
 10
292.92673921085833
 20
25.265114063025692
 11
295.12673921085837
 21
25.265114063025692
  0
LINE
  8
_0-0_
  6
CONTINUOUS
 62
    2
 10
234.34730248124043
 20
25.665114063025555
 11
244.74771346596668
 21
25.665114063025555
  0
LINE
  8
_0-0_
  6
CONTINUOUS
 62
    2
 10
247.44329391956381
 20
25.665114063025555
 11
250.04329391956372
 21
25.665114063025555
  0
LINE
  8
_0-0_
  6
CONTINUOUS
 62
    2
 10
255.36472429670033
 20
25.665114063025555
 11
258.21732409487618
 21
25.665114063025555
  0
LINE
  8
_0-0_
  6
CONTINUOUS
 62
    2
 10
262.6535397796967
 20
25.665114063025555
 11
265.25353977969667
 21
25.665114063025555
  0
LINE
  8
_0-0_
  6
CONTINUOUS
 62
    2
 10
265.36768918768746
 20
25.665114063025555
 11
267.96768918768754
 21
25.665114063025555
  0
LINE
  8
_0-0_
  6
CONTINUOUS
 62
    2
 10
269.96768918768754
 20
25.665114063025555
 11
280.65904882884735
 21
25.665114063025555
  0
LINE
  8
_0-0_
  6
CONTINUOUS
 62
    2
 10
283.16922045560869
 20
25.665114063025555
 11
285.76922045560866
 21
25.665114063025555
  0
LINE
  8
_0-0_
  6
CONTINUOUS
 62
    2
 10
289.89335817821035
 20
25.665114063025555
 11
292.48755066560688
 21
25.665114063025555
  0
LINE
  8
_0-0_
  6
CONTINUOUS
 62
    2
 10
292.92673921085833
 20
25.665114063025555
 11
295.12673921085837
 21
25.665114063025555
  0
LINE
  8
_0-0_
  6
CONTINUOUS
 62
    2
 10
234.53382554450246
 20
26.065114063025533
 11
244.56119040270465
 21
26.065114063025533
  0
LINE
  8
_0-0_
  6
CONTINUOUS
 62
    2
 10
247.44329391956381
 20
26.065114063025533
 11
250.04329391956372
 21
26.065114063025533
  0
LINE
  8
_0-0_
  6
CONTINUOUS
 62
    2
 10
255.63988306564357
 20
26.065114063025533
 11
258.32567981365725
 21
26.065114063025533
  0
LINE
  8
_0-0_
  6
CONTINUOUS
 62
    2
 10
262.46701671643473
 20
26.065114063025533
 11
265.06701671643464
 21
26.065114063025533
  0
LINE
  8
_0-0_
  6
CONTINUOUS
 62
    2
 10
265.55421225094943
 20
26.065114063025533
 11
268.1542122509494
 21
26.065114063025533
  0
LINE
  8
_0-0_
  6
CONTINUOUS
 62
    2
 10
270.15421225094957
 20
26.065114063025533
 11
280.47252576558532
 21
26.065114063025533
  0
LINE
  8
_0-0_
  6
CONTINUOUS
 62
    2
 10
283.16922045560869
 20
26.065114063025533
 11
285.76922045560866
 21
26.065114063025533
  0
LINE
  8
_0-0_
  6
CONTINUOUS
 62
    2
 10
289.64341043744656
 20
26.065114063025533
 11
292.2376029248432
 21
26.065114063025533
  0
LINE
  8
_0-0_
  6
CONTINUOUS
 62
    2
 10
292.92673921085833
 20
26.065114063025533
 11
295.12673921085837
 21
26.065114063025533
  0
LINE
  8
_0-0_
  6
CONTINUOUS
 62
    2
 10
234.72034860776438
 20
26.465114063025624
 11
244.37466733944262
 21
26.465114063025624
  0
LINE
  8
_0-0_
  6
CONTINUOUS
 62
    2
 10
247.44329391956381
 20
26.465114063025624
 11
250.04329391956372
 21
26.465114063025624
  0
LINE
  8
_0-0_
  6
CONTINUOUS
 62
    2
 10
255.81379098688109
 20
26.465114063025624
 11
258.42008719346001
 21
26.465114063025624
  0
LINE
  8
_0-0_
  6
CONTINUOUS
 62
    2
 10
262.2804936531727
 20
26.465114063025624
 11
264.88049365317261
 21
26.465114063025624
  0
LINE
  8
_0-0_
  6
CONTINUOUS
 62
    2
 10
265.74073531421146
 20
26.465114063025624
 11
268.34073531421143
 21
26.465114063025624
  0
LINE
  8
_0-0_
  6
CONTINUOUS
 62
    2
 10
270.34073531421149
 20
26.465114063025624
 11
280.28600270232329
 21
26.465114063025624
  0
LINE
  8
_0-0_
  6
CONTINUOUS
 62
    2
 10
283.16922045560869
 20
26.465114063025624
 11
285.76922045560866
 21
26.465114063025624
  0
LINE
  8
_0-0_
  6
CONTINUOUS
 62
    2
 10
289.39346269668289
 20
26.465114063025624
 11
291.98765518407953
 21
26.465114063025624
  0
LINE
  8
_0-0_
  6
CONTINUOUS
 62
    2
 10
292.92673921085833
 20
26.465114063025624
 11
295.12673921085837
 21
26.465114063025624
  0
LINE
  8
_0-0_
  6
CONTINUOUS
 62
    2
 10
234.90687167102641
 20
26.865114063025715
 11
244.18814427618059
 21
26.865114063025715
  0
LINE
  8
_0-0_
  6
CONTINUOUS
 62
    2
 10
247.44329391956381
 20
26.865114063025715
 11
250.04329391956372
 21
26.865114063025715
  0
LINE
  8
_0-0_
  6
CONTINUOUS
 62
    2
 10
255.92232857064619
 20
26.865114063025715
 11
258.49718813271255
 21
26.865114063025715
  0
LINE
  8
_0-0_
  6
CONTINUOUS
 62
    2
 10
262.09397058991067
 20
26.865114063025715
 11
264.69397058991075
 21
26.865114063025715
  0
LINE
  8
_0-0_
  6
CONTINUOUS
 62
    2
 10
265.92725837747349
 20
26.865114063025715
 11
268.52725837747346
 21
26.865114063025715
  0
LINE
  8
_0-0_
  6
CONTINUOUS
 62
    2
 10
270.52725837747352
 20
26.865114063025715
 11
280.09947963906126
 21
26.865114063025715
  0
LINE
  8
_0-0_
  6
CONTINUOUS
 62
    2
 10
283.16922045560869
 20
26.865114063025715
 11
285.76922045560866
 21
26.865114063025715
  0
LINE
  8
_0-0_
  6
CONTINUOUS
 62
    2
 10
289.14351495591904
 20
26.865114063025715
 11
291.73770744331574
 21
26.865114063025715
  0
LINE
  8
_0-0_
  6
CONTINUOUS
 62
    2
 10
292.92673921085833
 20
26.865114063025715
 11
295.12673921085837
 21
26.865114063025715
  0
LINE
  8
_0-0_
  6
CONTINUOUS
 62
    2
 10
235.09339473428832
 20
27.265114063025692
 11
244.00162121291868
 21
27.265114063025692
  0
LINE
  8
_0-0_
  6
CONTINUOUS
 62
    2
 10
247.44329391956381
 20
27.265114063025692
 11
250.04329391956372
 21
27.265114063025692
  0
LINE
  8
_0-0_
  6
CONTINUOUS
 62
    2
 10
255.98828082265493
 20
27.265114063025692
 11
258.55781276507389
 21
27.265114063025692
  0
LINE
  8
_0-0_
  6
CONTINUOUS
 62
    2
 10
261.90744752664864
 20
27.265114063025692
 11
264.50744752664878
 21
27.265114063025692
  0
LINE
  8
_0-0_
  6
CONTINUOUS
 62
    2
 10
266.11378144073552
 20
27.265114063025692
 11
268.71378144073543
 21
27.265114063025692
  0
LINE
  8
_0-0_
  6
CONTINUOUS
 62
    2
 10
270.71378144073537
 20
27.265114063025692
 11
279.91295657579929
 21
27.265114063025692
  0
LINE
  8
_0-0_
  6
CONTINUOUS
 62
    2
 10
283.16922045560869
 20
27.265114063025692
 11
285.76922045560866
 21
27.265114063025692
  0
LINE
  8
_0-0_
  6
CONTINUOUS
 62
    2
 10
288.89356721515543
 20
27.265114063025692
 11
291.4877597025519
 21
27.265114063025692
  0
LINE
  8
_0-0_
  6
CONTINUOUS
 62
    2
 10
292.92673921085833
 20
27.265114063025692
 11
295.12673921085837
 21
27.265114063025692
  0
LINE
  8
_0-0_
  6
CONTINUOUS
 62
    2
 10
235.27991779755035
 20
27.665114063025669
 11
237.87991779755049
 21
27.665114063025669
  0
LINE
  8
_0-0_
  6
CONTINUOUS
 62
    2
 10
241.21509814965663
 20
27.665114063025669
 11
243.81509814965665
 21
27.665114063025669
  0
LINE
  8
_0-0_
  6
CONTINUOUS
 62
    2
 10
247.44329391956381
 20
27.665114063025669
 11
250.04329391956372
 21
27.665114063025669
  0
LINE
  8
_0-0_
  6
CONTINUOUS
 62
    2
 10
256.02209622028209
 20
27.665114063025669
 11
258.60211249838056
 21
27.665114063025669
  0
LINE
  8
_0-0_
  6
CONTINUOUS
 62
    2
 10
261.72092446338661
 20
27.665114063025669
 11
264.32092446338675
 21
27.665114063025669
  0
LINE
  8
_0-0_
  6
CONTINUOUS
 62
    2
 10
266.30030450399755
 20
27.665114063025669
 11
268.90030450399746
 21
27.665114063025669
  0
LINE
  8
_0-0_
  6
CONTINUOUS
 62
    2
 10
270.9003045039974
 20
27.665114063025669
 11
273.50030450399748
 21
27.665114063025669
  0
LINE
  8
_0-0_
  6
CONTINUOUS
 62
    2
 10
277.12643351253729
 20
27.665114063025669
 11
279.72643351253726
 21
27.665114063025669
  0
LINE
  8
_0-0_
  6
CONTINUOUS
 62
    2
 10
283.16922045560869
 20
27.665114063025669
 11
285.76922045560866
 21
27.665114063025669
  0
LINE
  8
_0-0_
  6
CONTINUOUS
 62
    2
 10
288.64361947439164
 20
27.665114063025669
 11
291.23781196178828
 21
27.665114063025669
  0
LINE
  8
_0-0_
  6
CONTINUOUS
 62
    2
 10
292.92673921085833
 20
27.665114063025669
 11
295.12673921085837
 21
27.665114063025669
  0
LINE
  8
_0-0_
  6
CONTINUOUS
 62
    2
 10
235.46644086081238
 20
28.065114063025646
 11
238.06644086081241
 21
28.065114063025646
  0
LINE
  8
_0-0_
  6
CONTINUOUS
 62
    2
 10
241.0285750863946
 20
28.065114063025646
 11
243.62857508639473
 21
28.065114063025646
  0
LINE
  8
_0-0_
  6
CONTINUOUS
 62
    2
 10
247.44329391956381
 20
28.065114063025646
 11
250.04329391956372
 21
28.065114063025646
  0
LINE
  8
_0-0_
  6
CONTINUOUS
 62
    2
 10
256.0371337457135
 20
28.065114063025646
 11
258.62976041096277
 21
28.065114063025646
  0
LINE
  8
_0-0_
  6
CONTINUOUS
 62
    2
 10
261.53440140012475
 20
28.065114063025646
 11
264.13440140012472
 21
28.065114063025646
  0
LINE
  8
_0-0_
  6
CONTINUOUS
 62
    2
 10
266.48682756725941
 20
28.065114063025646
 11
269.08682756725949
 21
28.065114063025646
  0
LINE
  8
_0-0_
  6
CONTINUOUS
 62
    2
 10
271.08682756725943
 20
28.065114063025646
 11
273.68682756725951
 21
28.065114063025646
  0
LINE
  8
_0-0_
  6
CONTINUOUS
 62
    2
 10
276.93991044927532
 20
28.065114063025646
 11
279.5399104492754
 21
28.065114063025646
  0
LINE
  8
_0-0_
  6
CONTINUOUS
 62
    2
 10
283.16922045560869
 20
28.065114063025646
 11
285.76922045560866
 21
28.065114063025646
  0
LINE
  8
_0-0_
  6
CONTINUOUS
 62
    2
 10
288.39367173362791
 20
28.065114063025646
 11
290.98786422102449
 21
28.065114063025646
  0
LINE
  8
_0-0_
  6
CONTINUOUS
 62
    2
 10
292.92673921085833
 20
28.065114063025646
 11
295.12673921085837
 21
28.065114063025646
  0
LINE
  8
_0-0_
  6
CONTINUOUS
 62
    2
 10
235.65296392407441
 20
28.465114063025396
 11
238.25296392407444
 21
28.465114063025396
  0
LINE
  8
_0-0_
  6
CONTINUOUS
 62
    2
 10
240.84205202313257
 20
28.465114063025396
 11
243.4420520231327
 21
28.465114063025396
  0
LINE
  8
_0-0_
  6
CONTINUOUS
 62
    2
 10
247.44329391956381
 20
28.465114063025396
 11
250.04329391956372
 21
28.465114063025396
  0
LINE
  8
_0-0_
  6
CONTINUOUS
 62
    2
 10
256.04305500756129
 20
28.465114063025396
 11
258.64264613902338
 21
28.465114063025396
  0
LINE
  8
_0-0_
  6
CONTINUOUS
 62
    2
 10
261.34787833686272
 20
28.465114063025396
 11
263.94787833686269
 21
28.465114063025396
  0
LINE
  8
_0-0_
  6
CONTINUOUS
 62
    2
 10
266.67335063052144
 20
28.465114063025396
 11
269.27335063052152
 21
28.465114063025396
  0
LINE
  8
_0-0_
  6
CONTINUOUS
 62
    2
 10
271.27335063052146
 20
28.465114063025396
 11
273.87335063052154
 21
28.465114063025396
  0
LINE
  8
_0-0_
  6
CONTINUOUS
 62
    2
 10
276.75338738601329
 20
28.465114063025396
 11
279.35338738601337
 21
28.465114063025396
  0
LINE
  8
_0-0_
  6
CONTINUOUS
 62
    2
 10
283.16922045560869
 20
28.465114063025396
 11
285.76922045560866
 21
28.465114063025396
  0
LINE
  8
_0-0_
  6
CONTINUOUS
 62
    2
 10
288.14372399286418
 20
28.465114063025396
 11
290.73791648026076
 21
28.465114063025396
  0
LINE
  8
_0-0_
  6
CONTINUOUS
 62
    2
 10
292.92673921085833
 20
28.465114063025396
 11
295.12673921085837
 21
28.465114063025396
  0
LINE
  8
_0-0_
  6
CONTINUOUS
 62
    2
 10
235.83948698733644
 20
28.865114063025828
 11
238.43948698733635
 21
28.865114063025828
  0
LINE
  8
_0-0_
  6
CONTINUOUS
 62
    2
 10
240.65552895987065
 20
28.865114063025828
 11
243.25552895987067
 21
28.865114063025828
  0
LINE
  8
_0-0_
  6
CONTINUOUS
 62
    2
 10
247.44329391956381
 20
28.865114063025828
 11
250.04329391956372
 21
28.865114063025828
  0
LINE
  8
_0-0_
  6
CONTINUOUS
 62
    2
 10
256.03983388360535
 20
28.865114063025828
 11
258.63452887418043
 21
28.865114063025828
  0
LINE
  8
_0-0_
  6
CONTINUOUS
 62
    2
 10
261.16135527360075
 20
28.865114063025828
 11
263.76135527360066
 21
28.865114063025828
  0
LINE
  8
_0-0_
  6
CONTINUOUS
 62
    2
 10
266.85987369378347
 20
28.865114063025828
 11
269.45987369378355
 21
28.865114063025828
  0
LINE
  8
_0-0_
  6
CONTINUOUS
 62
    2
 10
271.45987369378349
 20
28.865114063025828
 11
274.0598736937834
 21
28.865114063025828
  0
LINE
  8
_0-0_
  6
CONTINUOUS
 62
    2
 10
276.56686432275143
 20
28.865114063025828
 11
279.16686432275134
 21
28.865114063025828
  0
LINE
  8
_0-0_
  6
CONTINUOUS
 62
    2
 10
283.16922045560869
 20
28.865114063025828
 11
285.76922045560866
 21
28.865114063025828
  0
LINE
  8
_0-0_
  6
CONTINUOUS
 62
    2
 10
287.89377625210051
 20
28.865114063025828
 11
290.48796873949703
 21
28.865114063025828
  0
LINE
  8
_0-0_
  6
CONTINUOUS
 62
    2
 10
292.92673921085833
 20
28.865114063025828
 11
295.12673921085837
 21
28.865114063025828
  0
LINE
  8
_0-0_
  6
CONTINUOUS
 62
    2
 10
236.02601005059847
 20
29.265114063025578
 11
238.62601005059838
 21
29.265114063025578
  0
LINE
  8
_0-0_
  6
CONTINUOUS
 62
    2
 10
240.46900589660873
 20
29.265114063025578
 11
243.06900589660864
 21
29.265114063025578
  0
LINE
  8
_0-0_
  6
CONTINUOUS
 62
    2
 10
247.44329391956381
 20
29.265114063025578
 11
250.04329391956372
 21
29.265114063025578
  0
LINE
  8
_0-0_
  6
CONTINUOUS
 62
    2
 10
256.02779902564936
 20
29.265114063025578
 11
258.61116848788089
 21
29.265114063025578
  0
LINE
  8
_0-0_
  6
CONTINUOUS
 62
    2
 10
260.97483221033872
 20
29.265114063025578
 11
263.57483221033863
 21
29.265114063025578
  0
LINE
  8
_0-0_
  6
CONTINUOUS
 62
    2
 10
267.04639675704544
 20
29.265114063025578
 11
269.64639675704541
 21
29.265114063025578
  0
LINE
  8
_0-0_
  6
CONTINUOUS
 62
    2
 10
271.64639675704552
 20
29.265114063025578
 11
274.24639675704543
 21
29.265114063025578
  0
LINE
  8
_0-0_
  6
CONTINUOUS
 62
    2
 10
276.3803412594894
 20
29.265114063025578
 11
278.98034125948931
 21
29.265114063025578
  0
LINE
  8
_0-0_
  6
CONTINUOUS
 62
    2
 10
283.16922045560869
 20
29.265114063025578
 11
285.76922045560866
 21
29.265114063025578
  0
LINE
  8
_0-0_
  6
CONTINUOUS
 62
    2
 10
287.64382851133672
 20
29.265114063025578
 11
290.23802099873336
 21
29.265114063025578
  0
LINE
  8
_0-0_
  6
CONTINUOUS
 62
    2
 10
292.92673921085833
 20
29.265114063025578
 11
295.12673921085837
 21
29.265114063025578
  0
LINE
  8
_0-0_
  6
CONTINUOUS
 62
    2
 10
236.21253311386039
 20
29.665114063025669
 11
238.81253311386041
 21
29.665114063025669
  0
LINE
  8
_0-0_
  6
CONTINUOUS
 62
    2
 10
240.28248283334671
 20
29.665114063025669
 11
242.88248283334661
 21
29.665114063025669
  0
LINE
  8
_0-0_
  6
CONTINUOUS
 62
    2
 10
247.44329391956381
 20
29.665114063025669
 11
250.04329391956372
 21
29.665114063025669
  0
LINE
  8
_0-0_
  6
CONTINUOUS
 62
    2
 10
255.995867637289
 20
29.665114063025669
 11
258.57080479104206
 21
29.665114063025669
  0
LINE
  8
_0-0_
  6
CONTINUOUS
 62
    2
 10
260.78830914707669
 20
29.665114063025669
 11
263.38830914707677
 21
29.665114063025669
  0
LINE
  8
_0-0_
  6
CONTINUOUS
 62
    2
 10
267.23291982030747
 20
29.665114063025669
 11
269.83291982030744
 21
29.665114063025669
  0
LINE
  8
_0-0_
  6
CONTINUOUS
 62
    2
 10
271.8329198203075
 20
29.665114063025669
 11
274.43291982030746
 21
29.665114063025669
  0
LINE
  8
_0-0_
  6
CONTINUOUS
 62
    2
 10
276.19381819622737
 20
29.665114063025669
 11
278.79381819622739
 21
29.665114063025669
  0
LINE
  8
_0-0_
  6
CONTINUOUS
 62
    2
 10
283.16922045560869
 20
29.665114063025669
 11
285.76922045560866
 21
29.665114063025669
  0
LINE
  8
_0-0_
  6
CONTINUOUS
 62
    2
 10
287.39388077057305
 20
29.665114063025669
 11
289.98807325796957
 21
29.665114063025669
  0
LINE
  8
_0-0_
  6
CONTINUOUS
 62
    2
 10
292.92673921085833
 20
29.665114063025669
 11
295.12673921085837
 21
29.665114063025669
  0
LINE
  8
_0-0_
  6
CONTINUOUS
 62
    2
 10
236.39905617712242
 20
30.065114063025646
 11
238.99905617712244
 21
30.065114063025646
  0
LINE
  8
_0-0_
  6
CONTINUOUS
 62
    2
 10
240.09595977008468
 20
30.065114063025646
 11
242.6959597700847
 21
30.065114063025646
  0
LINE
  8
_0-0_
  6
CONTINUOUS
 62
    2
 10
247.44329391956381
 20
30.065114063025646
 11
250.04329391956372
 21
30.065114063025646
  0
LINE
  8
_0-0_
  6
CONTINUOUS
 62
    2
 10
255.9376843532296
 20
30.065114063025646
 11
258.51207994047951
 21
30.065114063025646
  0
LINE
  8
_0-0_
  6
CONTINUOUS
 62
    2
 10
260.60178608381466
 20
30.065114063025646
 11
263.20178608381474
 21
30.065114063025646
  0
LINE
  8
_0-0_
  6
CONTINUOUS
 62
    2
 10
267.4194428835695
 20
30.065114063025646
 11
270.01944288356941
 21
30.065114063025646
  0
LINE
  8
_0-0_
  6
CONTINUOUS
 62
    2
 10
272.01944288356935
 20
30.065114063025646
 11
274.61944288356949
 21
30.065114063025646
  0
LINE
  8
_0-0_
  6
CONTINUOUS
 62
    2
 10
276.00729513296534
 20
30.065114063025646
 11
278.60729513296536
 21
30.065114063025646
  0
LINE
  8
_0-0_
  6
CONTINUOUS
 62
    2
 10
283.16922045560869
 20
30.065114063025646
 11
285.76922045560866
 21
30.065114063025646
  0
LINE
  8
_0-0_
  6
CONTINUOUS
 62
    2
 10
287.14393302980926
 20
30.065114063025646
 11
289.7381255172059
 21
30.065114063025646
  0
LINE
  8
_0-0_
  6
CONTINUOUS
 62
    2
 10
292.92673921085833
 20
30.065114063025646
 11
295.12673921085837
 21
30.065114063025646
  0
LINE
  8
_0-0_
  6
CONTINUOUS
 62
    2
 10
236.58557924038433
 20
30.465114063025624
 11
239.18557924038447
 21
30.465114063025624
  0
LINE
  8
_0-0_
  6
CONTINUOUS
 62
    2
 10
239.90943670682265
 20
30.465114063025624
 11
242.50943670682267
 21
30.465114063025624
  0
LINE
  8
_0-0_
  6
CONTINUOUS
 62
    2
 10
247.44329391956381
 20
30.465114063025624
 11
250.04329391956372
 21
30.465114063025624
  0
LINE
  8
_0-0_
  6
CONTINUOUS
 62
    2
 10
255.8407438468102
 20
30.465114063025624
 11
258.43738554200132
 21
30.465114063025624
  0
LINE
  8
_0-0_
  6
CONTINUOUS
 62
    2
 10
260.41526302055263
 20
30.465114063025624
 11
263.01526302055271
 21
30.465114063025624
  0
LINE
  8
_0-0_
  6
CONTINUOUS
 62
    2
 10
267.60596594683153
 20
30.465114063025624
 11
270.20596594683144
 21
30.465114063025624
  0
LINE
  8
_0-0_
  6
CONTINUOUS
 62
    2
 10
272.20596594683138
 20
30.465114063025624
 11
274.80596594683152
 21
30.465114063025624
  0
LINE
  8
_0-0_
  6
CONTINUOUS
 62
    2
 10
275.82077206970331
 20
30.465114063025624
 11
278.42077206970333
 21
30.465114063025624
  0
LINE
  8
_0-0_
  6
CONTINUOUS
 62
    2
 10
283.16922045560869
 20
30.465114063025624
 11
285.76922045560866
 21
30.465114063025624
  0
LINE
  8
_0-0_
  6
CONTINUOUS
 62
    2
 10
286.89398528904547
 20
30.465114063025624
 11
289.48817777644211
 21
30.465114063025624
  0
LINE
  8
_0-0_
  6
CONTINUOUS
 62
    2
 10
292.92673921085833
 20
30.465114063025624
 11
295.12673921085837
 21
30.465114063025624
  0
LINE
  8
_0-0_
  6
CONTINUOUS
 62
    2
 10
236.77210230364636
 20
30.865114063025828
 11
239.37210230364639
 21
30.865114063025828
  0
LINE
  8
_0-0_
  6
CONTINUOUS
 62
    2
 10
239.72291364356062
 20
30.865114063025828
 11
242.32291364356064
 21
30.865114063025828
  0
LINE
  8
_0-0_
  6
CONTINUOUS
 62
    2
 10
247.44329391956381
 20
30.865114063025828
 11
250.04329391956372
 21
30.865114063025828
  0
LINE
  8
_0-0_
  6
CONTINUOUS
 62
    2
 10
255.68400010238963
 20
30.865114063025828
 11
258.34695683376145
 21
30.865114063025828
  0
LINE
  8
_0-0_
  6
CONTINUOUS
 62
    2
 10
260.22873995729077
 20
30.865114063025828
 11
262.82873995729079
 21
30.865114063025828
  0
LINE
  8
_0-0_
  6
CONTINUOUS
 62
    2
 10
267.79248901009356
 20
30.865114063025828
 11
270.39248901009347
 21
30.865114063025828
  0
LINE
  8
_0-0_
  6
CONTINUOUS
 62
    2
 10
272.39248901009341
 20
30.865114063025828
 11
274.99248901009349
 21
30.865114063025828
  0
LINE
  8
_0-0_
  6
CONTINUOUS
 62
    2
 10
275.63424900644139
 20
30.865114063025828
 11
278.23424900644136
 21
30.865114063025828
  0
LINE
  8
_0-0_
  6
CONTINUOUS
 62
    2
 10
283.16922045560869
 20
30.865114063025828
 11
285.76922045560866
 21
30.865114063025828
  0
LINE
  8
_0-0_
  6
CONTINUOUS
 62
    2
 10
286.64403754828174
 20
30.865114063025828
 11
289.23823003567844
 21
30.865114063025828
  0
LINE
  8
_0-0_
  6
CONTINUOUS
 62
    2
 10
292.92673921085833
 20
30.865114063025828
 11
295.12673921085837
 21
30.865114063025828
  0
LINE
  8
_0-0_
  6
CONTINUOUS
 62
    2
 10
236.95862536690839
 20
31.265114063025578
 11
242.13639058029872
 21
31.265114063025578
  0
LINE
  8
_0-0_
  6
CONTINUOUS
 62
    2
 10
247.44329391956381
 20
31.265114063025578
 11
250.04329391956372
 21
31.265114063025578
  0
LINE
  8
_0-0_
  6
CONTINUOUS
 62
    2
 10
255.44329391956376
 20
31.265114063025578
 11
258.24329391956371
 21
31.265114063025578
  0
LINE
  8
_0-0_
  6
CONTINUOUS
 62
    2
 10
260.04221689402874
 20
31.265114063025578
 11
262.64221689402876
 21
31.265114063025578
  0
LINE
  8
_0-0_
  6
CONTINUOUS
 62
    2
 10
267.97901207335548
 20
31.265114063025578
 11
270.5790120733555
 21
31.265114063025578
  0
LINE
  8
_0-0_
  6
CONTINUOUS
 62
    2
 10
272.57901207335544
 20
31.265114063025578
 11
275.17901207335535
 21
31.265114063025578
  0
LINE
  8
_0-0_
  6
CONTINUOUS
 62
    2
 10
275.44772594317936
 20
31.265114063025578
 11
278.04772594317933
 21
31.265114063025578
  0
LINE
  8
_0-0_
  6
CONTINUOUS
 62
    2
 10
283.16922045560869
 20
31.265114063025578
 11
285.76922045560866
 21
31.265114063025578
  0
LINE
  8
_0-0_
  6
CONTINUOUS
 62
    2
 10
286.39408980751813
 20
31.265114063025578
 11
288.9882822949146
 21
31.265114063025578
  0
LINE
  8
_0-0_
  6
CONTINUOUS
 62
    2
 10
292.92673921085833
 20
31.265114063025578
 11
295.12673921085837
 21
31.265114063025578
  0
LINE
  8
_0-0_
  6
CONTINUOUS
 62
    2
 10
237.14514843017042
 20
31.665114063025669
 11
241.94986751703669
 21
31.665114063025669
  0
LINE
  8
_0-0_
  6
CONTINUOUS
 62
    2
 10
247.44329391956381
 20
31.665114063025669
 11
250.04329391956372
 21
31.665114063025669
  0
LINE
  8
_0-0_
  6
CONTINUOUS
 62
    2
 10
255.01839386536449
 20
31.665114063025669
 11
258.11769116580939
 21
31.665114063025669
  0
LINE
  8
_0-0_
  6
CONTINUOUS
 62
    2
 10
259.85569383076671
 20
31.665114063025669
 11
262.45569383076673
 21
31.665114063025669
  0
LINE
  8
_0-0_
  6
CONTINUOUS
 62
    2
 10
268.16553513661751
 20
31.665114063025669
 11
270.76553513661753
 21
31.665114063025669
  0
LINE
  8
_0-0_
  6
CONTINUOUS
 62
    2
 10
272.76553513661747
 20
31.665114063025669
 11
277.8612028799173
 21
31.665114063025669
  0
LINE
  8
_0-0_
  6
CONTINUOUS
 62
    2
 10
283.16922045560869
 20
31.665114063025669
 11
285.76922045560866
 21
31.665114063025669
  0
LINE
  8
_0-0_
  6
CONTINUOUS
 62
    2
 10
286.14414206675434
 20
31.665114063025669
 11
288.73833455415098
 21
31.665114063025669
  0
LINE
  8
_0-0_
  6
CONTINUOUS
 62
    2
 10
292.92673921085833
 20
31.665114063025669
 11
295.12673921085837
 21
31.665114063025669
  0
LINE
  8
_0-0_
  6
CONTINUOUS
 62
    2
 10
237.33167149343245
 20
32.065114063025533
 11
241.76334445377466
 21
32.065114063025533
  0
LINE
  8
_0-0_
  6
CONTINUOUS
 62
    2
 10
247.44329391956381
 20
32.065114063025533
 11
250.04329391956372
 21
32.065114063025533
  0
LINE
  8
_0-0_
  6
CONTINUOUS
 62
    2
 10
254.40262496903097
 20
32.065114063025533
 11
257.95156792777294
 21
32.065114063025533
  0
LINE
  8
_0-0_
  6
CONTINUOUS
 62
    2
 10
259.6691707675048
 20
32.065114063025533
 11
262.2691707675047
 21
32.065114063025533
  0
LINE
  8
_0-0_
  6
CONTINUOUS
 62
    2
 10
268.35205819987937
 20
32.065114063025533
 11
270.95205819987956
 21
32.065114063025533
  0
LINE
  8
_0-0_
  6
CONTINUOUS
 62
    2
 10
272.95205819987945
 20
32.065114063025533
 11
277.67467981665527
 21
32.065114063025533
  0
LINE
  8
_0-0_
  6
CONTINUOUS
 62
    2
 10
283.16922045560869
 20
32.065114063025533
 11
285.76922045560866
 21
32.065114063025533
  0
LINE
  8
_0-0_
  6
CONTINUOUS
 62
    2
 10
285.89419432599061
 20
32.065114063025533
 11
288.48838681338719
 21
32.065114063025533
  0
LINE
  8
_0-0_
  6
CONTINUOUS
 62
    2
 10
292.92673921085833
 20
32.065114063025533
 11
295.12673921085837
 21
32.065114063025533
  0
LINE
  8
_0-0_
  6
CONTINUOUS
 62
    2
 10
237.51819455669448
 20
32.465114063025624
 11
241.57682139051263
 21
32.465114063025624
  0
LINE
  8
_0-0_
  6
CONTINUOUS
 62
    2
 10
247.44329391956381
 20
32.465114063025624
 11
257.70540581090876
 21
32.465114063025624
  0
LINE
  8
_0-0_
  6
CONTINUOUS
 62
    2
 10
259.48264770424277
 20
32.465114063025624
 11
262.08264770424267
 21
32.465114063025624
  0
LINE
  8
_0-0_
  6
CONTINUOUS
 62
    2
 10
268.5385812631414
 20
32.465114063025624
 11
271.13858126314148
 21
32.465114063025624
  0
LINE
  8
_0-0_
  6
CONTINUOUS
 62
    2
 10
273.13858126314148
 20
32.465114063025624
 11
277.48815675339324
 21
32.465114063025624
  0
LINE
  8
_0-0_
  6
CONTINUOUS
 62
    2
 10
283.16922045560869
 20
32.465114063025624
 11
288.23843907262346
 21
32.465114063025624
  0
LINE
  8
_0-0_
  6
CONTINUOUS
 62
    2
 10
292.92673921085833
 20
32.465114063025624
 11
295.12673921085837
 21
32.465114063025624
  0
LINE
  8
_0-0_
  6
CONTINUOUS
 62
    2
 10
237.7047176199564
 20
32.865114063025715
 11
241.3902983272506
 21
32.865114063025715
  0
LINE
  8
_0-0_
  6
CONTINUOUS
 62
    2
 10
247.44329391956381
 20
32.865114063025715
 11
257.32708354041779
 21
32.865114063025715
  0
LINE
  8
_0-0_
  6
CONTINUOUS
 62
    2
 10
259.29612464098074
 20
32.865114063025715
 11
261.8961246409807
 21
32.865114063025715
  0
LINE
  8
_0-0_
  6
CONTINUOUS
 62
    2
 10
268.72510432640343
 20
32.865114063025715
 11
271.3251043264035
 21
32.865114063025715
  0
LINE
  8
_0-0_
  6
CONTINUOUS
 62
    2
 10
273.3251043264035
 20
32.865114063025715
 11
277.30163369013121
 21
32.865114063025715
  0
LINE
  8
_0-0_
  6
CONTINUOUS
 62
    2
 10
283.16922045560869
 20
32.865114063025715
 11
287.98849133185973
 21
32.865114063025715
  0
LINE
  8
_0-0_
  6
CONTINUOUS
 62
    2
 10
292.92673921085833
 20
32.865114063025715
 11
295.12673921085837
 21
32.865114063025715
  0
LINE
  8
_0-0_
  6
CONTINUOUS
 62
    2
 10
237.89124068321831
 20
33.265114063025578
 11
241.20377526398869
 21
33.265114063025578
  0
LINE
  8
_0-0_
  6
CONTINUOUS
 62
    2
 10
247.44329391956381
 20
33.265114063025578
 11
256.77155181734241
 21
33.265114063025578
  0
LINE
  8
_0-0_
  6
CONTINUOUS
 62
    2
 10
259.10960157771871
 20
33.265114063025578
 11
261.70960157771867
 21
33.265114063025578
  0
LINE
  8
_0-0_
  6
CONTINUOUS
 62
    2
 10
268.91162738966545
 20
33.265114063025578
 11
271.51162738966536
 21
33.265114063025578
  0
LINE
  8
_0-0_
  6
CONTINUOUS
 62
    2
 10
273.51162738966542
 20
33.265114063025578
 11
277.11511062686935
 21
33.265114063025578
  0
LINE
  8
_0-0_
  6
CONTINUOUS
 62
    2
 10
283.16922045560869
 20
33.265114063025578
 11
287.73854359109606
 21
33.265114063025578
  0
LINE
  8
_0-0_
  6
CONTINUOUS
 62
    2
 10
292.92673921085833
 20
33.265114063025578
 11
295.12673921085837
 21
33.265114063025578
  0
LINE
  8
_0-0_
  6
CONTINUOUS
 62
    2
 10
238.07776374648034
 20
33.665114063025442
 11
241.01725220072666
 21
33.665114063025442
  0
LINE
  8
_0-0_
  6
CONTINUOUS
 62
    2
 10
247.44329391956381
 20
33.665114063025442
 11
255.96941992110584
 21
33.665114063025442
  0
LINE
  8
_0-0_
  6
CONTINUOUS
 62
    2
 10
258.92307851445668
 20
33.665114063025442
 11
261.52307851445681
 21
33.665114063025442
  0
LINE
  8
_0-0_
  6
CONTINUOUS
 62
    2
 10
269.09815045292748
 20
33.665114063025442
 11
271.69815045292739
 21
33.665114063025442
  0
LINE
  8
_0-0_
  6
CONTINUOUS
 62
    2
 10
273.69815045292745
 20
33.665114063025442
 11
276.92858756360732
 21
33.665114063025442
  0
LINE
  8
_0-0_
  6
CONTINUOUS
 62
    2
 10
283.16922045560869
 20
33.665114063025442
 11
287.48859585033227
 21
33.665114063025442
  0
LINE
  8
_0-0_
  6
CONTINUOUS
 62
    2
 10
292.92673921085833
 20
33.665114063025442
 11
295.12673921085837
 21
33.665114063025442
  0
LINE
  8
_0-0_
  6
CONTINUOUS
 62
    2
 10
238.26428680974237
 20
34.065114063025533
 11
240.83072913746474
 21
34.065114063025533
  0
LINE
  8
_0-0_
  6
CONTINUOUS
 62
    2
 10
247.44329391956381
 20
34.065114063025533
 11
254.79262858183711
 21
34.065114063025533
  0
LINE
  8
_0-0_
  6
CONTINUOUS
 62
    2
 10
258.7365554511947
 20
34.065114063025533
 11
261.33655545119478
 21
34.065114063025533
  0
LINE
  8
_0-0_
  6
CONTINUOUS
 62
    2
 10
269.28467351618951
 20
34.065114063025533
 11
271.88467351618942
 21
34.065114063025533
  0
LINE
  8
_0-0_
  6
CONTINUOUS
 62
    2
 10
273.88467351618948
 20
34.065114063025533
 11
276.74206450034535
 21
34.065114063025533
  0
LINE
  8
_0-0_
  6
CONTINUOUS
 62
    2
 10
283.16922045560869
 20
34.065114063025533
 11
287.2386481095686
 21
34.065114063025533
  0
LINE
  8
_0-0_
  6
CONTINUOUS
 62
    2
 10
292.92673921085833
 20
34.065114063025533
 11
295.12673921085837
 21
34.065114063025533
  0
LINE
  8
_0-0_
  6
CONTINUOUS
 62
    7
 10
211.37576836020418
 20
23.002983499274876
 11
219.78346796460022
 21
23.002983499274876
  0
LINE
  8
_0-0_
  6
CONTINUOUS
 62
    7
 10
211.37576836020418
 20
23.202983499274922
 11
219.78346796460022
 21
23.202983499274922
  0
LINE
  8
_0-0_
  6
CONTINUOUS
 62
    7
 10
211.37576836020418
 20
23.40298349927474
 11
219.78346796460022
 21
23.40298349927474
  0
LINE
  8
_0-0_
  6
CONTINUOUS
 62
    7
 10
211.37576836020418
 20
23.602983499274671
 11
219.78346796460022
 21
23.602983499274671
  0
LINE
  8
_0-0_
  6
CONTINUOUS
 62
    7
 10
211.37576836020418
 20
23.802983499274717
 11
219.78346796460022
 21
23.802983499274717
  0
LINE
  8
_0-0_
  6
CONTINUOUS
 62
    7
 10
211.37576836020418
 20
24.002983499274762
 11
219.78346796460022
 21
24.002983499274762
  0
LINE
  8
_0-0_
  6
CONTINUOUS
 62
    7
 10
211.37576836020418
 20
24.202983499274922
 11
219.78346796460022
 21
24.202983499274922
  0
LINE
  8
_0-0_
  6
CONTINUOUS
 62
    7
 10
211.37576836020418
 20
24.40298349927474
 11
219.78346796460022
 21
24.40298349927474
  0
LINE
  8
_0-0_
  6
CONTINUOUS
 62
    7
 10
211.37576836020418
 20
24.602983499274671
 11
219.78346796460022
 21
24.602983499274671
  0
LINE
  8
_0-0_
  6
CONTINUOUS
 62
    7
 10
211.37576836020418
 20
24.80298349927449
 11
219.78346796460022
 21
24.80298349927449
  0
LINE
  8
_0-0_
  6
CONTINUOUS
 62
    7
 10
211.37576836020418
 20
25.002983499274762
 11
219.78346796460022
 21
25.002983499274762
  0
LINE
  8
_0-0_
  6
CONTINUOUS
 62
    7
 10
211.37576836020418
 20
25.20298349927458
 11
219.78346796460022
 21
25.20298349927458
  0
LINE
  8
_0-0_
  6
CONTINUOUS
 62
    7
 10
211.37576836020418
 20
25.40298349927474
 11
219.78346796460022
 21
25.40298349927474
  0
LINE
  8
_0-0_
  6
CONTINUOUS
 62
    7
 10
211.37576836020418
 20
25.602983499274671
 11
219.78346796460022
 21
25.602983499274671
  0
LINE
  8
_0-0_
  6
CONTINUOUS
 62
    7
 10
211.37576836020418
 20
25.80298349927449
 11
219.78346796460022
 21
25.80298349927449
  0
LINE
  8
_0-0_
  6
CONTINUOUS
 62
    7
 10
211.37576836020418
 20
26.002983499274762
 11
219.78346796460022
 21
26.002983499274762
  0
LINE
  8
_0-0_
  6
CONTINUOUS
 62
    7
 10
211.37576836020418
 20
26.20298349927458
 11
219.78346796460022
 21
26.20298349927458
  0
LINE
  8
_0-0_
  6
CONTINUOUS
 62
    7
 10
211.37576836020418
 20
26.402983499274626
 11
219.78346796460022
 21
26.402983499274626
  0
LINE
  8
_0-0_
  6
CONTINUOUS
 62
    7
 10
211.37576836020418
 20
26.602983499274444
 11
219.78346796460022
 21
26.602983499274444
  0
LINE
  8
_0-0_
  6
CONTINUOUS
 62
    7
 10
211.37576836020418
 20
26.80298349927449
 11
219.78346796460022
 21
26.80298349927449
  0
LINE
  8
_0-0_
  6
CONTINUOUS
 62
    7
 10
211.37576836020418
 20
27.002983499274535
 11
219.78346796460022
 21
27.002983499274535
  0
LINE
  8
_0-0_
  6
CONTINUOUS
 62
    7
 10
211.37576836020418
 20
27.20298349927458
 11
219.78346796460022
 21
27.20298349927458
  0
LINE
  8
_0-0_
  6
CONTINUOUS
 62
    7
 10
211.37576836020418
 20
27.402983499274626
 11
219.78346796460022
 21
27.402983499274626
  0
LINE
  8
_0-0_
  6
CONTINUOUS
 62
    7
 10
211.37576836020418
 20
27.602983499274444
 11
219.78346796460022
 21
27.602983499274444
  0
LINE
  8
_0-0_
  6
CONTINUOUS
 62
    7
 10
211.37576836020418
 20
27.80298349927449
 11
219.78346796460022
 21
27.80298349927449
  0
LINE
  8
_0-0_
  6
CONTINUOUS
 62
    7
 10
211.37576836020418
 20
28.002983499274308
 11
219.78346796460022
 21
28.002983499274308
  0
LINE
  8
_0-0_
  6
CONTINUOUS
 62
    7
 10
211.37576836020418
 20
28.20298349927458
 11
219.78346796460022
 21
28.20298349927458
  0
LINE
  8
_0-0_
  6
CONTINUOUS
 62
    7
 10
211.37576836020418
 20
28.402983499274399
 11
219.78346796460022
 21
28.402983499274399
  0
LINE
  8
_0-0_
  6
CONTINUOUS
 62
    7
 10
211.37576836020418
 20
28.60298349927433
 11
219.78346796460022
 21
28.60298349927433
  0
LINE
  8
_0-0_
  6
CONTINUOUS
 62
    7
 10
211.37576836020418
 20
28.80298349927449
 11
219.78346796460022
 21
28.80298349927449
  0
LINE
  8
_0-0_
  6
CONTINUOUS
 62
    7
 10
211.37576836020418
 20
29.002983499274535
 11
219.78346796460022
 21
29.002983499274535
  0
LINE
  8
_0-0_
  6
CONTINUOUS
 62
    7
 10
211.37576836020418
 20
29.202983499274353
 11
219.78346796460022
 21
29.202983499274353
  0
LINE
  8
_0-0_
  6
CONTINUOUS
 62
    7
 10
211.37576836020418
 20
29.402983499274399
 11
219.78346796460022
 21
29.402983499274399
  0
LINE
  8
_0-0_
  6
CONTINUOUS
 62
    7
 10
211.37576836020418
 20
29.60298349927433
 11
219.78346796460022
 21
29.60298349927433
  0
LINE
  8
_0-0_
  6
CONTINUOUS
 62
    7
 10
211.37576836020418
 20
29.80298349927449
 11
219.78346796460022
 21
29.80298349927449
  0
LINE
  8
_0-0_
  6
CONTINUOUS
 62
    7
 10
211.37576836020418
 20
30.002983499274535
 11
219.78346796460022
 21
30.002983499274535
  0
LINE
  8
_0-0_
  6
CONTINUOUS
 62
    7
 10
211.37576836020418
 20
30.202983499274353
 11
219.78346796460022
 21
30.202983499274353
  0
LINE
  8
_0-0_
  6
CONTINUOUS
 62
    7
 10
211.37576836020418
 20
30.402983499274399
 11
219.78346796460022
 21
30.402983499274399
  0
LINE
  8
_0-0_
  6
CONTINUOUS
 62
    7
 10
211.37576836020418
 20
30.60298349927433
 11
219.78346796460022
 21
30.60298349927433
  0
LINE
  8
_0-0_
  6
CONTINUOUS
 62
    7
 10
211.37576836020418
 20
30.80298349927449
 11
219.78346796460022
 21
30.80298349927449
  0
LINE
  8
_0-0_
  6
CONTINUOUS
 62
    7
 10
211.37576836020418
 20
31.002983499274308
 11
219.78346796460022
 21
31.002983499274308
  0
LINE
  8
_0-0_
  6
CONTINUOUS
 62
    7
 10
211.37576836020418
 20
31.202983499274353
 11
219.78346796460022
 21
31.202983499274353
  0
LINE
  8
_0-0_
  6
CONTINUOUS
 62
    7
 10
230.33809344803586
 20
40.602983499274615
 11
233.26520897167785
 21
40.602983499274615
  0
LINE
  8
_0-0_
  6
CONTINUOUS
 62
    7
 10
229.79349659946666
 20
41.002983499274421
 11
233.80980582024705
 21
41.002983499274421
  0
LINE
  8
_0-0_
  6
CONTINUOUS
 62
    7
 10
229.43450766619782
 20
41.402983499274569
 11
234.1687947535159
 21
41.402983499274569
  0
LINE
  8
_0-0_
  6
CONTINUOUS
 62
    7
 10
229.18362673072471
 20
41.802983499274404
 11
234.419675688989
 21
41.802983499274404
  0
LINE
  8
_0-0_
  6
CONTINUOUS
 62
    7
 10
229.01153727125194
 20
42.202983499274694
 11
234.59176514846177
 21
42.202983499274694
  0
LINE
  8
_0-0_
  6
CONTINUOUS
 62
    7
 10
228.90416619567105
 20
42.602983499274387
 11
234.69913622404266
 21
42.602983499274387
  0
LINE
  8
_0-0_
  6
CONTINUOUS
 62
    7
 10
228.85443166857868
 20
43.00298349927445
 11
234.74887075113503
 21
43.00298349927445
  0
LINE
  8
_0-0_
  6
CONTINUOUS
 62
    7
 10
228.85940943842644
 20
43.40298349927437
 11
234.74389298128727
 21
43.40298349927437
  0
LINE
  8
_0-0_
  6
CONTINUOUS
 62
    7
 10
228.91938296095981
 20
43.802983499274433
 11
234.68391945875402
 21
43.802983499274433
  0
LINE
  8
_0-0_
  6
CONTINUOUS
 62
    7
 10
229.03793018999062
 20
44.202983499274296
 11
234.56537222972321
 21
44.202983499274296
  0
LINE
  8
_0-0_
  6
CONTINUOUS
 62
    7
 10
229.22311722856313
 20
44.602983499274416
 11
234.38018519115059
 21
44.602983499274416
  0
LINE
  8
_0-0_
  6
CONTINUOUS
 62
    7
 10
229.49091082856313
 20
45.002983499274478
 11
234.11239159115058
 21
45.002983499274478
  0
LINE
  8
_0-0_
  6
CONTINUOUS
 62
    7
 10
229.87546203773519
 20
45.402983499274399
 11
233.72784038197852
 21
45.402983499274399
  0
LINE
  8
_0-0_
  6
CONTINUOUS
 62
    7
 10
230.47466652876602
 20
45.802983499274177
 11
233.12863589094769
 21
45.802983499274177
  0
LINE
  8
_0-0_
  6
CONTINUOUS
 62
    7
 10
234.59807538620754
 20
42.221457313809907
 11
234.59807538620754
 21
44.111218727366577
  0
LINE
  8
_0-0_
  6
CONTINUOUS
 62
    7
 10
234.19807538620756
 20
41.442986956199093
 11
234.19807538620756
 21
44.889689084977391
  0
LINE
  8
_0-0_
  6
CONTINUOUS
 62
    7
 10
233.79807538620759
 20
40.992153522389515
 11
233.79807538620759
 21
45.340522518787054
  0
LINE
  8
_0-0_
  6
CONTINUOUS
 62
    7
 10
233.39807538620761
 20
40.683553782420859
 11
233.39807538620761
 21
45.649122258755597
  0
LINE
  8
_0-0_
  6
CONTINUOUS
 62
    7
 10
232.99807538620763
 20
40.46793906669518
 11
232.99807538620763
 21
45.864736974481275
  0
LINE
  8
_0-0_
  6
CONTINUOUS
 62
    7
 10
232.59807538620754
 20
40.324068459927901
 11
232.59807538620754
 21
46.008607581248668
  0
LINE
  8
_0-0_
  6
CONTINUOUS
 62
    7
 10
232.19807538620756
 20
40.241336209217621
 11
232.19807538620756
 21
46.091339831958976
  0
LINE
  8
_0-0_
  6
CONTINUOUS
 62
    7
 10
231.79807538620759
 20
40.214597019481459
 11
231.79807538620759
 21
46.11807902169511
  0
LINE
  8
_0-0_
  6
CONTINUOUS
 62
    7
 10
219.59807538620754
 20
22.96185764430021
 11
219.59807538620754
 21
31.381396065784031
  0
LINE
  8
_0-0_
  6
CONTINUOUS
 62
    7
 10
219.39807538620761
 20
22.96185764430021
 11
219.39807538620761
 21
31.381396065784031
  0
LINE
  8
_0-0_
  6
CONTINUOUS
 62
    7
 10
219.19807538620762
 20
22.96185764430021
 11
219.19807538620762
 21
31.381396065784031
  0
LINE
  8
_0-0_
  6
CONTINUOUS
 62
    7
 10
218.99807538620752
 20
22.96185764430021
 11
218.99807538620763
 21
31.381396065784031
  0
LINE
  8
_0-0_
  6
CONTINUOUS
 62
    7
 10
218.79807538620759
 20
22.96185764430021
 11
218.79807538620759
 21
31.381396065784031
  0
LINE
  8
_0-0_
  6
CONTINUOUS
 62
    7
 10
218.59807538620748
 20
22.96185764430021
 11
218.59807538620748
 21
31.381396065784031
  0
LINE
  8
_0-0_
  6
CONTINUOUS
 62
    7
 10
218.39807538620761
 20
22.96185764430021
 11
218.39807538620761
 21
31.381396065784031
  0
LINE
  8
_0-0_
  6
CONTINUOUS
 62
    7
 10
218.19807538620756
 20
22.96185764430021
 11
218.19807538620756
 21
31.381396065784031
  0
LINE
  8
_0-0_
  6
CONTINUOUS
 62
    7
 10
217.99807538620757
 20
22.96185764430021
 11
217.99807538620757
 21
31.381396065784031
  0
LINE
  8
_0-0_
  6
CONTINUOUS
 62
    7
 10
217.79807538620759
 20
22.96185764430021
 11
217.79807538620759
 21
31.381396065784031
  0
LINE
  8
_0-0_
  6
CONTINUOUS
 62
    7
 10
217.59807538620754
 20
22.96185764430021
 11
217.59807538620754
 21
31.381396065784031
  0
LINE
  8
_0-0_
  6
CONTINUOUS
 62
    7
 10
217.39807538620744
 20
22.96185764430021
 11
217.39807538620744
 21
31.381396065784031
  0
LINE
  8
_0-0_
  6
CONTINUOUS
 62
    7
 10
217.19807538620762
 20
22.96185764430021
 11
217.19807538620762
 21
31.381396065784031
  0
LINE
  8
_0-0_
  6
CONTINUOUS
 62
    7
 10
216.99807538620763
 20
22.96185764430021
 11
216.99807538620763
 21
31.381396065784031
  0
LINE
  8
_0-0_
  6
CONTINUOUS
 62
    7
 10
216.79807538620753
 20
22.96185764430021
 11
216.79807538620753
 21
31.381396065784031
  0
LINE
  8
_0-0_
  6
CONTINUOUS
 62
    7
 10
216.59807538620754
 20
22.96185764430021
 11
216.59807538620754
 21
31.381396065784031
  0
LINE
  8
_0-0_
  6
CONTINUOUS
 62
    7
 10
216.39807538620761
 20
22.96185764430021
 11
216.39807538620761
 21
31.381396065784031
  0
LINE
  8
_0-0_
  6
CONTINUOUS
 62
    7
 10
216.19807538620751
 20
22.96185764430021
 11
216.19807538620751
 21
31.381396065784031
  0
LINE
  8
_0-0_
  6
CONTINUOUS
 62
    7
 10
215.99807538620757
 20
22.96185764430021
 11
215.99807538620757
 21
31.381396065784031
  0
LINE
  8
_0-0_
  6
CONTINUOUS
 62
    7
 10
215.79807538620759
 20
22.96185764430021
 11
215.79807538620759
 21
31.381396065784031
  0
LINE
  8
_0-0_
  6
CONTINUOUS
 62
    7
 10
215.59807538620748
 20
22.96185764430021
 11
215.59807538620748
 21
31.381396065784031
  0
LINE
  8
_0-0_
  6
CONTINUOUS
 62
    7
 10
215.39807538620755
 20
22.96185764430021
 11
215.39807538620755
 21
31.381396065784031
  0
LINE
  8
_0-0_
  6
CONTINUOUS
 62
    7
 10
215.19807538620756
 20
22.96185764430021
 11
215.19807538620756
 21
31.381396065784031
  0
LINE
  8
_0-0_
  6
CONTINUOUS
 62
    7
 10
214.99807538620763
 20
22.96185764430021
 11
214.99807538620763
 21
31.381396065784031
  0
LINE
  8
_0-0_
  6
CONTINUOUS
 62
    7
 10
214.79807538620753
 20
22.96185764430021
 11
214.79807538620753
 21
31.381396065784031
  0
LINE
  8
_0-0_
  6
CONTINUOUS
 62
    7
 10
214.59807538620754
 20
22.96185764430021
 11
214.59807538620754
 21
31.381396065784031
  0
LINE
  8
_0-0_
  6
CONTINUOUS
 62
    7
 10
214.39807538620761
 20
22.96185764430021
 11
214.39807538620761
 21
31.381396065784031
  0
LINE
  8
_0-0_
  6
CONTINUOUS
 62
    7
 10
214.19807538620762
 20
22.96185764430021
 11
214.19807538620762
 21
31.381396065784031
  0
LINE
  8
_0-0_
  6
CONTINUOUS
 62
    7
 10
213.99807538620763
 20
22.96185764430021
 11
213.99807538620763
 21
31.381396065784031
  0
LINE
  8
_0-0_
  6
CONTINUOUS
 62
    7
 10
213.79807538620759
 20
22.96185764430021
 11
213.79807538620759
 21
31.381396065784031
  0
LINE
  8
_0-0_
  6
CONTINUOUS
 62
    7
 10
213.59807538620748
 20
22.96185764430021
 11
213.59807538620748
 21
31.381396065784031
  0
LINE
  8
_0-0_
  6
CONTINUOUS
 62
    7
 10
213.39807538620761
 20
22.96185764430021
 11
213.39807538620761
 21
31.381396065784031
  0
LINE
  8
_0-0_
  6
CONTINUOUS
 62
    7
 10
213.19807538620756
 20
22.96185764430021
 11
213.19807538620756
 21
31.381396065784031
  0
LINE
  8
_0-0_
  6
CONTINUOUS
 62
    7
 10
212.99807538620757
 20
22.96185764430021
 11
212.99807538620757
 21
31.381396065784031
  0
LINE
  8
_0-0_
  6
CONTINUOUS
 62
    7
 10
212.79807538620759
 20
22.96185764430021
 11
212.79807538620759
 21
31.381396065784031
  0
LINE
  8
_0-0_
  6
CONTINUOUS
 62
    7
 10
212.59807538620765
 20
22.96185764430021
 11
212.59807538620765
 21
31.381396065784031
  0
LINE
  8
_0-0_
  6
CONTINUOUS
 62
    7
 10
212.39807538620744
 20
22.96185764430021
 11
212.39807538620744
 21
31.381396065784031
  0
LINE
  8
_0-0_
  6
CONTINUOUS
 62
    7
 10
212.19807538620756
 20
22.96185764430021
 11
212.19807538620756
 21
31.381396065784031
  0
LINE
  8
_0-0_
  6
CONTINUOUS
 62
    7
 10
211.99807538620763
 20
22.96185764430021
 11
211.99807538620763
 21
31.381396065784031
  0
LINE
  8
_0-0_
  6
CONTINUOUS
 62
    7
 10
211.79807538620753
 20
22.96185764430021
 11
211.79807538620753
 21
31.381396065784031
  0
LINE
  8
_0-0_
  6
CONTINUOUS
 62
    7
 10
211.59807538620754
 20
22.96185764430021
 11
211.59807538620754
 21
31.381396065784031
  0
LINE
  8
_0-0_
  6
CONTINUOUS
 62
    7
 10
211.39807538620761
 20
22.96185764430021
 11
211.39807538620761
 21
31.381396065784031
  0
LINE
  8
_0-0_
  6
CONTINUOUS
 62
    4
 10
215.99757048117641
 20
37.535662831666059
 11
204.61725370089289
 21
22.718025881011329
  0
LINE
  8
_0-0_
  6
CONTINUOUS
 62
    4
 10
204.61725370089289
 20
22.718025881011329
 11
203.50244715915073
 21
22.253523155285222
  0
LINE
  8
_0-0_
  6
CONTINUOUS
 62
    4
 10
203.50244715915073
 20
22.253523155285222
 11
202.48054116255395
 21
21.881920974704769
  0
LINE
  8
_0-0_
  6
CONTINUOUS
 62
    4
 10
202.48054116255395
 20
21.881920974704769
 11
201.92313789168298
 21
22.392873973002963
  0
LINE
  8
_0-0_
  6
CONTINUOUS
 62
    4
 10
201.92313789168298
 20
22.392873973002963
 11
201.45863516595711
 21
23.043177789019239
  0
LINE
  8
_0-0_
  6
CONTINUOUS
 62
    4
 10
201.45863516595711
 20
23.043177789019239
 11
201.08703298537625
 21
24.297335148479021
  0
LINE
  8
_0-0_
  6
CONTINUOUS
 62
    4
 10
201.08703298537625
 20
24.297335148479021
 11
201.45863516595711
 21
25.458591962793832
  0
LINE
  8
_0-0_
  6
CONTINUOUS
 62
    4
 10
201.45863516595711
 20
25.458591962793832
 11
202.85214334313457
 21
27.455953683414975
  0
LINE
  8
_0-0_
  6
CONTINUOUS
 62
    4
 10
202.85214334313457
 20
27.455953683414975
 11
213.34990494453911
 21
41.669737090626256
  0
LINE
  8
_0-0_
  6
CONTINUOUS
 62
    4
 10
213.34990494453911
 20
41.669737090626256
 11
213.34990494453911
 21
42.691643087222928
  0
LINE
  8
_0-0_
  6
CONTINUOUS
 62
    4
 10
213.34990494453911
 20
42.691643087222928
 11
213.62860657997459
 21
43.341946903239204
  0
LINE
  8
_0-0_
  6
CONTINUOUS
 62
    4
 10
213.62860657997459
 20
43.341946903239204
 11
214.37181094113589
 21
44.178051809545821
  0
LINE
  8
_0-0_
  6
CONTINUOUS
 62
    4
 10
214.37181094113589
 20
44.178051809545821
 11
214.60406230399889
 21
44.410303172408447
  0
LINE
  8
_0-0_
  6
CONTINUOUS
 62
    4
 10
214.60406230399889
 20
44.410303172408447
 11
215.02211475715217
 21
45.014156715852323
  0
LINE
  8
_0-0_
  6
CONTINUOUS
 62
    4
 10
215.02211475715217
 20
45.014156715852323
 11
215.71886884574087
 21
45.107057260997408
  0
LINE
  8
_0-0_
  6
CONTINUOUS
 62
    4
 10
215.71886884574087
 20
45.107057260997408
 11
216.92657593262811
 21
45.339308623860433
  0
LINE
  8
_0-0_
  6
CONTINUOUS
 62
    4
 10
216.92657593262811
 20
45.339308623860433
 11
217.39107865835399
 21
45.292858351287748
  0
LINE
  8
_0-0_
  6
CONTINUOUS
 62
    4
 10
217.39107865835399
 20
45.292858351287748
 11
218.36653438237835
 21
44.967706443279667
  0
LINE
  8
_0-0_
  6
CONTINUOUS
 62
    4
 10
218.36653438237835
 20
44.967706443279667
 11
218.73813656295897
 21
44.503203717553959
  0
LINE
  8
_0-0_
  6
CONTINUOUS
 62
    4
 10
218.73813656295897
 20
44.503203717553959
 11
219.76004255955587
 21
43.156145812948807
  0
LINE
  8
_0-0_
  6
CONTINUOUS
 62
    4
 10
219.76004255955587
 20
43.156145812948807
 11
222.91866109449171
 21
37.907265012246626
  0
LINE
  8
_0-0_
  6
CONTINUOUS
 62
    4
 10
225.15638669606284
 20
34.126979592031887
 11
229.65213005812126
 21
26.366270861328587
  0
LINE
  8
_0-0_
  6
CONTINUOUS
 62
    4
 10
229.65213005812126
 20
26.366270861328587
 11
230.0832385229383
 21
25.257706237513332
  0
LINE
  8
_0-0_
  6
CONTINUOUS
 62
    4
 10
230.0832385229383
 20
25.257706237513332
 11
229.89847775230243
 21
24.703423925605932
  0
LINE
  8
_0-0_
  6
CONTINUOUS
 62
    4
 10
229.89847775230243
 20
24.703423925605932
 11
229.34419544039491
 21
23.933587381289783
  0
LINE
  8
_0-0_
  6
CONTINUOUS
 62
    4
 10
229.34419544039491
 20
23.933587381289783
 11
227.18865311630981
 21
23.286924684064218
  0
LINE
  8
_0-0_
  6
CONTINUOUS
 62
    4
 10
227.18865311630981
 20
23.286924684064218
 11
225.89532772185879
 21
22.825022757474528
  0
LINE
  8
_0-0_
  6
CONTINUOUS
 62
    4
 10
225.89532772185879
 20
22.825022757474528
 11
224.755969636271
 21
23.286924684064218
  0
LINE
  8
_0-0_
  6
CONTINUOUS
 62
    4
 10
224.755969636271
 20
23.286924684064218
 11
223.0007423152303
 21
25.165325852195508
  0
LINE
  8
_0-0_
  6
CONTINUOUS
 62
    4
 10
223.0007423152303
 20
25.165325852195508
 11
222.93915539168501
 21
26.181510090692711
  0
LINE
  8
_0-0_
  6
CONTINUOUS
 62
    4
 10
222.93915539168501
 20
26.181510090692711
 11
215.99757048117641
 21
37.535662831666059
  0
LINE
  8
_0-0_
  6
CONTINUOUS
 62
    4
 10
229.12808951198207
 20
23.868755602766953
 11
229.73318611154031
 21
24.473852202325418
  0
LINE
  8
_0-0_
  6
CONTINUOUS
 62
    4
 10
228.31996747634281
 20
23.626318992074232
 11
230.04631105861444
 21
25.35266257434597
  0
LINE
  8
_0-0_
  6
CONTINUOUS
 62
    4
 10
227.51184544069991
 20
23.383882381381284
 11
229.88791913962831
 21
25.759956080309792
  0
LINE
  8
_0-0_
  6
CONTINUOUS
 62
    4
 10
226.66061854183505
 20
23.098340907466479
 11
229.72952722064207
 21
26.167249586273726
  0
LINE
  8
_0-0_
  6
CONTINUOUS
 62
    4
 10
225.84287826159454
 20
22.846286052176254
 11
229.5460251161274
 21
26.549432906708887
  0
LINE
  8
_0-0_
  6
CONTINUOUS
 62
    4
 10
225.44037132461364
 20
23.009464540141664
 11
229.33852816064888
 21
26.907621376177019
  0
LINE
  8
_0-0_
  6
CONTINUOUS
 62
    4
 10
225.03786438763024
 20
23.172643028108212
 11
229.13103120516922
 21
27.265809845647311
  0
LINE
  8
_0-0_
  6
CONTINUOUS
 62
    4
 10
224.67408816165079
 20
23.37455222707905
 11
228.92353424968934
 21
27.623998315117603
  0
LINE
  8
_0-0_
  6
CONTINUOUS
 62
    4
 10
224.40083333773424
 20
23.666982828112452
 11
228.71603729420946
 21
27.982186784587668
  0
LINE
  8
_0-0_
  6
CONTINUOUS
 62
    4
 10
224.1275785138177
 20
23.959413429145741
 11
228.5085403387298
 21
28.340375254058074
  0
LINE
  8
_0-0_
  6
CONTINUOUS
 62
    4
 10
223.85432368990297
 20
24.251844030177665
 11
228.30104338325128
 21
28.698563723525865
  0
LINE
  8
_0-0_
  6
CONTINUOUS
 62
    4
 10
223.58106886598631
 20
24.544274631211067
 11
228.09354642777151
 21
29.056752192996157
  0
LINE
  8
_0-0_
  6
CONTINUOUS
 62
    4
 10
223.30781404206977
 20
24.836705232244697
 11
227.88604947229152
 21
29.414940662466336
  0
LINE
  8
_0-0_
  6
CONTINUOUS
 62
    4
 10
223.03455921815322
 20
25.129135833277871
 11
227.67855251681164
 21
29.773129131936628
  0
LINE
  8
_0-0_
  6
CONTINUOUS
 62
    4
 10
222.97241782933901
 20
25.632679869410197
 11
227.47105556133334
 21
30.131317601404646
  0
LINE
  8
_0-0_
  6
CONTINUOUS
 62
    4
 10
222.94009294791323
 20
26.166040412934478
 11
227.26355860585358
 21
30.489506070874825
  0
LINE
  8
_0-0_
  6
CONTINUOUS
 62
    4
 10
222.73075378062703
 20
26.522386670598337
 11
227.05606165037369
 21
30.847694540345003
  0
LINE
  8
_0-0_
  6
CONTINUOUS
 62
    4
 10
222.51612710173976
 20
26.873445416661241
 11
226.8485646948937
 21
31.205883009815182
  0
LINE
  8
_0-0_
  6
CONTINUOUS
 62
    4
 10
222.30150042285283
 20
27.224504162724372
 11
226.64106773941393
 21
31.56407147928536
  0
LINE
  8
_0-0_
  6
CONTINUOUS
 62
    4
 10
222.08687374396692
 20
27.575562908784889
 11
226.43357078393552
 21
31.922259948753492
  0
LINE
  8
_0-0_
  6
CONTINUOUS
 62
    4
 10
221.87224706507988
 20
27.926621654847906
 11
226.22607382845575
 21
32.280448418223671
  0
LINE
  8
_0-0_
  6
CONTINUOUS
 62
    4
 10
221.6576203861926
 20
28.277680400910697
 11
226.01857687297587
 21
32.638636887693963
  0
LINE
  8
_0-0_
  6
CONTINUOUS
 62
    4
 10
221.44299370730533
 20
28.628739146973601
 11
225.81107991749599
 21
32.996825357164028
  0
LINE
  8
_0-0_
  6
CONTINUOUS
 62
    4
 10
221.22836702841965
 20
28.979797893034345
 11
225.60358296201758
 21
33.355013826632046
  0
LINE
  8
_0-0_
  6
CONTINUOUS
 62
    4
 10
221.01374034953272
 20
29.33085663909759
 11
225.39608600653781
 21
33.713202296102679
  0
LINE
  8
_0-0_
  6
CONTINUOUS
 62
    4
 10
220.79911367064557
 20
29.681915385160266
 11
225.18858905105793
 21
34.07139076557263
  0
LINE
  8
_0-0_
  6
CONTINUOUS
 62
    4
 10
220.5844869917583
 20
30.032974131223057
 11
224.67849245256701
 21
34.126979592031773
  0
LINE
  8
_0-0_
  6
CONTINUOUS
 62
    4
 10
220.3698603128725
 20
30.384032877283573
 11
224.11280702762139
 21
34.126979592032342
  0
LINE
  8
_0-0_
  6
CONTINUOUS
 62
    4
 10
220.15523363398546
 20
30.735091623346818
 11
223.54712160267064
 21
34.126979592031887
  0
LINE
  8
_0-0_
  6
CONTINUOUS
 62
    4
 10
219.9406069550983
 20
31.086150369409609
 11
222.98143617772104
 21
34.126979592032342
  0
LINE
  8
_0-0_
  6
CONTINUOUS
 62
    4
 10
219.72598027621126
 20
31.437209115472399
 11
222.41575075277143
 21
34.126979592032797
  0
LINE
  8
_0-0_
  6
CONTINUOUS
 62
    4
 10
219.5113535973241
 20
31.78826786153553
 11
221.85006532782069
 21
34.126979592032114
  0
LINE
  8
_0-0_
  6
CONTINUOUS
 62
    4
 10
219.29672691843831
 20
32.139326607596161
 11
221.28437990287495
 21
34.126979592032797
  0
LINE
  8
_0-0_
  6
CONTINUOUS
 62
    4
 10
219.08210023955127
 20
32.490385353659178
 11
220.7599054626308
 21
34.168190576738709
  0
LINE
  8
_0-0_
  6
CONTINUOUS
 62
    4
 10
218.86747356066411
 20
32.841444099721969
 11
221.53264612366144
 21
35.506616662719125
  0
LINE
  8
_0-0_
  6
CONTINUOUS
 62
    4
 10
218.65284688177684
 20
33.192502845784645
 11
222.3053867846948
 21
36.845042748702724
  0
LINE
  8
_0-0_
  6
CONTINUOUS
 62
    4
 10
218.43822020289099
 20
33.543561591845503
 11
222.87480392299182
 21
37.980145311945961
  0
LINE
  8
_0-0_
  6
CONTINUOUS
 62
    4
 10
218.22359352400412
 20
33.894620337908634
 11
222.66228122190552
 21
38.333308035809779
  0
LINE
  8
_0-0_
  6
CONTINUOUS
 62
    4
 10
218.0089668451169
 20
34.245679083971311
 11
222.4497585208191
 21
38.686470759673682
  0
LINE
  8
_0-0_
  6
CONTINUOUS
 62
    4
 10
217.79434016622963
 20
34.596737830034215
 11
222.2372358197328
 21
39.039633483537273
  0
LINE
  8
_0-0_
  6
CONTINUOUS
 62
    4
 10
217.57971348734247
 20
34.947796576097232
 11
222.02471311864673
 21
39.392796207401034
  0
LINE
  8
_0-0_
  6
CONTINUOUS
 62
    4
 10
217.36508680845691
 20
35.298855322157976
 11
221.81219041756191
 21
39.745958931262749
  0
LINE
  8
_0-0_
  6
CONTINUOUS
 62
    4
 10
203.93379925769273
 20
22.433253196343969
 11
205.93721357712246
 21
24.436667515773536
  0
LINE
  8
_0-0_
  6
CONTINUOUS
 62
    4
 10
217.15046012956981
 20
35.649914068220653
 11
221.59966771647572
 21
40.099121655126737
  0
LINE
  8
_0-0_
  6
CONTINUOUS
 62
    4
 10
203.00891901027461
 20
22.074058373875516
 11
207.81009099756238
 21
26.875230361163688
  0
LINE
  8
_0-0_
  6
CONTINUOUS
 62
    4
 10
216.93583345068254
 20
36.000972814283614
 11
221.38714501538942
 21
40.452284378990498
  0
LINE
  8
_0-0_
  6
CONTINUOUS
 62
    4
 10
202.36083074008411
 20
21.991655528635249
 11
209.68296841800696
 21
29.313793206558159
  0
LINE
  8
_0-0_
  6
CONTINUOUS
 62
    4
 10
216.72120677179538
 20
36.352031560346575
 11
221.17462231430301
 21
40.805447102854231
  0
LINE
  8
_0-0_
  6
CONTINUOUS
 62
    4
 10
202.06569051837295
 20
22.262200731870792
 11
211.55584583843626
 21
31.752356051933987
  0
LINE
  8
_0-0_
  6
CONTINUOUS
 62
    4
 10
216.5065800929097
 20
36.703090306407375
 11
220.96209961321841
 21
41.158609826715917
  0
LINE
  8
_0-0_
  6
CONTINUOUS
 62
    4
 10
201.80127974287961
 20
22.563475381327464
 11
213.42872325888243
 21
34.190918897330164
  0
LINE
  8
_0-0_
  6
CONTINUOUS
 62
    4
 10
216.29195341402266
 20
37.054149052470393
 11
220.749576912132
 21
41.511772550579735
  0
LINE
  8
_0-0_
  6
CONTINUOUS
 62
    4
 10
201.56557748248389
 20
22.893458545881515
 11
215.30160067932434
 21
36.629481742721964
  0
LINE
  8
_0-0_
  6
CONTINUOUS
 62
    4
 10
216.07732673513539
 20
37.405207798532984
 11
220.53705421104593
 21
41.864935274443553
  0
LINE
  8
_0-0_
  6
CONTINUOUS
 62
    4
 10
201.38800113960559
 20
23.281567627953393
 11
220.32453150995963
 21
42.2180979983074
  0
LINE
  8
_0-0_
  6
CONTINUOUS
 62
    4
 10
201.25870161390327
 20
23.717953527201246
 11
220.11200880887333
 21
42.571260722171047
  0
LINE
  8
_0-0_
  6
CONTINUOUS
 62
    4
 10
201.12940208820106
 20
24.154339426445461
 11
219.89948610778862
 21
42.924423446032961
  0
LINE
  8
_0-0_
  6
CONTINUOUS
 62
    4
 10
201.2660073854197
 20
24.856630148614215
 11
219.67613218277899
 21
43.266754945973389
  0
LINE
  8
_0-0_
  6
CONTINUOUS
 62
    4
 10
201.81944606897133
 20
25.975754257115852
 11
219.43211101907485
 21
43.588419207219147
  0
LINE
  8
_0-0_
  6
CONTINUOUS
 62
    4
 10
203.18601108883996
 20
27.908004701934658
 11
219.18808985537095
 21
43.910083468465189
  0
LINE
  8
_0-0_
  6
CONTINUOUS
 62
    4
 10
204.7840724143079
 20
30.071751452349133
 11
218.94406869166846
 21
44.231747729709468
  0
LINE
  8
_0-0_
  6
CONTINUOUS
 62
    4
 10
206.38213373979289
 20
32.235498202783845
 11
218.69889331478294
 21
44.552257777773946
  0
LINE
  8
_0-0_
  6
CONTINUOUS
 62
    4
 10
207.98019506527527
 20
34.399244953216282
 11
218.44747757036066
 21
44.866527458301562
  0
LINE
  8
_0-0_
  6
CONTINUOUS
 62
    4
 10
209.57825639076253
 20
36.56299170365358
 11
218.07886194338624
 21
45.063597256277035
  0
LINE
  8
_0-0_
  6
CONTINUOUS
 62
    4
 10
211.17631771624275
 20
38.726738454083943
 11
217.65459787467381
 21
45.205018612515005
  0
LINE
  8
_0-0_
  6
CONTINUOUS
 62
    4
 10
212.7743790417174
 20
40.890485204504756
 11
217.19623641303264
 21
45.312342575820139
  0
LINE
  8
_0-0_
  6
CONTINUOUS
 62
    4
 10
213.34990494453967
 20
42.031696532277408
 11
216.59345539409719
 21
45.275246981834698
  0
LINE
  8
_0-0_
  6
CONTINUOUS
 62
    4
 10
213.34990494453939
 20
42.597381957227043
 11
215.89308296320741
 21
45.14055997589503
  0
LINE
  8
_0-0_
  6
CONTINUOUS
 62
    4
 10
214.61963583475926
 20
44.432798272396894
 11
215.2285142045327
 21
45.041676642170358
  0
LINE
  8
_0-0_
  6
CONTINUOUS
 62
    4
 10
201.44262072867099
 20
23.097226514856459
 11
202.61062357381792
 21
21.929223669709529
  0
LINE
  8
_0-0_
  6
CONTINUOUS
 62
    4
 10
201.20443739185095
 20
23.901095276626563
 11
203.02545955211446
 21
22.080073116362939
  0
LINE
  8
_0-0_
  6
CONTINUOUS
 62
    4
 10
201.15657236951512
 20
24.514645723912338
 11
203.44029553041088
 21
22.230922563016577
  0
LINE
  8
_0-0_
  6
CONTINUOUS
 62
    4
 10
201.29370823010919
 20
24.943195288268328
 11
203.84192942075617
 21
22.394974097621173
  0
LINE
  8
_0-0_
  6
CONTINUOUS
 62
    4
 10
201.43084409070201
 20
25.371744852622044
 11
204.24123677954202
 21
22.561352163781805
  0
LINE
  8
_0-0_
  6
CONTINUOUS
 62
    4
 10
201.64399704521293
 20
25.724277323061017
 11
204.63158654248963
 21
22.736687825784259
  0
LINE
  8
_0-0_
  6
CONTINUOUS
 62
    4
 10
201.87647050752133
 20
26.057489285702843
 11
204.87731868630664
 21
23.056641106917425
  0
LINE
  8
_0-0_
  6
CONTINUOUS
 62
    4
 10
202.10894396982957
 20
26.390701248344556
 11
205.12305083012365
 21
23.376594388050592
  0
LINE
  8
_0-0_
  6
CONTINUOUS
 62
    4
 10
202.34141743213644
 20
26.723913210984222
 11
205.36878297393918
 21
23.696547669181371
  0
LINE
  8
_0-0_
  6
CONTINUOUS
 62
    4
 10
202.5738908944445
 20
27.057125173626048
 11
205.61451511775579
 21
24.016500950314651
  0
LINE
  8
_0-0_
  6
CONTINUOUS
 62
    4
 10
202.80636435675268
 20
27.390337136268101
 11
205.86024726157297
 21
24.336454231447817
  0
LINE
  8
_0-0_
  6
CONTINUOUS
 62
    4
 10
203.04513115415176
 20
27.717255763819196
 11
206.10597940538986
 21
24.656407512581097
  0
LINE
  8
_0-0_
  6
CONTINUOUS
 62
    4
 10
203.28544112790729
 20
28.042631215009862
 11
206.35171154920533
 21
24.976360793711876
  0
LINE
  8
_0-0_
  6
CONTINUOUS
 62
    4
 10
203.5257511016643
 20
28.368006666202916
 11
206.59744369302217
 21
25.296314074845043
  0
LINE
  8
_0-0_
  6
CONTINUOUS
 62
    4
 10
203.76606107542131
 20
28.693382117396197
 11
206.84317583683907
 21
25.616267355977982
  0
LINE
  8
_0-0_
  6
CONTINUOUS
 62
    4
 10
204.00637104917809
 20
29.018757568589137
 11
207.08890798065613
 21
25.936220637111148
  0
LINE
  8
_0-0_
  6
CONTINUOUS
 62
    4
 10
204.24668102293515
 20
29.344133019782305
 11
207.3346401244732
 21
26.256173918244315
  0
LINE
  8
_0-0_
  6
CONTINUOUS
 62
    4
 10
204.48699099669074
 20
29.669508470973199
 11
207.58037226828861
 21
26.576127199375549
  0
LINE
  8
_0-0_
  6
CONTINUOUS
 62
    4
 10
204.72730097044763
 20
29.994883922166366
 11
207.82610441210539
 21
26.896080480508715
  0
LINE
  8
_0-0_
  6
CONTINUOUS
 62
    4
 10
204.96761094420452
 20
30.320259373359534
 11
208.0718365559224
 21
27.21603376164154
  0
LINE
  8
_0-0_
  6
CONTINUOUS
 62
    4
 10
205.20792091796153
 20
30.645634824552474
 11
208.31756869973935
 21
27.535987042774707
  0
LINE
  8
_0-0_
  6
CONTINUOUS
 62
    4
 10
205.44823089171706
 20
30.971010275743367
 11
208.56330084355483
 21
27.8559403239056
  0
LINE
  8
_0-0_
  6
CONTINUOUS
 62
    4
 10
205.68854086547395
 20
31.296385726936535
 11
208.80903298737155
 21
28.175893605038766
  0
LINE
  8
_0-0_
  6
CONTINUOUS
 62
    4
 10
205.92885083923096
 20
31.621761178129702
 11
209.05476513118862
 21
28.495846886171933
  0
LINE
  8
_0-0_
  6
CONTINUOUS
 62
    4
 10
206.16916081298797
 20
31.94713662932287
 11
209.30049727500574
 21
28.815800167305099
  0
LINE
  8
_0-0_
  6
CONTINUOUS
 62
    4
 10
206.40947078674492
 20
32.27251208051581
 11
209.54622941882263
 21
29.135753448438265
  0
LINE
  8
_0-0_
  6
CONTINUOUS
 62
    4
 10
206.64978076050051
 20
32.597887531706704
 11
209.79196156263799
 21
29.455706729569158
  0
LINE
  8
_0-0_
  6
CONTINUOUS
 62
    4
 10
206.8900907342574
 20
32.923262982899871
 11
210.03769370645477
 21
29.775660010702325
  0
LINE
  8
_0-0_
  6
CONTINUOUS
 62
    4
 10
207.13040070801441
 20
33.248638434093039
 11
210.28342585027195
 21
30.095613291835491
  0
LINE
  8
_0-0_
  6
CONTINUOUS
 62
    4
 10
207.3707106817713
 20
33.574013885285751
 11
210.52915799408896
 21
30.41556657296843
  0
LINE
  8
_0-0_
  6
CONTINUOUS
 62
    4
 10
207.61102065552683
 20
33.899389336477213
 11
210.77489013790426
 21
30.73551985409955
  0
LINE
  8
_0-0_
  6
CONTINUOUS
 62
    4
 10
207.85133062928384
 20
34.224764787669812
 11
211.02062228172116
 21
31.055473135232717
  0
LINE
  8
_0-0_
  6
CONTINUOUS
 62
    4
 10
208.09164060304073
 20
34.550140238863207
 11
211.26635442553811
 21
31.375426416365883
  0
LINE
  8
_0-0_
  6
CONTINUOUS
 62
    4
 10
208.33195057679774
 20
34.875515690056375
 11
211.51208656935512
 21
31.695379697498822
  0
LINE
  8
_0-0_
  6
CONTINUOUS
 62
    4
 10
208.57226055055469
 20
35.200891141248974
 11
211.75781871317201
 21
32.015332978631875
  0
LINE
  8
_0-0_
  6
CONTINUOUS
 62
    4
 10
208.81257052431027
 20
35.526266592440095
 11
212.00355085698749
 21
32.335286259763109
  0
LINE
  8
_0-0_
  6
CONTINUOUS
 62
    4
 10
209.05288049806717
 20
35.851642043633149
 11
212.24928300080438
 21
32.655239540896048
  0
LINE
  8
_0-0_
  6
CONTINUOUS
 62
    4
 10
209.29319047182418
 20
36.177017494826259
 11
212.49501514462139
 21
32.975192822029214
  0
LINE
  8
_0-0_
  6
CONTINUOUS
 62
    4
 10
209.53350044558107
 20
36.502392946019427
 11
212.74074728843834
 21
33.295146103162153
  0
LINE
  8
_0-0_
  6
CONTINUOUS
 62
    4
 10
209.7738104193366
 20
36.827768397210434
 11
212.98647943225365
 21
33.615099384293501
  0
LINE
  8
_0-0_
  6
CONTINUOUS
 62
    4
 10
210.01412039309361
 20
37.153143848403488
 11
213.23221157607054
 21
33.935052665426667
  0
LINE
  8
_0-0_
  6
CONTINUOUS
 62
    4
 10
210.25443036685061
 20
37.478519299596627
 11
213.47794371988761
 21
34.255005946559493
  0
LINE
  8
_0-0_
  6
CONTINUOUS
 62
    4
 10
210.49474034060751
 20
37.803894750789595
 11
213.72367586370461
 21
34.574959227692318
  0
LINE
  8
_0-0_
  6
CONTINUOUS
 62
    4
 10
222.99218961045887
 20
25.306445480938294
 11
225.18607911487442
 21
23.112555976522628
  0
LINE
  8
_0-0_
  6
CONTINUOUS
 62
    4
 10
210.73505031436457
 20
38.129270201982735
 11
213.96940800752151
 21
34.894912508825428
  0
LINE
  8
_0-0_
  6
CONTINUOUS
 62
    4
 10
222.95569377658984
 20
25.908626739757494
 11
226.00141090702692
 21
22.862909609320411
  0
LINE
  8
_0-0_
  6
CONTINUOUS
 62
    4
 10
210.97536028811993
 20
38.454645653173856
 11
214.21514015133687
 21
35.214865789956775
  0
LINE
  8
_0-0_
  6
CONTINUOUS
 62
    4
 10
222.4525196856012
 20
26.977486255692554
 11
226.41823174646112
 21
23.011774194832753
  0
LINE
  8
_0-0_
  6
CONTINUOUS
 62
    4
 10
211.21567026187705
 20
38.78002110436654
 11
214.46087229515388
 21
35.534819071089771
  0
LINE
  8
_0-0_
  6
CONTINUOUS
 62
    4
 10
221.56261757853059
 20
28.433073787713113
 11
226.83505258589793
 21
23.160638780345892
  0
LINE
  8
_0-0_
  6
CONTINUOUS
 62
    4
 10
211.45598023563394
 20
39.105396555559764
 11
214.70660443897077
 21
35.854772352222824
  0
LINE
  8
_0-0_
  6
CONTINUOUS
 62
    4
 10
220.67271547146021
 20
29.888661319733558
 11
227.25465234001723
 21
23.306724451176649
  0
LINE
  8
_0-0_
  6
CONTINUOUS
 62
    4
 10
211.6962902093909
 20
39.430772006752761
 11
214.95233658278784
 21
36.174725633356047
  0
LINE
  8
_0-0_
  6
CONTINUOUS
 62
    4
 10
219.782813364383
 20
31.344248851760824
 11
227.68979497459389
 21
23.437267241549819
  0
LINE
  8
_0-0_
  6
CONTINUOUS
 62
    4
 10
211.93660018314637
 20
39.756147457943825
 11
215.19806872660314
 21
36.494678914487167
  0
LINE
  8
_0-0_
  6
CONTINUOUS
 62
    4
 10
218.89291125731751
 20
32.799836383772856
 11
228.12493760916874
 21
23.56781003192151
  0
LINE
  8
_0-0_
  6
CONTINUOUS
 62
    4
 10
212.17691015690338
 20
40.081522909136936
 11
215.44380087042015
 21
36.814632195620334
  0
LINE
  8
_0-0_
  6
CONTINUOUS
 62
    4
 10
218.00300915024712
 20
34.255423915793074
 11
228.56008024374552
 21
23.698352822294794
  0
LINE
  8
_0-0_
  6
CONTINUOUS
 62
    4
 10
212.41722013066038
 20
40.406898360329933
 11
215.68953301423704
 21
37.134585476753273
  0
LINE
  8
_0-0_
  6
CONTINUOUS
 62
    4
 10
217.11310704317657
 20
35.71101144781386
 11
228.99522287832218
 21
23.828895612668191
  0
LINE
  8
_0-0_
  6
CONTINUOUS
 62
    4
 10
212.65753010441728
 20
40.732273811523072
 11
215.93526515805411
 21
37.454538757886411
  0
LINE
  8
_0-0_
  6
CONTINUOUS
 62
    4
 10
216.2232049361059
 20
37.166598979834333
 11
229.39108799147886
 21
23.998715924461578
  0
LINE
  8
_0-0_
  6
CONTINUOUS
 62
    4
 10
212.89784007817423
 20
41.057649262716041
 11
229.62788654145783
 21
24.327602799432668
  0
LINE
  8
_0-0_
  6
CONTINUOUS
 62
    4
 10
213.1381500519297
 20
41.383024713907162
 11
229.86468509143509
 21
24.656489674401712
  0
LINE
  8
_0-0_
  6
CONTINUOUS
 62
    4
 10
213.34990494454007
 20
41.736955246246623
 11
220.81801717525974
 21
34.268843015527239
  0
LINE
  8
_0-0_
  6
CONTINUOUS
 62
    4
 10
220.95988059875589
 20
34.126979592031205
 11
230.01971738052197
 21
25.067142810265125
  0
LINE
  8
_0-0_
  6
CONTINUOUS
 62
    4
 10
213.34990494453933
 20
42.302640671197423
 11
221.02507241134225
 21
34.627473204394903
  0
LINE
  8
_0-0_
  6
CONTINUOUS
 62
    4
 10
221.52556602370561
 20
34.126979592031432
 11
229.88494706957516
 21
25.767598546161992
  0
LINE
  8
_0-0_
  6
CONTINUOUS
 62
    4
 10
213.40290984721668
 20
42.815321193470197
 11
221.23212764742465
 21
34.986103393262454
  0
LINE
  8
_0-0_
  6
CONTINUOUS
 62
    4
 10
222.09125144865521
 20
34.126979592031887
 11
229.37697095544678
 21
26.841260085240322
  0
LINE
  8
_0-0_
  6
CONTINUOUS
 62
    4
 10
213.57261547470017
 20
43.211300990933523
 11
221.43918288350557
 21
35.344733582127901
  0
LINE
  8
_0-0_
  6
CONTINUOUS
 62
    4
 10
222.65693687360198
 20
34.126979592031432
 11
228.59804186828575
 21
28.185874597347777
  0
LINE
  8
_0-0_
  6
CONTINUOUS
 62
    4
 10
213.80698230108965
 20
43.542619589493796
 11
221.64623811958774
 21
35.703363770995793
  0
LINE
  8
_0-0_
  6
CONTINUOUS
 62
    4
 10
223.22262229855261
 20
34.126979592030978
 11
227.81911278111903
 21
29.530489109464781
  0
LINE
  8
_0-0_
  6
CONTINUOUS
 62
    4
 10
214.0731872069486
 20
43.8421001085851
 11
221.85329335567025
 21
36.061993959863457
  0
LINE
  8
_0-0_
  6
CONTINUOUS
 62
    4
 10
223.78830772350233
 20
34.126979592031319
 11
227.04018369395232
 21
30.875103621581331
  0
LINE
  8
_0-0_
  6
CONTINUOUS
 62
    4
 10
214.33939211280733
 20
44.141580627676262
 11
222.06034859175253
 21
36.420624148731093
  0
LINE
  8
_0-0_
  6
CONTINUOUS
 62
    4
 10
224.35399314845193
 20
34.126979592031773
 11
226.26125460678458
 21
32.219718133699246
  0
LINE
  8
_0-0_
  6
CONTINUOUS
 62
    4
 10
214.61727294950811
 20
44.429385215921911
 11
222.26740382783356
 21
36.779254337596427
  0
LINE
  8
_0-0_
  6
CONTINUOUS
 62
    4
 10
224.9196785733987
 20
34.126979592031432
 11
225.48232551961706
 21
33.564332645813181
  0
LINE
  8
_0-0_
  6
CONTINUOUS
 62
    4
 10
214.84868971426027
 20
44.763653876119633
 11
222.47445906391573
 21
37.137884526464404
  0
LINE
  8
_0-0_
  6
CONTINUOUS
 62
    4
 10
215.14719494155719
 20
45.030834073773121
 11
222.68151429999824
 21
37.496514715332069
  0
LINE
  8
_0-0_
  6
CONTINUOUS
 62
    4
 10
215.6463291400421
 20
45.097385300238102
 11
222.88856953608064
 21
37.855144904199506
  0
LINE
  8
_0-0_
  6
CONTINUOUS
 62
    4
 10
216.12436296576652
 20
45.185036899463967
 11
222.18807852610718
 21
39.121321339123313
  0
LINE
  8
_0-0_
  6
CONTINUOUS
 62
    4
 10
216.59880880604396
 20
45.276276484132723
 11
221.33326499507024
 21
40.541820295106419
  0
LINE
  8
_0-0_
  6
CONTINUOUS
 62
    4
 10
217.12089388667067
 20
45.319876828456245
 11
220.47845146403534
 21
41.962319251091685
  0
LINE
  8
_0-0_
  6
CONTINUOUS
 62
    4
 10
217.87485735400628
 20
45.131598786070526
 11
219.47634386147007
 21
43.530112278606566
  0
LINE
  8
_0-0_
  6
CONTINUOUS
 62
    7
 10
231.39807538620761
 20
40.242314375218484
 11
231.39807538620761
 21
46.090361665958
  0
LINE
  8
_0-0_
  6
CONTINUOUS
 62
    7
 10
230.99807538620752
 20
40.326082113146185
 11
230.99807538620752
 21
46.006593928030242
  0
LINE
  8
_0-0_
  6
CONTINUOUS
 62
    7
 10
230.59807538620754
 20
40.471121338972807
 11
230.59807538620754
 21
45.86155470220362
  0
LINE
  8
_0-0_
  6
CONTINUOUS
 62
    7
 10
230.19807538620756
 20
40.688166859845296
 11
230.19807538620756
 21
45.644509181331188
  0
LINE
  8
_0-0_
  6
CONTINUOUS
 62
    7
 10
229.79807538620759
 20
40.998742199635672
 11
229.79807538620759
 21
45.333933841540812
  0
LINE
  8
_0-0_
  6
CONTINUOUS
 62
    7
 10
229.39807538620761
 20
41.452975541689767
 11
229.39807538620761
 21
44.879700499486717
  0
LINE
  8
_0-0_
  6
CONTINUOUS
 62
    7
 10
228.99807538620763
 20
42.242893206226825
 11
228.99807538620763
 21
44.089782834949744
  0
LINE
  8
_0-0_
  6
CONTINUOUS
 62
    7
 10
220.77999316582316
 20
34.202983499274637
 11
229.29223141321097
 21
34.202983499274637
  0
LINE
  8
_0-0_
  6
CONTINUOUS
 62
    7
 10
221.01093327349895
 20
34.602983499274615
 11
229.06129130553518
 21
34.602983499274615
  0
LINE
  8
_0-0_
  6
CONTINUOUS
 62
    7
 10
221.2418733811748
 20
35.002983499274592
 11
228.83035119785927
 21
35.002983499274592
  0
LINE
  8
_0-0_
  6
CONTINUOUS
 62
    7
 10
221.47281348885065
 20
35.402983499274626
 11
228.59941109018342
 21
35.402983499274626
  0
LINE
  8
_0-0_
  6
CONTINUOUS
 62
    7
 10
221.70375359652655
 20
35.802983499274603
 11
228.36847098250757
 21
35.802983499274603
  0
LINE
  8
_0-0_
  6
CONTINUOUS
 62
    7
 10
221.9346937042024
 20
36.202983499274637
 11
228.13753087483167
 21
36.202983499274637
  0
LINE
  8
_0-0_
  6
CONTINUOUS
 62
    7
 10
222.16563381187819
 20
36.602983499274586
 11
227.90659076715588
 21
36.602983499274586
  0
LINE
  8
_0-0_
  6
CONTINUOUS
 62
    7
 10
222.3965739195541
 20
37.00298349927462
 11
227.67565065947997
 21
37.00298349927462
  0
LINE
  8
_0-0_
  6
CONTINUOUS
 62
    7
 10
222.62751402722995
 20
37.402983499274598
 11
227.44471055180412
 21
37.402983499274598
  0
LINE
  8
_0-0_
  6
CONTINUOUS
 62
    7
 10
222.8584541349058
 20
37.802983499274632
 11
227.21377044412827
 21
37.802983499274632
  0
LINE
  8
_0-0_
  6
CONTINUOUS
 62
    7
 10
223.08939424258165
 20
38.20298349927458
 11
226.98283033645242
 21
38.20298349927458
  0
LINE
  8
_0-0_
  6
CONTINUOUS
 62
    7
 10
223.3203343502575
 20
38.602983499274615
 11
226.75189022877657
 21
38.602983499274615
  0
LINE
  8
_0-0_
  6
CONTINUOUS
 62
    7
 10
223.55127445793335
 20
39.002983499274592
 11
226.52095012110067
 21
39.002983499274592
  0
LINE
  8
_0-0_
  6
CONTINUOUS
 62
    7
 10
223.78221456560925
 20
39.402983499274598
 11
226.29001001342482
 21
39.402983499274598
  0
LINE
  8
_0-0_
  6
CONTINUOUS
 62
    7
 10
224.01315467328504
 20
39.802983499274632
 11
226.05906990574897
 21
39.802983499274632
  0
LINE
  8
_0-0_
  6
CONTINUOUS
 62
    7
 10
224.24409478096089
 20
40.20298349927458
 11
225.82812979807312
 21
40.20298349927458
  0
LINE
  8
_0-0_
  6
CONTINUOUS
 62
    7
 10
224.47503488863674
 20
40.602983499274615
 11
225.59718969039727
 21
40.602983499274615
  0
LINE
  8
_0-0_
  6
CONTINUOUS
 62
    7
 10
224.70597499631265
 20
41.002983499274592
 11
225.36624958272137
 21
41.002983499274592
  0
LINE
  8
_0-0_
  6
CONTINUOUS
 62
    7
 10
224.9369151039885
 20
41.402983499274626
 11
225.13530947504557
 21
41.402983499274626
  0
LINE
  8
_0-0_
  6
CONTINUOUS
 62
    7
 10
228.99807538620752
 20
34.126979592031887
 11
228.99807538620752
 21
34.712476683397256
  0
LINE
  8
_0-0_
  6
CONTINUOUS
 62
    7
 10
228.59807538620748
 20
34.126979592031887
 11
228.59807538620748
 21
35.405297006424803
  0
LINE
  8
_0-0_
  6
CONTINUOUS
 62
    7
 10
228.19807538620751
 20
34.126979592031887
 11
228.19807538620751
 21
36.09811732945235
  0
LINE
  8
_0-0_
  6
CONTINUOUS
 62
    7
 10
227.79807538620753
 20
34.126979592031887
 11
227.79807538620753
 21
36.790937652479812
  0
LINE
  8
_0-0_
  6
CONTINUOUS
 62
    7
 10
227.39807538620755
 20
34.126979592031887
 11
227.39807538620755
 21
37.483757975507359
  0
LINE
  8
_0-0_
  6
CONTINUOUS
 62
    7
 10
226.99807538620752
 20
34.126979592031887
 11
226.99807538620752
 21
38.176578298534878
  0
LINE
  8
_0-0_
  6
CONTINUOUS
 62
    7
 10
226.59807538620748
 20
34.126979592031887
 11
226.59807538620748
 21
38.869398621562397
  0
LINE
  8
_0-0_
  6
CONTINUOUS
 62
    7
 10
226.19807538620751
 20
34.126979592031887
 11
226.19807538620751
 21
39.562218944589915
  0
LINE
  8
_0-0_
  6
CONTINUOUS
 62
    7
 10
225.79807538620753
 20
34.126979592031887
 11
225.79807538620753
 21
40.255039267617406
  0
LINE
  8
_0-0_
  6
CONTINUOUS
 62
    7
 10
225.39807538620755
 20
34.126979592031887
 11
225.39807538620755
 21
40.947859590644953
  0
LINE
  8
_0-0_
  6
CONTINUOUS
 62
    7
 10
224.99807538620752
 20
34.126979592031887
 11
224.99807538620752
 21
41.508916215483254
  0
LINE
  8
_0-0_
  6
CONTINUOUS
 62
    7
 10
224.59807538620748
 20
34.126979592031887
 11
224.59807538620748
 21
40.816095892455706
  0
LINE
  8
_0-0_
  6
CONTINUOUS
 62
    7
 10
224.19807538620751
 20
34.126979592031887
 11
224.19807538620751
 21
40.123275569428102
  0
LINE
  8
_0-0_
  6
CONTINUOUS
 62
    7
 10
223.79807538620753
 20
34.126979592031887
 11
223.79807538620753
 21
39.430455246400669
  0
LINE
  8
_0-0_
  6
CONTINUOUS
 62
    7
 10
223.39807538620755
 20
34.126979592031887
 11
223.39807538620755
 21
38.737634923373065
  0
LINE
  8
_0-0_
  6
CONTINUOUS
 62
    7
 10
222.99807538620752
 20
34.126979592031887
 11
222.99807538620752
 21
38.044814600345518
  0
LINE
  8
_0-0_
  6
CONTINUOUS
 62
    7
 10
222.59807538620748
 20
34.126979592031887
 11
222.59807538620748
 21
37.351994277317999
  0
LINE
  8
_0-0_
  6
CONTINUOUS
 62
    7
 10
222.19807538620751
 20
34.126979592031887
 11
222.19807538620751
 21
36.659173954290452
  0
LINE
  8
_0-0_
  6
CONTINUOUS
 62
    7
 10
221.79807538620753
 20
34.126979592031887
 11
221.79807538620753
 21
35.966353631262962
  0
LINE
  8
_0-0_
  6
CONTINUOUS
 62
    7
 10
221.39807538620755
 20
34.126979592031887
 11
221.39807538620755
 21
35.273533308235415
  0
LINE
  8
_0-0_
  6
CONTINUOUS
 62
    7
 10
220.99807538620752
 20
34.126979592031887
 11
220.99807538620752
 21
34.580712985207867
  0
TEXT
  8
_0-0_
 62
    4
 10
491.75
 20
32.999999997749853
 40
5
 41
1
 50
0
  1
SCALE
  0
LINE
  8
_0-0_
  6
CONTINUOUS
 62
    2
 10
483
 20
38.499999997749796
 11
483
 21
16
  0
LINE
  8
ADD_LINE
  6
DOT
 62
    7
 10
498
 20
38.499999997749796
 11
498
 21
16
  0
LINE
  8
_0-0_
  6
CONTINUOUS
 62
    2
 10
513
 20
38.499999997749796
 11
513
 21
16
  0
LINE
  8
ADD_LINE
  6
DOT
 62
    7
 10
523
 20
38.499999997749796
 11
523
 21
16
  0
LINE
  8
_0-0_
  6
CONTINUOUS
 62
    2
 10
573
 20
32.499999997749853
 11
443
 21
32.499999997749853
  0
LINE
  8
ADD_LINE
  6
DOT
 62
    7
 10
443
 20
35.499999997749853
 11
573
 21
35.499999997749853
  0
LINE
  8
ADD_LINE
  6
DOT
 62
    7
 10
443
 20
24.999999999099998
 11
308.10688609811734
 21
24.999999999099998
  0
LINE
  8
ADD_LINE
  6
DOT
 62
    7
 10
443
 20
24.249999998874898
 11
573
 21
24.249999998874898
  0
LINE
  8
ADD_LINE
  6
DOT
 62
    7
 10
463
 20
38.499999997749796
 11
463
 21
16
  0
LINE
  8
_0-0_
  6
CONTINUOUS
 62
    2
 10
533
 20
51.999999996399822
 11
533
 21
16
  0
LINE
  8
ADD_LINE
  6
DOT
 62
    7
 10
543
 20
51.999999996399822
 11
543
 21
16
  0
LINE
  8
_0-0_
  6
CONTINUOUS
 62
    2
 10
553
 20
51.999999996399822
 11
553
 21
16
  0
LINE
  8
ADD_LINE
  6
DOT
 62
    7
 10
563
 20
51.999999996399822
 11
563
 21
16
  0
LINE
  8
_0-0_
  6
CONTINUOUS
 62
    2
 10
573
 20
45.249999997074838
 11
553
 21
45.249999997074838
  0
LINE
  8
ADD_LINE
  6
DOT
 62
    7
 10
443
 20
45.249999997074838
 11
553
 21
45.249999997074838
  0
LINE
  8
ADD_LINE
  6
DOT
 62
    7
 10
553
 20
48.62499999673733
 11
573
 21
48.62499999673733
  0
LINE
  8
ADD_LINE
  6
DOT
 62
    7
 10
553
 20
41.874999997412317
 11
573
 21
41.874999997412317
  0
LINE
  8
_0-0_
  6
CONTINUOUS
 62
    1
 10
573
 20
38.499999997749796
 11
443
 21
38.499999997749796
  0
LINE
  8
ADD_LINE
  6
DOT
 62
    7
 10
538
 20
51.999999996399822
 11
538
 21
16
  0
CIRCLE
  8
_0-0_
  6
CONTINUOUS
 62
    2
 10
538
 20
45.249999997074838
 40
4
  0
CIRCLE
  8
_0-0_
  6
CONTINUOUS
 62
    2
 10
538
 20
45.249999997074838
 40
2
  0
LINE
  8
_0-0_
  6
CENTER1
 62
    7
 10
538
 20
50.249999997074838
 11
538
 21
40.249999997074838
  0
TEXT
  8
_0-0_
 62
    4
 10
458
 20
32.999999997749853
 40
5
 41
1
 50
0
  1
日付
  0
TEXT
  8
_0-0_
 62
    4
 10
558
 20
46.12499999673733
 40
5
 41
1
 50
0
  1
単位
  0
TEXT
  8
_0-0_
 62
    4
 10
560.5
 20
39.374999997412317
 40
5
 41
1
 50
0
  1
mm
  0
LINE
  8
_0-0_
  6
CONTINUOUS
 62
    2
 10
544
 20
47.249999997074809
 11
551
 21
49.249999997074809
  0
LINE
  8
_0-0_
  6
CONTINUOUS
 62
    2
 10
551
 20
49.249999997074809
 11
551
 21
41.249999997074838
  0
LINE
  8
_0-0_
  6
CONTINUOUS
 62
    2
 10
544
 20
43.249999997074838
 11
551
 21
41.249999997074838
  0
LINE
  8
_0-0_
  6
CONTINUOUS
 62
    2
 10
544
 20
47.249999997074809
 11
544
 21
43.249999997074838
  0
LINE
  8
_0-0_
  6
CENTER1
 62
    7
 10
533
 20
45.249999997074838
 11
552
 21
45.249999997074838
  0
LINE
  8
_0-0_
  6
CONTINUOUS
 62
    1
 10
443
 20
33.999999998199939
 11
308.10688609811734
 21
33.999999998199939
  0
LINE
  8
_0-0_
  6
CONTINUOUS
 62
    1
 10
308.10688609811734
 20
16
 11
308.10688609811734
 21
51.999999996399822
  0
LINE
  8
ADD_LINE
  6
DOT
 62
    7
 10
443
 20
42.999999997299881
 11
308.10688609811734
 21
42.999999997299881
  0
LINE
  8
ADD_LINE
  6
DOT
 62
    7
 10
375.55344304905867
 20
16
 11
375.55344304905867
 21
51.999999996399822
  0
TEXT
  8
_0-0_
 62
    4
 10
310.10688609811734
 20
44.999999996399822
 40
5
 41
1
 50
0
  1
品番
  0
TEXT
  8
_0-0_
 62
    4
 10
310.10688609811734
 20
26.999999998199939
 40
5
 41
1
 50
0
  1
名称
  0
LINE
  8
_0-0_
  6
CONTINUOUS
 62
    1
 10
188.10688609811734
 20
51.999999996399822
 11
188.10688609811734
 21
16
  0
TEXT
  8
_0-0_
 62
    4
 10
490.5
 20
21.749999998874898
 40
5
 41
1
 50
0
  1
S=1：2
  0
TEXT
  8
_0-0_
 62
    4
 10
453
 20
21.749999998874898
 40
5
 41
1
 50
0
  1
06.06.01
  0
TEXT
  8
_0-0_
 62
    3
 10
340.05344304905867
 20
37.999999997299881
 40
10
 41
1
 50
0
  1
RP-8531.161.5
  0
LINE
  8
_0-0_
  6
CONTINUOUS
 62
    7
 10
127.49199956049321
 20
129.98955071871626
 11
129.04491383110835
 21
124.19399576098181
  0
LINE
  8
_0-0_
  6
CONTINUOUS
 62
    7
 10
130.59782810172348
 20
129.98955071871626
 11
129.04491383110835
 21
124.19399576098181
  0
LINE
  8
_0-0_
  6
CONTINUOUS
 62
    7
 10
142.11768443495785
 20
124.19399576098181
 11
129.04491383110835
 21
124.19399576098181
  0
LINE
  8
_0-0_
  6
CONTINUOUS
 62
    7
 10
127.49199956049321
 20
108.63035113324742
 11
129.04491383110835
 21
114.42590609098181
  0
LINE
  8
_0-0_
  6
CONTINUOUS
 62
    7
 10
130.59782810172348
 20
108.63035113324742
 11
129.04491383110835
 21
114.42590609098181
  0
LINE
  8
_0-0_
  6
CONTINUOUS
 62
    7
 10
144.25713527495785
 20
114.42590609098181
 11
129.04491383110835
 21
114.42590609098181
  0
LINE
  8
_0-0_
  6
CONTINUOUS
 62
    7
 10
129.04491383110835
 20
134.19399576098181
 11
129.04491383110835
 21
104.42590609098181
  0
ENDSEC
  0
EOF
