  0
SECTION
  2
HEADER
  9
$ACADVER
  1
AC1009
  9
$INSBASE
 10
0.0
 20
0.0
 30
0.0
  9
$EXTMIN
 10
16.781558113854771
 20
-501.71278022447183
 30
-0.0015258207003583
  9
$EXTMAX
 10
4526.0455404379618
 20
891.5957576324663
 30
0.0000000349246037
  9
$LIMMIN
 10
0.0
 20
0.0
  9
$LIMMAX
 10
1260.0
 20
891.0
  9
$ORTHOMODE
 70
     1
  9
$REGENMODE
 70
     1
  9
$FILLMODE
 70
     1
  9
$QTEXTMODE
 70
     0
  9
$MIRRTEXT
 70
     0
  9
$DRAGMODE
 70
     2
  9
$LTSCALE
 40
1.0
  9
$OSMODE
 70
   191
  9
$ATTMODE
 70
     1
  9
$TEXTSIZE
 40
0.2
  9
$TRACEWID
 40
0.05
  9
$TEXTSTYLE
  7
STANDARD
  9
$CLAYER
  8
0
  9
$CELTYPE
  6
CONTINUOUS
  9
$CECOLOR
 62
   256
  9
$DIMSCALE
 40
1.0
  9
$DIMASZ
 40
0.18
  9
$DIMEXO
 40
0.0625
  9
$DIMDLI
 40
0.38
  9
$DIMRND
 40
0.0
  9
$DIMDLE
 40
0.0
  9
$DIMEXE
 40
0.18
  9
$DIMTP
 40
0.0
  9
$DIMTM
 40
0.0
  9
$DIMTXT
 40
0.18
  9
$DIMCEN
 40
0.09
  9
$DIMTSZ
 40
0.0
  9
$DIMTOL
 70
     0
  9
$DIMLIM
 70
     0
  9
$DIMTIH
 70
     1
  9
$DIMTOH
 70
     1
  9
$DIMSE1
 70
     0
  9
$DIMSE2
 70
     0
  9
$DIMTAD
 70
     0
  9
$DIMZIN
 70
     0
  9
$DIMBLK
  1

  9
$DIMASO
 70
     1
  9
$DIMSHO
 70
     1
  9
$DIMPOST
  1

  9
$DIMAPOST
  1

  9
$DIMALT
 70
     0
  9
$DIMALTD
 70
     2
  9
$DIMALTF
 40
25.399999999999999
  9
$DIMLFAC
 40
1.0
  9
$DIMTOFL
 70
     0
  9
$DIMTVP
 40
0.0
  9
$DIMTIX
 70
     0
  9
$DIMSOXD
 70
     0
  9
$DIMSAH
 70
     0
  9
$DIMBLK1
  1

  9
$DIMBLK2
  1

  9
$DIMSTYLE
  2
STANDARD
  9
$DIMCLRD
 70
     0
  9
$DIMCLRE
 70
     0
  9
$DIMCLRT
 70
     0
  9
$DIMTFAC
 40
1.0
  9
$DIMGAP
 40
0.09
  9
$LUNITS
 70
     2
  9
$LUPREC
 70
     4
  9
$SKETCHINC
 40
0.1
  9
$FILLETRAD
 40
0.0
  9
$AUNITS
 70
     0
  9
$AUPREC
 70
     0
  9
$MENU
  1
.
  9
$ELEVATION
 40
0.0
  9
$PELEVATION
 40
0.0
  9
$THICKNESS
 40
0.0
  9
$LIMCHECK
 70
     0
  9
$BLIPMODE
 70
     0
  9
$CHAMFERA
 40
0.0
  9
$CHAMFERB
 40
0.0
  9
$SKPOLY
 70
     0
  9
$TDCREATE
 40
2454351.4057286349
  9
$TDUPDATE
 40
2455882.7015781831
  9
$TDINDWG
 40
0.1391931134
  9
$TDUSRTIMER
 40
0.1391931134
  9
$USRTIMER
 70
     1
  9
$ANGBASE
 50
0.0
  9
$ANGDIR
 70
     0
  9
$PDMODE
 70
     0
  9
$PDSIZE
 40
0.0
  9
$PLINEWID
 40
0.0
  9
$COORDS
 70
     0
  9
$SPLFRAME
 70
     0
  9
$SPLINETYPE
 70
     6
  9
$SPLINESEGS
 70
     8
  9
$ATTDIA
 70
     0
  9
$ATTREQ
 70
     1
  9
$HANDLING
 70
     1
  9
$HANDSEED
  5
3C2F
  9
$SURFTAB1
 70
     6
  9
$SURFTAB2
 70
     6
  9
$SURFTYPE
 70
     6
  9
$SURFU
 70
     6
  9
$SURFV
 70
     6
  9
$UCSNAME
  2

  9
$UCSORG
 10
0.0
 20
0.0
 30
0.0
  9
$UCSXDIR
 10
1.0
 20
0.0
 30
0.0
  9
$UCSYDIR
 10
0.0
 20
1.0
 30
0.0
  9
$PUCSNAME
  2

  9
$PUCSORG
 10
0.0
 20
0.0
 30
0.0
  9
$PUCSXDIR
 10
1.0
 20
0.0
 30
0.0
  9
$PUCSYDIR
 10
0.0
 20
1.0
 30
0.0
  9
$USERI1
 70
     0
  9
$USERI2
 70
     0
  9
$USERI3
 70
     0
  9
$USERI4
 70
     0
  9
$USERI5
 70
     0
  9
$USERR1
 40
0.0
  9
$USERR2
 40
0.0
  9
$USERR3
 40
0.0
  9
$USERR4
 40
0.0
  9
$USERR5
 40
0.0
  9
$WORLDVIEW
 70
     1
  9
$SHADEDGE
 70
     3
  9
$SHADEDIF
 70
    70
  9
$TILEMODE
 70
     1
  9
$MAXACTVP
 70
    64
  9
$PLIMCHECK
 70
     0
  9
$PEXTMIN
 10
-2.3854408697681029
 20
-2.43806967636334
 30
0.0
  9
$PEXTMAX
 10
292.55379489870847
 20
205.6569479134796
 30
0.0
  9
$PLIMMIN
 10
-3.17498779296875
 20
-3.1749999523162842
  9
$PLIMMAX
 10
293.83566284179687
 20
206.79832768440241
  9
$UNITMODE
 70
     0
  9
$VISRETAIN
 70
     1
  9
$PLINEGEN
 70
     0
  9
$PSLTSCALE
 70
     1
  0
ENDSEC
  0
SECTION
  2
TABLES
  0
TABLE
  2
VPORT
 70
     1
  0
VPORT
  2
*ACTIVE
 70
     0
 10
0.0
 20
0.0
 11
1.0
 21
1.0
 12
3926.8220896410139
 22
-336.9750990341791
 13
0.0
 23
0.0
 14
1.0
 24
1.0
 15
0.0
 25
0.0
 16
0.0
 26
0.0
 36
1.0
 17
0.0
 27
0.0
 37
0.0
 40
5367.137373981408
 41
2.1638755980861242
 42
50.0
 43
0.0
 44
0.0
 50
0.0
 51
0.0
 71
     0
 72
   100
 73
     1
 74
     1
 75
     0
 76
     0
 77
     0
 78
     0
  0
ENDTAB
  0
TABLE
  2
LTYPE
 70
    35
  0
LTYPE
  2
CONTINUOUS
 70
     0
  3
実線
 72
    65
 73
     0
 40
0.0
  0
LTYPE
  2
DASHED1
 70
     0
  3
--  --  --  --  --  --  --  --  
 72
    65
 73
     2
 40
2.5
 49
1.25
 49
-1.25
  0
LTYPE
  2
DASHED2
 70
     0
  3
----    ----    ----    ----    
 72
    65
 73
     2
 40
5.0
 49
2.5
 49
-2.5
  0
LTYPE
  2
DASHED3
 70
     0
  3
------  ------  ------  ------  
 72
    65
 73
     2
 40
5.0
 49
3.75
 49
-1.25
  0
LTYPE
  2
CENTER1
 70
     0
  3
----- - ----- - ----- - ----- - 
 72
    65
 73
     4
 40
10.0
 49
6.25
 49
-1.25
 49
1.25
 49
-1.25
  0
LTYPE
  2
CENTER2
 70
     0
  3
----------  --  ----------  --  
 72
    65
 73
     4
 40
20.0
 49
12.5
 49
-2.5
 49
2.5
 49
-2.5
  0
LTYPE
  2
PHANTOM1
 70
     0
  3
--- - - --- - - --- - - --- - - 
 72
    65
 73
     6
 40
10.0
 49
3.25
 49
-1.25
 49
1.25
 49
-1.25
 49
1.25
 49
-1.25
  0
LTYPE
  2
PHANTOM2
 70
     0
  3
--------  -  -  --------  -  -  
 72
    65
 73
     6
 40
20.0
 49
10.0
 49
-2.5
 49
1.25
 49
-2.5
 49
1.25
 49
-2.5
  0
LTYPE
  2
DOT
 70
     0
  3
-   -   -   -   -   -   -   -   
 72
    65
 73
     2
 40
2.5
 49
0.625
 49
-1.875
  0
LTYPE
  2
DUMMY
 70
     0
  3
ダミー
 72
    65
 73
     0
 40
0.0
  0
LTYPE
  2
RAND1
 70
     0
  3
ランダム線1
 72
    65
 73
     4
 40
10.0
 49
1.0
 49
-2.0
 49
3.0
 49
-4.0
  0
LTYPE
  2
RAND2
 70
     0
  3
ランダム線2
 72
    65
 73
     4
 40
14.0
 49
2.0
 49
-3.0
 49
4.0
 49
-5.0
  0
LTYPE
  2
RAND3
 70
     0
  3
ランダム線3
 72
    65
 73
     4
 40
18.0
 49
3.0
 49
-4.0
 49
5.0
 49
-6.0
  0
LTYPE
  2
RAND4
 70
     0
  3
ランダム線4
 72
    65
 73
     4
 40
22.0
 49
4.0
 49
-5.0
 49
6.0
 49
-7.0
  0
LTYPE
  2
RAND5
 70
     0
  3
ランダム線5
 72
    65
 73
     4
 40
26.0
 49
5.0
 49
-6.0
 49
7.0
 49
-8.0
  0
LTYPE
  2
LONG1
 70
     0
  3
----------  --  ----------  --  
 72
    65
 73
     4
 40
40.0
 49
32.5
 49
-2.5
 49
2.5
 49
-2.5
  0
LTYPE
  2
LONG2
 70
     0
  3
--------  -  -  --------  -  -  
 72
    65
 73
     6
 40
40.0
 49
30.0
 49
-2.5
 49
1.25
 49
-2.5
 49
1.25
 49
-2.5
  0
LTYPE
  2
LONG3
 70
     0
  3
+++++++++++++++..+++++++++++++++
 72
    65
 73
     2
 40
40.0
 49
37.5
 49
-2.5
  0
LTYPE
  2
LONG4
 70
     0
  3
+++++++++++++++..+++++++++++++++
 72
    65
 73
     2
 40
80.0
 49
75.0
 49
-5.0
  0
LTYPE
  2
LONG5
 70
     0
  3
----------  --  ----------  --  
 72
    65
 73
     4
 40
60.0
 49
37.5
 49
-7.5
 49
7.5
 49
-7.5
  0
LTYPE
  2
DASHED
 70
     0
  3
-------   -------------   ------
 72
    65
 73
     2
 40
7.5
 49
6.0
 49
-1.5
  0
LTYPE
  2
DASHED_SPACED
 70
     0
  3
----        --------        ----
 72
    65
 73
     2
 40
12.0
 49
6.0
 49
-6.0
  0
LTYPE
  2
LONG_DASHED_DOTTED
 70
     0
  3
------------- --- --------------
 72
    65
 73
     4
 40
15.25
 49
12.0
 49
-1.5
 49
0.25
 49
-1.5
  0
LTYPE
  2
LONG_DASHED_DOUBLE-DOTTED
 70
     0
  3
----------- --- --- ------------
 72
    65
 73
     6
 40
17.0
 49
12.0
 49
-1.5
 49
0.25
 49
-1.5
 49
0.25
 49
-1.5
  0
LTYPE
  2
LONG_DASHED_TRIPLICATE-DOT
 70
     0
  3
--------- --- --- --- ----------
 72
    65
 73
     8
 40
18.75
 49
12.0
 49
-1.5
 49
0.25
 49
-1.5
 49
0.25
 49
-1.5
 49
0.25
 49
-1.5
  0
LTYPE
  2
DOTTED
 70
     0
  3
   -       -       -       -    
 72
    65
 73
     2
 40
1.75
 49
0.25
 49
-1.5
  0
LTYPE
  2
CHAIN
 70
     0
  3
-------------- -- --------------
 72
    65
 73
     4
 40
18.5
 49
12.0
 49
-1.5
 49
3.5
 49
-1.5
  0
LTYPE
  2
CHAIN_DOUBLE_DASH
 70
     0
  3
------------ -- -- -------------
 72
    65
 73
     6
 40
23.5
 49
12.0
 49
-1.5
 49
3.5
 49
-1.5
 49
3.5
 49
-1.5
  0
LTYPE
  2
DASHED_DOTTED
 70
     0
  3
-----------     -     ----------
 72
    65
 73
     4
 40
9.25
 49
6.0
 49
-1.5
 49
0.25
 49
-1.5
  0
LTYPE
  2
DOUBLE-DASHED_DOTTED
 70
     0
  3
------   -----------   -   -----
 72
    65
 73
     6
 40
16.75
 49
6.0
 49
-1.5
 49
6.0
 49
-1.5
 49
0.25
 49
-1.5
  0
LTYPE
  2
DASHED_DOUBLE-DOTTED
 70
     0
  3
---------    -    -    ---------
 72
    65
 73
     6
 40
11.0
 49
6.0
 49
-1.5
 49
0.25
 49
-1.5
 49
0.25
 49
-1.5
  0
LTYPE
  2
DOUBLE-DASHED_DOUBLE-DOTTE
 70
     0
  3
-----   ---------   -   -   ----
 72
    65
 73
     8
 40
18.5
 49
6.0
 49
-1.5
 49
6.0
 49
-1.5
 49
0.25
 49
-1.5
 49
0.25
 49
-1.5
  0
LTYPE
  2
DASHED_TRIPLICATE-DOTTED
 70
     0
  3
-------    -    -    -    ------
 72
    65
 73
     8
 40
12.75
 49
6.0
 49
-1.5
 49
0.25
 49
-1.5
 49
0.25
 49
-1.5
 49
0.25
 49
-1.5
  0
LTYPE
  2
DOUBLE-DASHED_TRIPLICATE-D
 70
     0
  3
-----  ---------  -  -  -  -----
 72
    65
 73
    10
 40
20.25
 49
6.0
 49
-1.5
 49
6.0
 49
-1.5
 49
0.25
 49
-1.5
 49
0.25
 49
-1.5
 49
0.25
 49
-1.5
  0
LTYPE
  2
UNDEFINED
 70
     0
  3
--------------------------------
 72
    65
 73
     0
 40
0.0
  0
ENDTAB
  0
TABLE
  2
LAYER
 70
    12
  0
LAYER
  2
0
 70
     0
 62
     7
  6
CONTINUOUS
  0
LAYER
  2
_0-0_
 70
     0
 62
     7
  6
CONTINUOUS
  0
LAYER
  2
_0-1_
 70
     0
 62
     7
  6
CONTINUOUS
  0
LAYER
  2
_0-9_
 70
     0
 62
     7
  6
CONTINUOUS
  0
LAYER
  2
ADD_LINE
 70
     0
 62
    -7
  6
CONTINUOUS
  0
LAYER
  2
_0-2_
 70
     0
 62
     7
  6
CONTINUOUS
  0
LAYER
  2
_0-3_
 70
     0
 62
     7
  6
CONTINUOUS
  0
LAYER
  2
細線
 70
     0
 62
     6
  6
CONTINUOUS
  0
LAYER
  2
寸法線
 70
     0
 62
     3
  6
CONTINUOUS
  0
LAYER
  2
文字
 70
     0
 62
     4
  6
CONTINUOUS
  0
LAYER
  2
図面枠
 70
     0
 62
     6
  6
CONTINUOUS
  0
LAYER
  2
DEFPOINTS
 70
     0
 62
     7
  6
CONTINUOUS
  0
ENDTAB
  0
TABLE
  2
STYLE
 70
     3
  0
STYLE
  2
STANDARD
 70
     0
 40
0.0
 41
1.0
 50
0.0
 71
     0
 42
0.2
  3
romans.shx
  4
bigfont.shx
  0
STYLE
  2
TATEGAKI
 70
     4
 40
0.0
 41
1.0
 50
0.0
 71
     0
 42
1.0
  3
txt
  4
bigfont.shx
  0
STYLE
  2
JAPANESE
 70
     0
 40
0.0
 41
1.0
 50
0.0
 71
     0
 42
2.5
  3
romans.shx
  4
bigfont.shx
  0
ENDTAB
  0
TABLE
  2
VIEW
 70
     1
  0
ENDTAB
  0
TABLE
  2
UCS
 70
     0
  0
ENDTAB
  0
TABLE
  2
APPID
 70
     6
  0
APPID
  2
ACAD
 70
     0
  0
APPID
  2
ACAD_PSEXT
 70
     0
  0
APPID
  2
ACAECLAYERSTANDARD
 70
     0
  0
APPID
  2
ACAD_DSTYLE_DIMJOGGED_JOGA
 70
     0
  0
APPID
  2
ACAD_EXEMPT_FROM_CAD_STANDARDS
 70
     0
  0
APPID
  2
ACAD_MLEADERVER
 70
     0
  0
ENDTAB
  0
TABLE
  2
DIMSTYLE
 70
     2
  0
DIMSTYLE
  2
STANDARD
 70
     0
  3

  4

  5

  6

  7

 40
1.0
 41
0.18
 42
0.0625
 43
0.38
 44
0.18
 45
0.0
 46
0.0
 47
0.0
 48
0.0
140
0.18
141
0.09
142
0.0
143
25.399999999999999
144
1.0
145
0.0
146
1.0
147
0.09
 71
     0
 72
     0
 73
     1
 74
     1
 75
     0
 76
     0
 77
     0
 78
     0
170
     0
171
     2
172
     0
173
     0
174
     0
175
     0
176
     0
177
     0
178
     0
  0
DIMSTYLE
  2
KIHON
 70
     0
  3

  4

  5
OPEN30
  6

  7

 40
10.0
 41
1.0
 42
1.0
 43
7.0
 44
0.0
 45
0.0
 46
0.0
 47
0.0
 48
0.0
140
1.0
141
2.5
142
0.0
143
0.03937007874016
144
1.0
145
0.0
146
1.0
147
0.1
 71
     0
 72
     0
 73
     0
 74
     0
 75
     0
 76
     0
 77
     1
 78
     8
170
     0
171
     3
172
     1
173
     0
174
     0
175
     0
176
     0
177
     0
178
     0
  0
ENDTAB
  0
ENDSEC
  0
SECTION
  2
BLOCKS
  0
BLOCK
  8
0
  2
$MODEL_SPACE
 70
     0
 10
0.0
 20
0.0
 30
0.0
  3
$MODEL_SPACE
  1

  0
ENDBLK
  5
38
  8
0
  0
BLOCK
 67
     1
  8
0
  2
$PAPER_SPACE
 70
     0
 10
0.0
 20
0.0
 30
0.0
  3
$PAPER_SPACE
  1

  0
ENDBLK
  5
2CF2
 67
     1
  8
0
  0
BLOCK
  8
0
  2
-000-LTEX0
 70
     0
 10
0.0
 20
0.0
 30
0.0
  3
-000-LTEX0
  1

  0
CIRCLE
  5
66
  8
_0-0_
  6
CONTINUOUS
 62
     1
 10
0.0
 20
0.0
 30
0.0
 40
1.5
  0
TEXT
  5
67
  8
_0-0_
 62
     7
 10
-138.78581506190011
 20
23.28581504350003
 30
0.0
 40
12.0
  1
2C-100ｘ50ｘ20ｘ2.3ｔ
 41
0.746974
  0
TEXT
  5
68
  8
_0-0_
 62
     7
 10
-138.78581506190011
 20
8.2858150435000084
 30
0.0
 40
12.0
  1
建築工事
 41
0.7483370000000001
  0
LINE
  5
69
  8
_0-0_
  6
CONTINUOUS
 62
     1
 10
-138.78581506509991
 20
5.2858150651000093
 30
0.0
 11
-98.285815065100053
 21
5.2858150651000093
 31
0.0
  0
LINE
  5
6A
  8
_0-0_
  6
CONTINUOUS
 62
     1
 10
0.0
 20
0.0
 30
0.0
 11
-20.285815065100049
 21
20.285815065099989
 31
0.0
  0
LINE
  5
6B
  8
_0-0_
  6
CONTINUOUS
 62
     1
 10
-20.285815065100049
 20
20.285815065099989
 30
0.0
 11
-138.78581506509991
 21
20.285815065099989
 31
0.0
  0
ENDBLK
  5
6C
  8
0
  0
BLOCK
  8
0
  2
-001-LTEX1
 70
     0
 10
0.0
 20
0.0
 30
0.0
  3
-001-LTEX1
  1

  0
CIRCLE
  5
6F
  8
_0-0_
  6
CONTINUOUS
 62
     1
 10
0.0
 20
0.0
 30
0.0
 40
1.5
  0
TEXT
  5
70
  8
_0-0_
 62
     7
 10
-61.714361737800061
 20
-24.047753141699999
 30
0.0
 40
12.0
  1
ガ-ドゴム
 41
0.748069
  0
LINE
  5
71
  8
_0-0_
  6
CONTINUOUS
 62
     1
 10
0.0
 20
0.0
 30
0.0
 11
-15.214361298800011
 21
-27.047753419999999
 31
0.0
  0
LINE
  5
72
  8
_0-0_
  6
CONTINUOUS
 62
     1
 10
-15.214361298800011
 20
-27.047753419999999
 30
0.0
 11
-61.714361298800021
 21
-27.047753419999999
 31
0.0
  0
ENDBLK
  5
73
  8
0
  0
BLOCK
  8
0
  2
-002-LTEX2
 70
     0
 10
0.0
 20
0.0
 30
0.0
  3
-002-LTEX2
  1

  0
CIRCLE
  5
76
  8
_0-0_
  6
CONTINUOUS
 62
     1
 10
0.0
 20
0.0
 30
0.0
 40
1.5
  0
TEXT
  5
77
  8
_0-0_
 62
     7
 10
-69.595330625299994
 20
-43.488326022599963
 30
0.0
 40
12.0
  1
ボトムゴム
 41
0.7482389999999999
  0
LINE
  5
78
  8
_0-0_
  6
CONTINUOUS
 62
     1
 10
0.0
 20
0.0
 30
0.0
 11
-18.595330476299949
 21
-46.4883261907
 31
0.0
  0
LINE
  5
79
  8
_0-0_
  6
CONTINUOUS
 62
     1
 10
-18.595330476299949
 20
-46.4883261907
 30
0.0
 11
-69.595330476299935
 21
-46.4883261907
 31
0.0
  0
ENDBLK
  5
7A
  8
0
  0
BLOCK
  8
0
  2
-003-LTEX3
 70
     0
 10
0.0
 20
0.0
 30
0.0
  3
-003-LTEX3
  1

  0
CIRCLE
  5
7D
  8
_0-0_
  6
CONTINUOUS
 62
     1
 10
0.0
 20
0.0
 30
0.0
 40
1.5
  0
TEXT
  5
7E
  8
_0-0_
 62
     7
 10
12.84608773590003
 20
32.70657874540003
 30
0.0
 40
9.0
  1
ｹ-ｽｾﾝﾀ-部分固定用穴あり
 41
0.6532179999999999
  0
TEXT
  5
7F
  8
_0-0_
 62
     7
 10
12.84608773590003
 20
20.706578745400002
 30
0.0
 40
9.0
  1
その部分は確実に固定（ｱﾝｸﾞﾙ等にて）
 41
0.6544459999999999
  0
LINE
  5
80
  8
_0-0_
  6
CONTINUOUS
 62
     1
 10
12.84608807780006
 20
17.706578679799989
 30
0.0
 11
134.9460880778
 21
17.706578679799989
 31
0.0
  0
LINE
  5
81
  8
_0-0_
  6
CONTINUOUS
 62
     1
 10
0.0
 20
0.0
 30
0.0
 11
12.84608807780006
 21
29.7065786798
 31
0.0
  0
LINE
  5
82
  8
_0-0_
  6
CONTINUOUS
 62
     1
 10
12.84608807780006
 20
29.7065786798
 30
0.0
 11
94.446088077800013
 21
29.7065786798
 31
0.0
  0
ENDBLK
  5
83
  8
0
  0
BLOCK
  8
0
  2
-004-LTEX4
 70
     0
 10
0.0
 20
0.0
 30
0.0
  3
-004-LTEX4
  1

  0
CIRCLE
  5
86
  8
_0-0_
  6
CONTINUOUS
 62
     1
 10
0.0
 20
0.0
 30
0.0
 40
1.5
  0
TEXT
  5
87
  8
_0-0_
 62
     7
 10
4.215122439199944
 20
22.26913176499999
 30
0.0
 40
12.0
  1
ガレ-ジドアケ-ス
 41
0.7478630000000001
  0
LINE
  5
88
  8
_0-0_
  6
CONTINUOUS
 62
     1
 10
0.0
 20
0.0
 30
0.0
 11
4.2151226504999766
 21
19.269132116699961
 31
0.0
  0
LINE
  5
89
  8
_0-0_
  6
CONTINUOUS
 62
     1
 10
4.2151226504999766
 20
19.269132116699961
 30
0.0
 11
88.215122650499978
 21
19.269132116699961
 31
0.0
  0
ENDBLK
  5
8A
  8
0
  0
BLOCK
  8
0
  2
-005-LTEX5
 70
     0
 10
0.0
 20
0.0
 30
0.0
  3
-005-LTEX5
  1

  0
CIRCLE
  5
8D
  8
_0-0_
  6
CONTINUOUS
 62
     1
 10
0.0
 20
0.0
 30
0.0
 40
1.5
  0
TEXT
  5
8E
  8
_0-0_
 62
     7
 10
-76.871292786000012
 20
27.387495577999982
 30
0.0
 40
12.0
  1
ガレ-ジドア
 41
0.7480310000000001
  0
TEXT
  5
8F
  8
_0-0_
 62
     7
 10
-76.871292786000012
 20
12.38749557799998
 30
0.0
 40
12.0
  1
表面材
 41
0.748503
  0
LINE
  5
90
  8
_0-0_
  6
CONTINUOUS
 62
     1
 10
-76.871292495200066
 20
9.3874953351000112
 30
0.0
 11
-46.871292495200073
 21
9.3874953351000112
 31
0.0
  0
LINE
  5
91
  8
_0-0_
  6
CONTINUOUS
 62
     1
 10
0.0
 20
0.0
 30
0.0
 11
-19.871292495200059
 21
24.38749533510002
 31
0.0
  0
LINE
  5
92
  8
_0-0_
  6
CONTINUOUS
 62
     1
 10
-19.871292495200059
 20
24.38749533510002
 30
0.0
 11
-76.871292495200066
 21
24.38749533510002
 31
0.0
  0
ENDBLK
  5
93
  8
0
  0
BLOCK
  8
0
  2
-006-LTEX6
 70
     0
 10
0.0
 20
0.0
 30
0.0
  3
-006-LTEX6
  1

  0
CIRCLE
  5
96
  8
_0-0_
  6
CONTINUOUS
 62
     1
 10
0.0
 20
0.0
 30
0.0
 40
1.5
  0
TEXT
  5
97
  8
_0-0_
 62
     7
 10
-51.810310282000032
 20
-20.285227593099989
 30
0.0
 40
12.0
  1
ｶﾞ-ﾄﾞｺﾞﾑ
 41
0.7466279999999999
  0
TEXT
  5
98
  8
_0-0_
 62
     7
 10
-51.810310282000032
 20
-35.285227593099989
 30
0.0
 40
12.0
  1
（ﾄﾞｱ側）
 41
0.747664
  0
LINE
  5
99
  8
_0-0_
  6
CONTINUOUS
 62
     1
 10
-51.810310047900003
 20
-38.285228070599999
 30
0.0
 11
-3.8103100479000029
 21
-38.285228070599999
 31
0.0
  0
LINE
  5
9A
  8
_0-0_
  6
CONTINUOUS
 62
     1
 10
0.0
 20
0.0
 30
0.0
 11
-3.8103100479000029
 21
-23.285228070599999
 31
0.0
  0
LINE
  5
9B
  8
_0-0_
  6
CONTINUOUS
 62
     1
 10
-3.8103100479000029
 20
-23.285228070599999
 30
0.0
 11
-51.810310047900003
 21
-23.285228070599999
 31
0.0
  0
ENDBLK
  5
9C
  8
0
  0
BLOCK
  8
0
  2
-007-LTEX7
 70
     0
 10
0.0
 20
0.0
 30
0.0
  3
-007-LTEX7
  1

  0
CIRCLE
  5
9F
  8
_0-0_
  6
CONTINUOUS
 62
     1
 10
0.0
 20
0.0
 30
0.0
 40
1.5
  0
TEXT
  5
A0
  8
_0-0_
 62
     7
 10
-54.967355704399999
 20
27.131963617299999
 30
0.0
 40
12.0
  1
ｶﾞ-ﾄﾞｺﾞﾑ
 41
0.7466279999999999
  0
TEXT
  5
A1
  8
_0-0_
 62
     7
 10
-54.967355704399999
 20
12.1319636173
 30
0.0
 40
12.0
  1
（枠側）
 41
0.7483370000000001
  0
LINE
  5
A2
  8
_0-0_
  6
CONTINUOUS
 62
     1
 10
-54.967355661999989
 20
9.1319636368000001
 30
0.0
 11
-14.46735566199999
 21
9.1319636368000001
 31
0.0
  0
LINE
  5
A3
  8
_0-0_
  6
CONTINUOUS
 62
     1
 10
0.0
 20
0.0
 30
0.0
 11
-8.4673556619999868
 21
24.131963636799998
 31
0.0
  0
LINE
  5
A4
  8
_0-0_
  6
CONTINUOUS
 62
     1
 10
-8.4673556619999868
 20
24.131963636799998
 30
0.0
 11
-54.967355661999989
 21
24.131963636799998
 31
0.0
  0
ENDBLK
  5
A5
  8
0
  0
BLOCK
  8
0
  2
-008-LTEX8
 70
     0
 10
0.0
 20
0.0
 30
0.0
  3
-008-LTEX8
  1

  0
CIRCLE
  5
A8
  8
_0-0_
  6
CONTINUOUS
 62
     1
 10
0.0
 20
0.0
 30
0.0
 40
1.5
  0
TEXT
  5
A9
  8
_0-0_
 62
     7
 10
-70.336085608399998
 20
32.212377027199992
 30
0.0
 40
12.0
  1
ガレ-ジドア
 41
0.7480310000000001
  0
TEXT
  5
AA
  8
_0-0_
 62
     7
 10
-70.336085608399998
 20
17.212377027199999
 30
0.0
 40
12.0
  1
表面材
 41
0.748503
  0
LINE
  5
AB
  8
_0-0_
  6
CONTINUOUS
 62
     1
 10
-70.336085167699991
 20
14.212377034099999
 30
0.0
 11
-40.336085167700013
 21
14.212377034099999
 31
0.0
  0
LINE
  5
AC
  8
_0-0_
  6
CONTINUOUS
 62
     1
 10
0.0
 20
0.0
 30
0.0
 11
-13.3360851677
 21
29.212377034100001
 31
0.0
  0
LINE
  5
AD
  8
_0-0_
  6
CONTINUOUS
 62
     1
 10
-13.3360851677
 20
29.212377034100001
 30
0.0
 11
-70.336085167699991
 21
29.212377034100001
 31
0.0
  0
ENDBLK
  5
AE
  8
0
  0
BLOCK
  8
0
  2
-009-LTEX9
 70
     0
 10
0.0
 20
0.0
 30
0.0
  3
-009-LTEX9
  1

  0
CIRCLE
  5
B1
  8
_0-0_
  6
CONTINUOUS
 62
     1
 10
0.0
 20
0.0
 30
0.0
 40
1.5
  0
TEXT
  5
B2
  8
_0-0_
 62
     7
 10
20.285814985999981
 20
23.285814714299999
 30
0.0
 40
12.0
  1
2C-100ｘ50ｘ20ｘ2.3ｔ
 41
0.746974
  0
TEXT
  5
B3
  8
_0-0_
 62
     7
 10
20.285814985999981
 20
8.2858147143000007
 30
0.0
 40
12.0
  1
建築工事
 41
0.7483370000000001
  0
LINE
  5
B4
  8
_0-0_
  6
CONTINUOUS
 62
     1
 10
20.285815065099971
 20
5.2858150651000093
 30
0.0
 11
60.785815065099968
 21
5.2858150651000093
 31
0.0
  0
LINE
  5
B5
  8
_0-0_
  6
CONTINUOUS
 62
     1
 10
0.0
 20
0.0
 30
0.0
 11
20.285815065099971
 21
20.2858150651
 31
0.0
  0
LINE
  5
B6
  8
_0-0_
  6
CONTINUOUS
 62
     1
 10
20.285815065099971
 20
20.2858150651
 30
0.0
 11
135.03581506509991
 21
20.2858150651
 31
0.0
  0
ENDBLK
  5
B7
  8
0
  0
BLOCK
  8
0
  2
-010-LTEX10
 70
     0
 10
0.0
 20
0.0
 30
0.0
  3
-010-LTEX10
  1

  0
CIRCLE
  5
BA
  8
_0-0_
  6
CONTINUOUS
 62
     1
 10
0.0
 20
0.0
 30
0.0
 40
1.5
  0
TEXT
  5
BB
  8
_0-0_
 62
     7
 10
-86.067352844699997
 20
-23.101425318300048
 30
0.0
 40
12.0
  1
壁がある場合
 41
0.748175
  0
TEXT
  5
BC
  8
_0-0_
 62
     7
 10
-86.067352844699997
 20
-38.101425318300052
 30
0.0
 40
12.0
  1
20ｍｍ以上離す
 41
0.7478630000000001
  0
LINE
  5
BD
  8
_0-0_
  6
CONTINUOUS
 62
     1
 10
-86.067352867200015
 20
-41.101425185799997
 30
0.0
 11
-12.567352867200009
 21
-41.101425185799997
 31
0.0
  0
LINE
  5
BE
  8
_0-0_
  6
CONTINUOUS
 62
     1
 10
0.0
 20
0.0
 30
0.0
 11
-12.567352867200009
 21
-26.1014251858
 31
0.0
  0
LINE
  5
BF
  8
_0-0_
  6
CONTINUOUS
 62
     1
 10
-12.567352867200009
 20
-26.1014251858
 30
0.0
 11
-86.067352867200015
 21
-26.1014251858
 31
0.0
  0
ENDBLK
  5
C0
  8
0
  0
BLOCK
  8
0
  2
_OPEN30
 70
     0
 10
0.0
 20
0.0
 30
0.0
  3
_OPEN30
  1

  0
LINE
  5
721
  8
0
  6
BYBLOCK
 62
     0
 10
-1.0
 20
0.26794919
 30
0.0
 11
0.0
 21
0.0
 31
0.0
  0
LINE
  5
722
  8
0
  6
BYBLOCK
 62
     0
 10
0.0
 20
0.0
 30
0.0
 11
-1.0
 21
-0.26794919
 31
0.0
  0
LINE
  5
723
  8
0
  6
BYBLOCK
 62
     0
 10
0.0
 20
0.0
 30
0.0
 11
-1.0
 21
0.0
 31
0.0
  0
ENDBLK
  5
724
  8
0
  0
BLOCK
  8
0
  2
*D12
 70
     1
 10
0.0
 20
0.0
 30
0.0
  3
*D12
  1

  0
LINE
  5
33FB
  8
寸法線
 62
     0
 10
3455.860630122806
 20
250.30025678055461
 30
0.0
 11
3373.9083155440062
 21
250.30025678055461
 31
0.0
  0
LINE
  5
33FC
  8
寸法線
 62
     0
 10
3363.9083155440048
 20
190.30025678055461
 30
0.0
 11
3373.9083155440062
 21
190.30025678055461
 31
0.0
  0
LINE
  5
33FD
  8
寸法線
 62
     0
 10
3373.9083155440062
 20
240.30025678055461
 30
0.0
 11
3373.9083155440062
 21
200.30025678055461
 31
0.0
  0
INSERT
  5
33FE
  8
寸法線
 62
     0
  2
_OPEN30
 10
3373.9083155440062
 20
250.30025678055461
 30
0.0
 41
10.0
 42
10.0
 43
10.0
 50
90.0
  0
INSERT
  5
33FF
  8
寸法線
 62
     0
  2
_OPEN30
 10
3373.9083155440062
 20
190.30025678055461
 30
0.0
 41
10.0
 42
10.0
 43
10.0
 50
270.0
  0
INSERT
  5
3400
  8
0
  6
CONTINUOUS
  2
*U17
 10
0.0
 20
0.0
 30
0.0
  0
POINT
  5
3401
  8
DEFPOINTS
 62
     0
 10
3465.860630122806
 20
250.30025678055461
 30
0.0
  0
POINT
  5
3402
  8
DEFPOINTS
 62
     0
 10
3373.9083155440062
 20
190.30025678055461
 30
0.0
  0
POINT
  5
3403
  8
DEFPOINTS
 62
     0
 10
3373.9083155440062
 20
190.30025678055461
 30
0.0
  0
ENDBLK
  5
338A
  8
0
  0
BLOCK
  8
0
  2
*D13
 70
     1
 10
0.0
 20
0.0
 30
0.0
  3
*D13
  1

  0
LINE
  5
3884
  8
寸法線
 62
     0
 10
4233.0546012081686
 20
130.96066267425459
 30
0.0
 11
4233.0546012081686
 21
212.1354292721025
 31
0.0
  0
LINE
  5
3885
  8
寸法線
 62
     0
 10
4263.0546012081677
 20
130.96066267425459
 30
0.0
 11
4263.0546012081677
 21
212.1354292721025
 31
0.0
  0
LINE
  5
3886
  8
寸法線
 62
     0
 10
4243.0546012081677
 20
212.1354292721025
 30
0.0
 11
4253.0546012081686
 21
212.1354292721025
 31
0.0
  0
INSERT
  5
3887
  8
寸法線
 62
     0
  2
_OPEN30
 10
4233.0546012081686
 20
212.1354292721025
 30
0.0
 41
10.0
 42
10.0
 43
10.0
 50
180.0
  0
INSERT
  5
3888
  8
寸法線
 62
     0
  2
_OPEN30
 10
4263.0546012081677
 20
212.1354292721025
 30
0.0
 41
10.0
 42
10.0
 43
10.0
  0
INSERT
  5
3889
  8
0
  6
CONTINUOUS
  2
*U18
 10
0.0
 20
0.0
 30
0.0
  0
POINT
  5
388A
  8
DEFPOINTS
 62
     0
 10
4233.0546012081686
 20
120.96066267425461
 30
0.0
  0
POINT
  5
388B
  8
DEFPOINTS
 62
     0
 10
4263.0546012081677
 20
120.96066267425461
 30
0.0
  0
POINT
  5
388C
  8
DEFPOINTS
 62
     0
 10
4263.0546012081677
 20
212.1354292721025
 30
0.0
  0
ENDBLK
  5
3871
  8
0
  0
BLOCK
  8
0
  2
*D14
 70
     1
 10
0.0
 20
0.0
 30
0.0
  3
*D14
  1

  0
LINE
  5
3AB3
  8
寸法線
 62
     0
 10
3310.3889363322041
 20
-277.2120276166454
 30
0.0
 11
3313.9083155440062
 21
-277.2120276166454
 31
0.0
  0
LINE
  5
3AB4
  8
寸法線
 62
     0
 10
3309.274120507192
 20
-287.2120276166454
 30
0.0
 11
3313.9083155440062
 21
-287.2120276166454
 31
0.0
  0
LINE
  5
3AB5
  8
寸法線
 62
     0
 10
3313.9083155440062
 20
-267.2120276166454
 30
0.0
 11
3313.9083155440062
 21
-257.2120276166454
 31
0.0
  0
LINE
  5
3AB6
  8
寸法線
 62
     0
 10
3313.9083155440062
 20
-297.2120276166454
 30
0.0
 11
3313.9083155440062
 21
-323.9739323785501
 31
0.0
  0
LINE
  5
3AB7
  8
寸法線
 62
     0
 10
3313.9083155440062
 20
-277.2120276166454
 30
0.0
 11
3313.9083155440062
 21
-287.2120276166454
 31
0.0
  0
INSERT
  5
3AB8
  8
寸法線
 62
     0
  2
_OPEN30
 10
3313.9083155440062
 20
-277.2120276166454
 30
0.0
 41
10.0
 42
10.0
 43
10.0
 50
270.0
  0
INSERT
  5
3AB9
  8
寸法線
 62
     0
  2
_OPEN30
 10
3313.9083155440062
 20
-287.2120276166454
 30
0.0
 41
10.0
 42
10.0
 43
10.0
 50
90.0
  0
INSERT
  5
3ABA
  8
0
  6
CONTINUOUS
  2
*U20
 10
0.0
 20
0.0
 30
0.0
  0
POINT
  5
3ABB
  8
DEFPOINTS
 62
     0
 10
3320.3889363322041
 20
-277.2120276166454
 30
0.0
  0
POINT
  5
3ABC
  8
DEFPOINTS
 62
     0
 10
3319.274120507192
 20
-287.2120276166454
 30
0.0
  0
POINT
  5
3ABD
  8
DEFPOINTS
 62
     0
 10
3313.9083155440062
 20
-287.2120276166454
 30
0.0
  0
ENDBLK
  5
3993
  8
0
  0
BLOCK
  8
0
  2
*D15
 70
     1
 10
0.0
 20
0.0
 30
0.0
  3
*D15
  1

  0
LINE
  5
3ABE
  8
寸法線
 62
     0
 10
3340.388936332205
 20
-277.2120276166454
 30
0.0
 11
3343.9083155440062
 21
-277.2120276166454
 31
0.0
  0
LINE
  5
3ABF
  8
寸法線
 62
     0
 10
3339.2741205071911
 20
-287.2120276166454
 30
0.0
 11
3343.9083155440062
 21
-287.2120276166454
 31
0.0
  0
LINE
  5
3AC0
  8
寸法線
 62
     0
 10
3343.9083155440062
 20
-267.2120276166454
 30
0.0
 11
3343.9083155440062
 21
-257.2120276166454
 31
0.0
  0
LINE
  5
3AC1
  8
寸法線
 62
     0
 10
3343.9083155440062
 20
-297.2120276166454
 30
0.0
 11
3343.9083155440062
 21
-323.9739323785501
 31
0.0
  0
LINE
  5
3AC2
  8
寸法線
 62
     0
 10
3343.9083155440062
 20
-277.2120276166454
 30
0.0
 11
3343.9083155440062
 21
-287.2120276166454
 31
0.0
  0
INSERT
  5
3AC3
  8
寸法線
 62
     0
  2
_OPEN30
 10
3343.9083155440062
 20
-277.2120276166454
 30
0.0
 41
10.0
 42
10.0
 43
10.0
 50
270.0
  0
INSERT
  5
3AC4
  8
寸法線
 62
     0
  2
_OPEN30
 10
3343.9083155440062
 20
-287.2120276166454
 30
0.0
 41
10.0
 42
10.0
 43
10.0
 50
90.0
  0
INSERT
  5
3AC5
  8
0
  6
CONTINUOUS
  2
*U21
 10
0.0
 20
0.0
 30
0.0
  0
POINT
  5
3AC6
  8
DEFPOINTS
 62
     0
 10
3350.388936332205
 20
-277.2120276166454
 30
0.0
  0
POINT
  5
3AC7
  8
DEFPOINTS
 62
     0
 10
3349.274120507192
 20
-287.2120276166454
 30
0.0
  0
POINT
  5
3AC8
  8
DEFPOINTS
 62
     0
 10
3343.9083155440062
 20
-287.2120276166454
 30
0.0
  0
ENDBLK
  5
3A65
  8
0
  0
BLOCK
  8
0
  2
*D16
 70
     1
 10
0.0
 20
0.0
 30
0.0
  3
*D16
  1

  0
LINE
  5
3AC9
  8
寸法線
 62
     0
 10
3370.3889363322041
 20
-277.2120276166454
 30
0.0
 11
3373.9083155440062
 21
-277.2120276166454
 31
0.0
  0
LINE
  5
3ACA
  8
寸法線
 62
     0
 10
3369.274120507192
 20
-287.2120276166454
 30
0.0
 11
3373.9083155440062
 21
-287.2120276166454
 31
0.0
  0
LINE
  5
3ACB
  8
寸法線
 62
     0
 10
3373.9083155440062
 20
-267.2120276166454
 30
0.0
 11
3373.9083155440062
 21
-257.2120276166454
 31
0.0
  0
LINE
  5
3ACC
  8
寸法線
 62
     0
 10
3373.9083155440062
 20
-297.2120276166454
 30
0.0
 11
3373.9083155440062
 21
-323.9739323785501
 31
0.0
  0
LINE
  5
3ACD
  8
寸法線
 62
     0
 10
3373.9083155440062
 20
-277.2120276166454
 30
0.0
 11
3373.9083155440062
 21
-287.2120276166454
 31
0.0
  0
INSERT
  5
3ACE
  8
寸法線
 62
     0
  2
_OPEN30
 10
3373.9083155440062
 20
-277.2120276166454
 30
0.0
 41
10.0
 42
10.0
 43
10.0
 50
270.0
  0
INSERT
  5
3ACF
  8
寸法線
 62
     0
  2
_OPEN30
 10
3373.9083155440062
 20
-287.2120276166454
 30
0.0
 41
10.0
 42
10.0
 43
10.0
 50
90.0
  0
INSERT
  5
3AD0
  8
0
  6
CONTINUOUS
  2
*U22
 10
0.0
 20
0.0
 30
0.0
  0
POINT
  5
3AD1
  8
DEFPOINTS
 62
     0
 10
3380.388936332205
 20
-277.2120276166454
 30
0.0
  0
POINT
  5
3AD2
  8
DEFPOINTS
 62
     0
 10
3379.274120507192
 20
-287.2120276166454
 30
0.0
  0
POINT
  5
3AD3
  8
DEFPOINTS
 62
     0
 10
3373.9083155440062
 20
-287.2120276166454
 30
0.0
  0
ENDBLK
  5
3A7F
  8
0
  0
BLOCK
  8
0
  2
*U17
 70
     1
 10
0.0
 20
0.0
 30
0.0
  3
*U17
  1

  0
TEXT
  5
3BF6
  8
寸法線
  6
CONTINUOUS
 62
     0
 10
3372.9083155440062
 20
210.53835201865039
 30
0.0
 40
10.0
  1
60
 50
90.0
  7
JAPANESE
  0
ENDBLK
  5
3BF8
  8
0
  0
BLOCK
  8
0
  2
*U18
 70
     1
 10
0.0
 20
0.0
 30
0.0
  3
*U18
  1

  0
TEXT
  5
3BFA
  8
寸法線
  6
CONTINUOUS
 62
     0
 10
4238.5307916843576
 20
213.13542927210261
 30
0.0
 40
10.0
  1
30
  7
JAPANESE
  0
ENDBLK
  5
3BFC
  8
0
  0
BLOCK
  8
0
  2
*U19
 70
     1
 10
0.0
 20
0.0
 30
0.0
  3
*U19
  1

  0
SOLID
  5
3BFE
  8
文字
  6
CONTINUOUS
 10
3302.8784279493389
 20
-331.59831991294402
 30
0.0
 11
3296.3669582854218
 21
-337.4846796085904
 31
0.0
 12
3300.8528876978889
 22
-337.4846796085904
 32
0.0
 13
3300.8528876978889
 23
-337.4846796085904
 33
0.0
210
0.0
220
0.0
230
1.0
  0
SOLID
  5
3BFF
  8
文字
  6
CONTINUOUS
 10
3302.8784279493402
 20
-331.59831991294402
 30
0.0
 11
3300.8528876978899
 21
-337.4846796085904
 31
0.0
 12
3303.9067168277361
 22
-337.4846796085904
 32
0.0
 13
3303.9067168277361
 23
-337.4846796085904
 33
0.0
210
0.0
220
0.0
230
1.0
  0
SOLID
  5
3C00
  8
文字
  6
CONTINUOUS
 10
-3296.3669582854218
 20
-337.4846796085904
 30
0.0
 11
-3300.8528876978889
 21
-337.4846796085904
 31
0.0
 12
-3300.3779467887521
 22
-338.86489065271132
 32
0.0
 13
-3300.3779467887521
 23
-338.86489065271132
 33
0.0
210
0.0
220
0.0
230
-1.0
  0
SOLID
  5
3C01
  8
文字
  6
CONTINUOUS
 10
-3300.377946788753
 20
-338.86489065271132
 30
0.0
 11
-3304.1478260599092
 21
-338.86489065271132
 31
0.0
 12
-3304.388935292081
 22
-340.2451016968318
 32
0.0
 13
-3304.388935292081
 23
-340.2451016968318
 33
0.0
210
0.0
220
0.0
230
-1.0
  0
SOLID
  5
3C02
  8
文字
  6
CONTINUOUS
 10
3300.8528876978899
 20
-337.4846796085904
 30
0.0
 11
3300.3779467887521
 21
-338.86489065271132
 31
0.0
 12
3304.1478260599092
 22
-338.86489065271132
 32
0.0
 13
3304.1478260599092
 23
-338.86489065271132
 33
0.0
  0
SOLID
  5
3C03
  8
文字
  6
CONTINUOUS
 10
-3300.8528876978899
 20
-337.4846796085904
 30
0.0
 11
-3303.9067168277361
 21
-337.4846796085904
 31
0.0
 12
-3304.1478260599092
 22
-338.86489065271132
 32
0.0
 13
-3304.1478260599092
 23
-338.86489065271132
 33
0.0
210
0.0
220
0.0
230
-1.0
  0
LINE
  5
3C04
  8
文字
  6
CONTINUOUS
 10
3302.8784279493389
 20
-331.59831991294402
 30
0.0
 11
3296.3669582854218
 21
-337.4846796085904
 31
0.0
  0
LINE
  5
3C05
  8
文字
  6
CONTINUOUS
 10
3302.8784279493402
 20
-331.59831991294402
 30
0.0
 11
3300.8528876978899
 21
-337.4846796085904
 31
0.0
  0
LINE
  5
3C06
  8
文字
  6
CONTINUOUS
 10
3300.8528876978889
 20
-337.4846796085904
 30
0.0
 11
3300.3779467887521
 21
-338.86489065271132
 31
0.0
  0
LINE
  5
3C07
  8
文字
  6
CONTINUOUS
 10
3300.3779467887521
 20
-338.86489065271132
 30
0.0
 11
3296.3669582854218
 21
-337.4846796085904
 31
0.0
  0
LINE
  5
3C08
  8
文字
  6
CONTINUOUS
 10
3304.1478260599092
 20
-338.86489065271132
 30
0.0
 11
3304.388935292081
 21
-340.2451016968318
 31
0.0
  0
LINE
  5
3C09
  8
文字
  6
CONTINUOUS
 10
3304.388935292081
 20
-340.2451016968318
 30
0.0
 11
3300.377946788753
 21
-338.86489065271132
 31
0.0
  0
LINE
  5
3C0A
  8
文字
  6
CONTINUOUS
 10
3300.8528876978899
 20
-337.4846796085904
 30
0.0
 11
3300.3779467887521
 21
-338.86489065271132
 31
0.0
  0
LINE
  5
3C0B
  8
文字
  6
CONTINUOUS
 10
3303.9067168277361
 20
-337.4846796085904
 30
0.0
 11
3304.1478260599092
 21
-338.86489065271132
 31
0.0
  0
ENDBLK
  5
3C0D
  8
0
  0
BLOCK
  8
0
  2
*U20
 70
     1
 10
0.0
 20
0.0
 30
0.0
  3
*U20
  1

  0
TEXT
  5
3C0F
  8
寸法線
  6
CONTINUOUS
 62
     0
 10
3312.9083155440062
 20
-325.83107523569242
 30
0.0
 40
10.0
  1
10
 50
90.0
  7
JAPANESE
  0
ENDBLK
  5
3C11
  8
0
  0
BLOCK
  8
0
  2
*U21
 70
     1
 10
0.0
 20
0.0
 30
0.0
  3
*U21
  1

  0
TEXT
  5
3C13
  8
寸法線
  6
CONTINUOUS
 62
     0
 10
3342.9083155440062
 20
-325.83107523569242
 30
0.0
 40
10.0
  1
10
 50
90.0
  7
JAPANESE
  0
ENDBLK
  5
3C15
  8
0
  0
BLOCK
  8
0
  2
*U22
 70
     1
 10
0.0
 20
0.0
 30
0.0
  3
*U22
  1

  0
TEXT
  5
3C17
  8
寸法線
  6
CONTINUOUS
 62
     0
 10
3372.9083155440062
 20
-325.83107523569242
 30
0.0
 40
10.0
  1
10
 50
90.0
  7
JAPANESE
  0
ENDBLK
  5
3C19
  8
0
  0
ENDSEC
  0
SECTION
  2
ENTITIES
  0
TEXT
  5
4CC
  8
_0-0_
 62
     7
 10
73.388957372667193
 20
35.081105951760151
 30
0.0
 40
6.75
  1
  
 41
0.888888888888889
  0
LINE
  5
4DA
  8
ADD_LINE
  6
DOT
 62
     7
 10
16.873983885738681
 20
891.55323658149018
 30
0.0
 11
16.873983885738681
 21
33.553236581490303
 31
0.0
  0
LINE
  5
4DB
  8
ADD_LINE
  6
DOT
 62
     7
 10
16.873983885738681
 20
33.553236581490303
 30
0.0
 11
1246.873983885738
 21
33.553236581490303
 31
0.0
  0
LINE
  5
4DC
  8
ADD_LINE
  6
DOT
 62
     7
 10
1246.873983885738
 20
891.55323658149018
 30
0.0
 11
16.873983885738681
 21
891.55323658149018
 31
0.0
  0
LINE
  5
4DD
  8
ADD_LINE
  6
DOT
 62
     7
 10
359.8039061483538
 20
75.796213361150294
 30
0.0
 11
42.798520483709787
 21
75.796213361150294
 31
0.0
  0
LINE
  5
4DE
  8
ADD_LINE
  6
DOT
 62
     7
 10
509.8039061483538
 20
81.421213360587274
 30
0.0
 11
359.8039061483538
 21
81.421213360587274
 31
0.0
  0
LINE
  5
4DF
  8
ADD_LINE
  6
DOT
 62
     7
 10
509.8039061483538
 20
70.171213361712759
 30
0.0
 11
359.8039061483538
 21
70.171213361712759
 31
0.0
  0
LINE
  5
4E0
  8
ADD_LINE
  6
DOT
 62
     7
 10
359.8039061483538
 20
64.54621336227514
 30
0.0
 11
42.798520483709787
 21
64.54621336227514
 31
0.0
  0
LINE
  5
4E1
  8
ADD_LINE
  6
DOT
 62
     7
 10
509.8039061483538
 20
58.921213362837541
 30
0.0
 11
359.8039061483538
 21
58.921213362837541
 31
0.0
  0
LINE
  5
4E2
  8
ADD_LINE
  6
DOT
 62
     7
 10
359.8039061483538
 20
53.296213363400632
 30
0.0
 11
42.798520483709787
 21
53.296213363400632
 31
0.0
  0
LINE
  5
4E3
  8
ADD_LINE
  6
DOT
 62
     7
 10
509.8039061483538
 20
47.671213363962352
 30
0.0
 11
359.8039061483538
 21
47.671213363962352
 31
0.0
  0
LINE
  5
4E4
  8
ADD_LINE
  6
DOT
 62
     7
 10
365.8039061483538
 20
87.046213360024794
 30
0.0
 11
365.8039061483538
 21
42.046213364525101
 31
0.0
  0
LINE
  5
4E5
  8
ADD_LINE
  6
DOT
 62
     7
 10
201.30121331603161
 20
87.046213360024794
 30
0.0
 11
201.30121331603161
 21
42.046213364525101
 31
0.0
  0
LINE
  5
4E9
  8
ADD_LINE
  6
DOT
 62
     7
 10
1238.8550927434719
 20
53.296213363400632
 30
0.0
 11
899.80390614835346
 21
53.296213363400632
 31
0.0
  0
LINE
  5
4EA
  8
ADD_LINE
  6
DOT
 62
     7
 10
1238.8550927434719
 20
75.796213361150294
 30
0.0
 11
899.80390614835346
 21
75.796213361150294
 31
0.0
  0
LINE
  5
4EB
  8
ADD_LINE
  6
DOT
 62
     7
 10
1100.8550927434719
 20
87.046213360024794
 30
0.0
 11
1100.8550927434719
 21
42.046213364525101
 31
0.0
  0
LINE
  5
4EC
  8
ADD_LINE
  6
DOT
 62
     7
 10
1145.8550927434719
 20
87.046213360024794
 30
0.0
 11
1145.8550927434719
 21
42.046213364525101
 31
0.0
  0
LINE
  5
4ED
  8
ADD_LINE
  6
DOT
 62
     7
 10
1205.855092743471
 20
64.54621336227514
 30
0.0
 11
1205.855092743471
 21
42.046213364525101
 31
0.0
  0
LINE
  5
4EE
  8
ADD_LINE
  6
DOT
 62
     7
 10
908.80390614835335
 20
87.046213360024794
 30
0.0
 11
908.80390614835335
 21
42.046213364525101
 31
0.0
  0
LINE
  5
4EF
  8
ADD_LINE
  6
DOT
 62
     7
 10
57.798520483709787
 20
42.046213364525101
 30
0.0
 11
57.798520483709787
 21
87.046213360024794
 31
0.0
  0
LINE
  5
4F0
  8
ADD_LINE
  6
DOT
 62
     7
 10
1246.873983885738
 20
33.553236581490303
 30
0.0
 11
1246.873983885738
 21
891.55323658149018
 31
0.0
  0
LINE
  5
2D17
  8
図面枠
  6
CONTINUOUS
 10
3471.0459862529851
 20
-447.67026566659882
 30
0.0
 11
3471.0459862529851
 21
-501.6702656611983
 31
0.0
  0
LINE
  5
2D18
  8
図面枠
  6
CONTINUOUS
 10
4525.9074101671267
 20
-447.67026566659882
 30
0.0
 11
3112.7220053639239
 21
-447.67026566659882
 31
0.0
  0
LINE
  5
2D19
  8
図面枠
  6
CONTINUOUS
 10
4525.9074101671267
 20
-501.6702656611983
 30
0.0
 11
3112.7220053639239
 21
-501.6702656611983
 31
0.0
  0
LINE
  5
2D1A
  8
図面枠
  6
CONTINUOUS
 10
4525.9074101671258
 20
488.87988613140982
 30
0.0
 11
4525.9074101671258
 21
-501.6702656611983
 31
0.0
  0
LINE
  5
2D1C
  8
図面枠
  6
CONTINUOUS
 10
3112.7220053639239
 20
-501.6702656611983
 30
0.0
 11
3112.7220053639239
 21
488.87988613140982
 31
0.0
  0
LINE
  5
2D1D
  8
図面枠
  6
CONTINUOUS
 10
4349.9898920756386
 20
-447.67026566659882
 30
0.0
 11
4349.9898920756386
 21
-501.6702656611983
 31
0.0
  0
LINE
  5
2D1E
  8
図面枠
  6
CONTINUOUS
 10
4403.9898920756377
 20
-447.67026566659882
 30
0.0
 11
4403.9898920756377
 21
-501.6702656611983
 31
0.0
  0
TEXT
  5
2D1F
  8
文字
 10
4355.3898920756374
 20
-476.47026566254812
 30
0.0
 40
10.800000000000001
  1
担当
  7
TATEGAKI
  0
TEXT
  5
2D20
  8
文字
 10
4409.3898920756383
 20
-476.47026566254812
 30
0.0
 40
10.800000000000001
  1
製図
  7
TATEGAKI
  0
LINE
  5
2D21
  8
図面枠
  6
CONTINUOUS
 10
4360.789892075637
 20
-447.67026566659882
 30
0.0
 11
4360.789892075637
 21
-501.6702656611983
 31
0.0
  0
LINE
  5
2D22
  8
図面枠
  6
CONTINUOUS
 10
4414.7898920756379
 20
-447.67026566659882
 30
0.0
 11
4414.7898920756379
 21
-501.6702656611983
 31
0.0
  0
LINE
  5
2D23
  8
図面枠
  6
CONTINUOUS
 10
4468.7898920756379
 20
-474.67026566389848
 30
0.0
 11
4468.7898920756379
 21
-501.6702656611983
 31
0.0
  0
TEXT
  5
2D24
  8
文字
 10
4463.3898920756383
 20
-476.47026566254812
 30
0.0
 40
10.800000000000001
  1
図番
  7
TATEGAKI
  0
TEXT
  5
2D25
  8
文字
 10
4355.3898920756374
 20
-449.47026566524841
 30
0.0
 40
10.800000000000001
  1
検図
  7
TATEGAKI
  0
TEXT
  5
2D26
  8
文字
 10
4409.3898920756383
 20
-449.47026566524841
 30
0.0
 40
10.800000000000001
  1
縮尺
  7
TATEGAKI
  0
LINE
  5
2D27
  8
図面枠
  6
CONTINUOUS
 10
4457.9898920756377
 20
-474.67026566389848
 30
0.0
 11
4457.9898920756377
 21
-501.6702656611983
 31
0.0
  0
LINE
  5
2D28
  8
図面枠
  6
CONTINUOUS
 10
4119.0459862529842
 20
-447.67026566659882
 30
0.0
 11
4119.0459862529842
 21
-501.6702656611983
 31
0.0
  0
LINE
  5
2D29
  8
図面枠
  6
CONTINUOUS
 10
4525.9074101671267
 20
-474.67026566389848
 30
0.0
 11
4119.0459862529842
 21
-474.67026566389848
 31
0.0
  0
LINE
  5
2D2A
  8
図面枠
  6
CONTINUOUS
 10
3651.0459862529851
 20
-447.67026566659882
 30
0.0
 11
3651.0459862529851
 21
-501.6702656611983
 31
0.0
  0
LINE
  5
2D2B
  8
細線
  6
CONTINUOUS
 10
3700.5420566312318
 20
-493.99681272708273
 30
0.0
 11
3715.6759159191438
 21
-493.99681272708273
 31
0.0
  0
LINE
  5
2D2C
  8
細線
  6
CONTINUOUS
 10
3715.6759159191438
 20
-493.99681272708273
 30
0.0
 11
3715.6759159191438
 21
-478.84164356841251
 31
0.0
  0
LINE
  5
2D2D
  8
細線
  6
CONTINUOUS
 10
3700.5420566312318
 20
-478.84164356841251
 30
0.0
 11
3700.5420566312318
 21
-493.99681272708273
 31
0.0
  0
LINE
  5
2D2E
  8
細線
  6
CONTINUOUS
 10
3715.6759159191438
 20
-478.84164356841251
 30
0.0
 11
3700.5420566312318
 21
-478.84164356841251
 31
0.0
  0
LINE
  5
2D2F
  8
細線
  6
CONTINUOUS
 10
3717.390675703994
 20
-473.8995932211659
 30
0.0
 11
3725.1306757039961
 21
-460.49351997058278
 31
0.0
  0
LINE
  5
2D30
  8
細線
  6
CONTINUOUS
 10
3717.390675703994
 20
-473.8995932211659
 30
0.0
 11
3732.8706757039949
 21
-473.8995932211659
 31
0.0
  0
LINE
  5
2D31
  8
細線
  6
CONTINUOUS
 10
3725.1306757039961
 20
-460.49351997058278
 30
0.0
 11
3732.8706757039949
 21
-473.8995932211659
 31
0.0
  0
CIRCLE
  5
2D32
  8
細線
  6
CONTINUOUS
 10
3737.3086457606059
 20
-457.6287480497644
 30
0.0
 40
5.3131377006584559
  0
LINE
  5
2D33
  8
細線
  6
CONTINUOUS
 10
3747.9891109914279
 20
-486.08941214323698
 30
0.0
 11
3754.5132648792719
 21
-486.08941214323698
 31
0.0
  0
LINE
  5
2D34
  8
細線
  6
CONTINUOUS
 10
3756.1919724486302
 20
-489.6894121432365
 30
0.0
 11
3758.3742922887959
 21
-494.36941214323667
 31
0.0
  0
LINE
  5
2D35
  8
細線
  6
CONTINUOUS
 10
3746.310403422071
 20
-489.6894121432365
 30
0.0
 11
3744.1280835819048
 21
-494.36941214323667
 31
0.0
  0
LINE
  5
2D36
  8
細線
  6
CONTINUOUS
 10
3751.251187935351
 20
-479.0938655617623
 30
0.0
 11
3754.5132648792719
 21
-486.08941214323698
 31
0.0
  0
LINE
  5
2D37
  8
細線
  6
CONTINUOUS
 10
3751.251187935351
 20
-479.0938655617623
 30
0.0
 11
3747.9891109914279
 21
-486.08941214323698
 31
0.0
  0
LINE
  5
2D38
  8
細線
  6
CONTINUOUS
 10
3749.1092605973372
 20
-473.650951173377
 30
0.0
 11
3739.4480835819049
 21
-494.36941214323667
 31
0.0
  0
LINE
  5
2D39
  8
細線
  6
CONTINUOUS
 10
3777.34360263808
 20
-477.2509511733773
 30
0.0
 11
3777.6129330677909
 21
-477.39875545451139
 31
0.0
  0
LINE
  5
2D3A
  8
細線
  6
CONTINUOUS
 10
3777.6129330677909
 20
-477.39875545451139
 30
0.0
 11
3778.072280297863
 21
-477.65698177240438
 31
0.0
  0
LINE
  5
2D3B
  8
細線
  6
CONTINUOUS
 10
3778.072280297863
 20
-477.65698177240438
 30
0.0
 11
3778.5176953618939
 21
-477.9246285081349
 31
0.0
  0
LINE
  5
2D3C
  8
細線
  6
CONTINUOUS
 10
3778.5176953618939
 20
-477.9246285081349
 30
0.0
 11
3778.940360433267
 21
-478.20765795146917
 31
0.0
  0
LINE
  5
2D3D
  8
細線
  6
CONTINUOUS
 10
3778.940360433267
 20
-478.20765795146917
 30
0.0
 11
3779.3314576853768
 21
-478.51203239218142
 31
0.0
  0
LINE
  5
2D3E
  8
細線
  6
CONTINUOUS
 10
3779.3314576853768
 20
-478.51203239218142
 30
0.0
 11
3779.6821692916128
 21
-478.8437141200406
 31
0.0
  0
LINE
  5
2D3F
  8
細線
  6
CONTINUOUS
 10
3779.6821692916128
 20
-478.8437141200406
 30
0.0
 11
3779.8636026380791
 21
-479.0509511733776
 31
0.0
  0
LINE
  5
2D40
  8
細線
  6
CONTINUOUS
 10
3779.8636026380791
 20
-479.0509511733776
 30
0.0
 11
3780.1226177321182
 21
-479.41647548056471
 31
0.0
  0
LINE
  5
2D41
  8
細線
  6
CONTINUOUS
 10
3780.1226177321182
 20
-479.41647548056471
 30
0.0
 11
3780.466257786838
 21
-480.1155160988223
 31
0.0
  0
LINE
  5
2D42
  8
細線
  6
CONTINUOUS
 10
3780.466257786838
 20
-480.1155160988223
 30
0.0
 11
3780.6982301710232
 21
-480.88790566380931
 31
0.0
  0
LINE
  5
2D43
  8
細線
  6
CONTINUOUS
 10
3780.6982301710232
 20
-480.88790566380931
 30
0.0
 11
3780.8402014049798
 21
-481.71762912165508
 31
0.0
  0
LINE
  5
2D44
  8
細線
  6
CONTINUOUS
 10
3780.8402014049798
 20
-481.71762912165508
 30
0.0
 11
3780.9138380090239
 21
-482.58867141848941
 31
0.0
  0
LINE
  5
2D45
  8
細線
  6
CONTINUOUS
 10
3780.9138380090239
 20
-482.58867141848941
 30
0.0
 11
3780.9408065034622
 21
-483.4850175004417
 31
0.0
  0
LINE
  5
2D46
  8
細線
  6
CONTINUOUS
 10
3780.9408065034622
 20
-483.4850175004417
 30
0.0
 11
3780.943602638079
 21
-484.01018165830692
 31
0.0
  0
LINE
  5
2D47
  8
細線
  6
CONTINUOUS
 10
3780.943602638079
 20
-484.01018165830692
 30
0.0
 11
3780.9408065034622
 21
-484.53534581617117
 31
0.0
  0
LINE
  5
2D48
  8
細線
  6
CONTINUOUS
 10
3780.9408065034622
 20
-484.53534581617117
 30
0.0
 11
3780.9138380090239
 21
-485.4316918981234
 31
0.0
  0
LINE
  5
2D49
  8
細線
  6
CONTINUOUS
 10
3780.9138380090239
 20
-485.4316918981234
 30
0.0
 11
3780.8402014049798
 21
-486.30273419495768
 31
0.0
  0
LINE
  5
2D4A
  8
細線
  6
CONTINUOUS
 10
3780.8402014049798
 20
-486.30273419495768
 30
0.0
 11
3780.6982301710232
 21
-487.13245765280539
 31
0.0
  0
LINE
  5
2D4B
  8
細線
  6
CONTINUOUS
 10
3780.6982301710232
 20
-487.13245765280539
 30
0.0
 11
3780.466257786838
 21
-487.90484721779239
 31
0.0
  0
LINE
  5
2D4C
  8
細線
  6
CONTINUOUS
 10
3780.466257786838
 20
-487.90484721779239
 30
0.0
 11
3780.1226177321182
 21
-488.60388783604822
 31
0.0
  0
LINE
  5
2D4D
  8
細線
  6
CONTINUOUS
 10
3780.1226177321182
 20
-488.60388783604822
 30
0.0
 11
3779.8636026380791
 21
-488.96941214323709
 31
0.0
  0
LINE
  5
2D4E
  8
細線
  6
CONTINUOUS
 10
3779.8636026380791
 20
-488.96941214323709
 30
0.0
 11
3779.6821692916128
 21
-489.17664919657312
 31
0.0
  0
LINE
  5
2D4F
  8
細線
  6
CONTINUOUS
 10
3779.6821692916128
 20
-489.17664919657312
 30
0.0
 11
3779.3314576853768
 21
-489.50833092443139
 31
0.0
  0
LINE
  5
2D50
  8
細線
  6
CONTINUOUS
 10
3779.3314576853768
 20
-489.50833092443139
 30
0.0
 11
3778.940360433267
 21
-489.8127053651437
 31
0.0
  0
LINE
  5
2D51
  8
細線
  6
CONTINUOUS
 10
3778.940360433267
 20
-489.8127053651437
 30
0.0
 11
3778.5176953618939
 21
-490.09573480847979
 31
0.0
  0
LINE
  5
2D52
  8
細線
  6
CONTINUOUS
 10
3778.5176953618939
 20
-490.09573480847979
 30
0.0
 11
3778.072280297863
 21
-490.36338154421043
 31
0.0
  0
LINE
  5
2D53
  8
細線
  6
CONTINUOUS
 10
3778.072280297863
 20
-490.36338154421043
 30
0.0
 11
3777.6129330677909
 21
-490.62160786210228
 31
0.0
  0
LINE
  5
2D54
  8
細線
  6
CONTINUOUS
 10
3777.6129330677909
 20
-490.62160786210228
 30
0.0
 11
3777.34360263808
 21
-490.76941214323631
 31
0.0
  0
LINE
  5
2D55
  8
細線
  6
CONTINUOUS
 10
3777.34360263808
 20
-494.36941214323667
 30
0.0
 11
3777.5793620535669
 21
-494.30837844539968
 31
0.0
  0
LINE
  5
2D56
  8
細線
  6
CONTINUOUS
 10
3777.5793620535669
 20
-494.30837844539968
 30
0.0
 11
3777.9860805692228
 21
-494.20209053091139
 31
0.0
  0
LINE
  5
2D57
  8
細線
  6
CONTINUOUS
 10
3777.9860805692228
 20
-494.20209053091139
 30
0.0
 11
3778.3934567649189
 21
-494.09286539149019
 31
0.0
  0
LINE
  5
2D58
  8
細線
  6
CONTINUOUS
 10
3778.3934567649189
 20
-494.09286539149019
 30
0.0
 11
3778.8019068938488
 21
-493.97884402401309
 31
0.0
  0
LINE
  5
2D59
  8
細線
  6
CONTINUOUS
 10
3778.8019068938488
 20
-493.97884402401309
 30
0.0
 11
3779.2118472092002
 21
-493.85816742535962
 31
0.0
  0
LINE
  5
2D5A
  8
細線
  6
CONTINUOUS
 10
3779.2118472092002
 20
-493.85816742535962
 30
0.0
 11
3779.6236939641649
 21
-493.72897659240471
 31
0.0
  0
LINE
  5
2D5B
  8
細線
  6
CONTINUOUS
 10
3779.6236939641649
 20
-493.72897659240471
 30
0.0
 11
3779.8636026380791
 21
-493.64941214323738
 31
0.0
  0
LINE
  5
2D5C
  8
細線
  6
CONTINUOUS
 10
3779.8636026380791
 20
-493.64941214323738
 30
0.0
 11
3780.3406178995351
 21
-493.4802743037867
 31
0.0
  0
LINE
  5
2D5D
  8
細線
  6
CONTINUOUS
 10
3780.3406178995351
 20
-493.4802743037867
 30
0.0
 11
3781.1574672274851
 21
-493.14856834793272
 31
0.0
  0
LINE
  5
2D5E
  8
細線
  6
CONTINUOUS
 10
3781.1574672274851
 20
-493.14856834793272
 30
0.0
 11
3781.9467669696728
 21
-492.75918429856159
 31
0.0
  0
LINE
  5
2D5F
  8
細線
  6
CONTINUOUS
 10
3781.9467669696728
 20
-492.75918429856159
 30
0.0
 11
3782.6847117172911
 21
-492.30406106854889
 31
0.0
  0
LINE
  5
2D60
  8
細線
  6
CONTINUOUS
 10
3782.6847117172911
 20
-492.30406106854889
 30
0.0
 11
3783.3474960615308
 21
-491.7751375707698
 31
0.0
  0
LINE
  5
2D61
  8
細線
  6
CONTINUOUS
 10
3783.3474960615308
 20
-491.7751375707698
 30
0.0
 11
3783.9113145935839
 21
-491.16435271809991
 31
0.0
  0
LINE
  5
2D62
  8
細線
  6
CONTINUOUS
 10
3783.9113145935839
 20
-491.16435271809991
 30
0.0
 11
3784.1836026380788
 21
-490.76941214323631
 31
0.0
  0
LINE
  5
2D63
  8
細線
  6
CONTINUOUS
 10
3784.1836026380788
 20
-490.76941214323631
 30
0.0
 11
3784.2738564407682
 21
-490.6139475003551
 31
0.0
  0
LINE
  5
2D64
  8
細線
  6
CONTINUOUS
 10
3784.2738564407682
 20
-490.6139475003551
 30
0.0
 11
3784.415729908078
 21
-490.33663191034111
 31
0.0
  0
LINE
  5
2D65
  8
細線
  6
CONTINUOUS
 10
3784.415729908078
 20
-490.33663191034111
 30
0.0
 11
3784.542191147314
 21
-490.04931138170332
 31
0.0
  0
LINE
  5
2D66
  8
細線
  6
CONTINUOUS
 10
3784.542191147314
 20
-490.04931138170332
 30
0.0
 11
3784.6555375931921
 21
-489.75400122319519
 31
0.0
  0
LINE
  5
2D67
  8
細線
  6
CONTINUOUS
 10
3784.6555375931921
 20
-489.75400122319519
 30
0.0
 11
3784.7580666804311
 21
-489.45271674357582
 31
0.0
  0
LINE
  5
2D68
  8
細線
  6
CONTINUOUS
 10
3784.7580666804311
 20
-489.45271674357582
 30
0.0
 11
3784.8520758437498
 21
-489.14747325159942
 31
0.0
  0
LINE
  5
2D69
  8
細線
  6
CONTINUOUS
 10
3784.8520758437498
 20
-489.14747325159942
 30
0.0
 11
3784.90360263808
 21
-488.96941214323709
 31
0.0
  0
LINE
  5
2D6A
  8
細線
  6
CONTINUOUS
 10
3784.90360263808
 20
-488.96941214323709
 30
0.0
 11
3785.028937231863
 21
-488.5077937510427
 31
0.0
  0
LINE
  5
2D6B
  8
細線
  6
CONTINUOUS
 10
3785.028937231863
 20
-488.5077937510427
 30
0.0
 11
3785.218488799389
 21
-487.7082880916264
 31
0.0
  0
LINE
  5
2D6C
  8
細線
  6
CONTINUOUS
 10
3785.218488799389
 20
-487.7082880916264
 30
0.0
 11
3785.3733373388468
 21
-486.90493321186523
 31
0.0
  0
LINE
  5
2D6D
  8
細線
  6
CONTINUOUS
 10
3785.3733373388468
 20
-486.90493321186523
 30
0.0
 11
3785.4921981394732
 21
-486.098569552882
 31
0.0
  0
LINE
  5
2D6E
  8
細線
  6
CONTINUOUS
 10
3785.4921981394732
 20
-486.098569552882
 30
0.0
 11
3785.5737864905091
 21
-485.29003755580243
 31
0.0
  0
LINE
  5
2D6F
  8
細線
  6
CONTINUOUS
 10
3785.5737864905091
 20
-485.29003755580243
 30
0.0
 11
3785.6168176811971
 21
-484.48017766174729
 31
0.0
  0
LINE
  5
2D70
  8
細線
  6
CONTINUOUS
 10
3785.6168176811971
 20
-484.48017766174729
 30
0.0
 11
3785.6236026380789
 21
-484.01018165830692
 31
0.0
  0
LINE
  5
2D71
  8
細線
  6
CONTINUOUS
 10
3785.6236026380789
 20
-484.01018165830692
 30
0.0
 11
3785.6168176811971
 21
-483.54018565486729
 31
0.0
  0
LINE
  5
2D72
  8
細線
  6
CONTINUOUS
 10
3785.6168176811971
 20
-483.54018565486729
 30
0.0
 11
3785.5737864905091
 21
-482.73032576081141
 31
0.0
  0
LINE
  5
2D73
  8
細線
  6
CONTINUOUS
 10
3785.5737864905091
 20
-482.73032576081141
 30
0.0
 11
3785.4921981394732
 21
-481.92179376373178
 31
0.0
  0
LINE
  5
2D74
  8
細線
  6
CONTINUOUS
 10
3785.4921981394732
 20
-481.92179376373178
 30
0.0
 11
3785.3733373388468
 21
-481.11543010474952
 31
0.0
  0
LINE
  5
2D75
  8
細線
  6
CONTINUOUS
 10
3785.3733373388468
 20
-481.11543010474952
 30
0.0
 11
3785.218488799389
 21
-480.31207522498829
 31
0.0
  0
LINE
  5
2D76
  8
細線
  6
CONTINUOUS
 10
3785.218488799389
 20
-480.31207522498829
 30
0.0
 11
3785.028937231863
 21
-479.51256956557199
 31
0.0
  0
LINE
  5
2D77
  8
細線
  6
CONTINUOUS
 10
3785.028937231863
 20
-479.51256956557199
 30
0.0
 11
3784.90360263808
 21
-479.0509511733776
 31
0.0
  0
LINE
  5
2D78
  8
細線
  6
CONTINUOUS
 10
3784.90360263808
 20
-479.0509511733776
 30
0.0
 11
3784.8520758437498
 21
-478.87289006501533
 31
0.0
  0
LINE
  5
2D79
  8
細線
  6
CONTINUOUS
 10
3784.8520758437498
 20
-478.87289006501533
 30
0.0
 11
3784.7580666804311
 21
-478.56764657303802
 31
0.0
  0
LINE
  5
2D7A
  8
細線
  6
CONTINUOUS
 10
3784.7580666804311
 20
-478.56764657303802
 30
0.0
 11
3784.6555375931921
 21
-478.26636209341859
 31
0.0
  0
LINE
  5
2D7B
  8
細線
  6
CONTINUOUS
 10
3784.6555375931921
 20
-478.26636209341859
 30
0.0
 11
3784.542191147314
 21
-477.9710519349095
 31
0.0
  0
LINE
  5
2D7C
  8
細線
  6
CONTINUOUS
 10
3784.542191147314
 20
-477.9710519349095
 30
0.0
 11
3784.415729908078
 21
-477.68373140627182
 31
0.0
  0
LINE
  5
2D7D
  8
細線
  6
CONTINUOUS
 10
3784.415729908078
 20
-477.68373140627182
 30
0.0
 11
3784.2738564407682
 21
-477.40641581625948
 31
0.0
  0
LINE
  5
2D7E
  8
細線
  6
CONTINUOUS
 10
3784.2738564407682
 20
-477.40641581625948
 30
0.0
 11
3784.1836026380788
 21
-477.2509511733773
 31
0.0
  0
LINE
  5
2D7F
  8
細線
  6
CONTINUOUS
 10
3784.1836026380788
 20
-477.2509511733773
 30
0.0
 11
3783.9113145935839
 21
-476.85601059851291
 31
0.0
  0
LINE
  5
2D80
  8
細線
  6
CONTINUOUS
 10
3783.9113145935839
 20
-476.85601059851291
 30
0.0
 11
3783.3474960615308
 21
-476.24522574584307
 31
0.0
  0
LINE
  5
2D81
  8
細線
  6
CONTINUOUS
 10
3783.3474960615308
 20
-476.24522574584307
 30
0.0
 11
3782.6847117172911
 21
-475.71630224806489
 31
0.0
  0
LINE
  5
2D82
  8
細線
  6
CONTINUOUS
 10
3782.6847117172911
 20
-475.71630224806489
 30
0.0
 11
3781.9467669696728
 21
-475.26117901805299
 31
0.0
  0
LINE
  5
2D83
  8
細線
  6
CONTINUOUS
 10
3781.9467669696728
 20
-475.26117901805299
 30
0.0
 11
3781.1574672274851
 21
-474.87179496868191
 31
0.0
  0
LINE
  5
2D84
  8
細線
  6
CONTINUOUS
 10
3781.1574672274851
 20
-474.87179496868191
 30
0.0
 11
3780.3406178995351
 21
-474.54008901282799
 31
0.0
  0
LINE
  5
2D85
  8
細線
  6
CONTINUOUS
 10
3780.3406178995351
 20
-474.54008901282799
 30
0.0
 11
3779.8636026380791
 21
-474.37095117337628
 31
0.0
  0
LINE
  5
2D86
  8
細線
  6
CONTINUOUS
 10
3779.8636026380791
 20
-474.37095117337628
 30
0.0
 11
3779.6236939641649
 21
-474.29138672420999
 31
0.0
  0
LINE
  5
2D87
  8
細線
  6
CONTINUOUS
 10
3779.6236939641649
 20
-474.29138672420999
 30
0.0
 11
3779.2118472092002
 21
-474.16219589125512
 31
0.0
  0
LINE
  5
2D88
  8
細線
  6
CONTINUOUS
 10
3779.2118472092002
 20
-474.16219589125512
 30
0.0
 11
3778.8019068938488
 21
-474.04151929259979
 31
0.0
  0
LINE
  5
2D89
  8
細線
  6
CONTINUOUS
 10
3778.8019068938488
 20
-474.04151929259979
 30
0.0
 11
3778.3934567649189
 21
-473.92749792512348
 31
0.0
  0
LINE
  5
2D8A
  8
細線
  6
CONTINUOUS
 10
3778.3934567649189
 20
-473.92749792512348
 30
0.0
 11
3777.9860805692228
 21
-473.81827278570239
 31
0.0
  0
LINE
  5
2D8B
  8
細線
  6
CONTINUOUS
 10
3777.9860805692228
 20
-473.81827278570239
 30
0.0
 11
3777.5793620535669
 21
-473.7119848712141
 31
0.0
  0
LINE
  5
2D8C
  8
細線
  6
CONTINUOUS
 10
3777.5793620535669
 20
-473.7119848712141
 30
0.0
 11
3777.34360263808
 21
-473.650951173377
 31
0.0
  0
LINE
  5
2D8D
  8
細線
  6
CONTINUOUS
 10
3790.3036026380792
 20
-473.650951173377
 30
0.0
 11
3797.6247796535099
 21
-489.35126594924481
 31
0.0
  0
LINE
  5
2D8E
  8
細線
  6
CONTINUOUS
 10
3804.9459566689411
 20
-473.650951173377
 30
0.0
 11
3797.6247796535099
 21
-489.35126594924481
 31
0.0
  0
LINE
  5
2D8F
  8
細線
  6
CONTINUOUS
 10
3785.6236026380789
 20
-473.650951173377
 30
0.0
 11
3795.2847796535102
 21
-494.36941214323667
 31
0.0
  0
LINE
  5
2D90
  8
細線
  6
CONTINUOUS
 10
3799.9647796535091
 20
-494.36941214323667
 30
0.0
 11
3809.6259566689409
 21
-473.650951173377
 31
0.0
  0
LINE
  5
2D91
  8
細線
  6
CONTINUOUS
 10
3813.2259566689422
 20
-473.650951173377
 30
0.0
 11
3803.56477965351
 21
-494.36941214323667
 31
0.0
  0
LINE
  5
2D92
  8
細線
  6
CONTINUOUS
 10
3818.0335189265511
 20
-473.650951173377
 30
0.0
 11
3827.6946959419811
 21
-494.36941214323667
 31
0.0
  0
LINE
  5
2D93
  8
細線
  6
CONTINUOUS
 10
3746.310403422071
 20
-489.6894121432365
 30
0.0
 11
3756.1919724486302
 21
-489.6894121432365
 31
0.0
  0
LINE
  5
2D94
  8
細線
  6
CONTINUOUS
 10
3810.427099493676
 20
-489.6894121432365
 30
0.0
 11
3820.832376101816
 21
-489.6894121432365
 31
0.0
  0
LINE
  5
2D95
  8
細線
  6
CONTINUOUS
 10
3812.1058070630338
 20
-486.08941214323698
 30
0.0
 11
3819.1536685324568
 21
-486.08941214323698
 31
0.0
  0
LINE
  5
2D96
  8
細線
  6
CONTINUOUS
 10
3834.4502704029592
 20
-477.2509511733773
 30
0.0
 11
3845.1470720148809
 21
-494.36941214323667
 31
0.0
  0
LINE
  5
2D97
  8
細線
  6
CONTINUOUS
 10
3847.3338041624088
 20
-490.3960786420817
 30
0.0
 11
3847.3338041624088
 21
-473.650951173377
 31
0.0
  0
LINE
  5
2D98
  8
細線
  6
CONTINUOUS
 10
3851.2938041624088
 20
-494.36941214323667
 30
0.0
 11
3851.2938041624088
 21
-473.650951173377
 31
0.0
  0
LINE
  5
2D99
  8
細線
  6
CONTINUOUS
 10
3836.8702872133999
 20
-473.650951173377
 30
0.0
 11
3847.3338041624088
 21
-490.3960786420817
 31
0.0
  0
LINE
  5
2D9A
  8
細線
  6
CONTINUOUS
 10
3829.7702704029598
 20
-473.650951173377
 30
0.0
 11
3829.7702704029598
 21
-494.36941214323667
 31
0.0
  0
LINE
  5
2D9B
  8
細線
  6
CONTINUOUS
 10
3777.34360263808
 20
-477.2509511733773
 30
0.0
 11
3770.1436026380802
 21
-477.2509511733773
 31
0.0
  0
LINE
  5
2D9C
  8
細線
  6
CONTINUOUS
 10
3770.1436026380802
 20
-490.76941214323631
 30
0.0
 11
3777.34360263808
 21
-490.76941214323631
 31
0.0
  0
LINE
  5
2D9D
  8
細線
  6
CONTINUOUS
 10
3819.1536685324568
 20
-486.08941214323698
 30
0.0
 11
3815.6297377977448
 21
-478.53231829525021
 31
0.0
  0
LINE
  5
2D9E
  8
細線
  6
CONTINUOUS
 10
3812.1058070630338
 20
-486.08941214323698
 30
0.0
 11
3815.6297377977448
 21
-478.53231829525021
 31
0.0
  0
LINE
  5
2D9F
  8
細線
  6
CONTINUOUS
 10
3808.2447796535112
 20
-494.36941214323667
 30
0.0
 11
3810.427099493676
 21
-489.6894121432365
 31
0.0
  0
LINE
  5
2DA0
  8
細線
  6
CONTINUOUS
 10
3823.0146959419808
 20
-494.36941214323667
 30
0.0
 11
3820.832376101816
 21
-489.6894121432365
 31
0.0
  0
LINE
  5
2DA1
  8
細線
  6
CONTINUOUS
 10
3834.4502704029592
 20
-477.2509511733773
 30
0.0
 11
3834.4502704029592
 21
-494.36941214323667
 31
0.0
  0
LINE
  5
2DA2
  8
細線
  6
CONTINUOUS
 10
3739.4480835819049
 20
-494.36941214323667
 30
0.0
 11
3744.1280835819048
 21
-494.36941214323667
 31
0.0
  0
LINE
  5
2DA3
  8
細線
  6
CONTINUOUS
 10
3758.3742922887959
 20
-494.36941214323667
 30
0.0
 11
3763.0542922887962
 21
-494.36941214323667
 31
0.0
  0
LINE
  5
2DA4
  8
細線
  6
CONTINUOUS
 10
3753.3931152733649
 20
-473.650951173377
 30
0.0
 11
3763.0542922887962
 21
-494.36941214323667
 31
0.0
  0
LINE
  5
2DA5
  8
細線
  6
CONTINUOUS
 10
3753.3931152733649
 20
-473.650951173377
 30
0.0
 11
3749.1092605973372
 21
-473.650951173377
 31
0.0
  0
LINE
  5
2DA6
  8
細線
  6
CONTINUOUS
 10
3765.463602638079
 20
-473.650951173377
 30
0.0
 11
3765.463602638079
 21
-494.36941214323667
 31
0.0
  0
LINE
  5
2DA7
  8
細線
  6
CONTINUOUS
 10
3770.1436026380802
 20
-477.2509511733773
 30
0.0
 11
3770.1436026380802
 21
-490.76941214323631
 31
0.0
  0
LINE
  5
2DA8
  8
細線
  6
CONTINUOUS
 10
3765.463602638079
 20
-494.36941214323667
 30
0.0
 11
3777.34360263808
 21
-494.36941214323667
 31
0.0
  0
LINE
  5
2DA9
  8
細線
  6
CONTINUOUS
 10
3777.34360263808
 20
-473.650951173377
 30
0.0
 11
3765.463602638079
 21
-473.650951173377
 31
0.0
  0
LINE
  5
2DAA
  8
細線
  6
CONTINUOUS
 10
3790.3036026380792
 20
-473.650951173377
 30
0.0
 11
3785.6236026380789
 21
-473.650951173377
 31
0.0
  0
LINE
  5
2DAB
  8
細線
  6
CONTINUOUS
 10
3795.2847796535102
 20
-494.36941214323667
 30
0.0
 11
3799.9647796535091
 21
-494.36941214323667
 31
0.0
  0
LINE
  5
2DAC
  8
細線
  6
CONTINUOUS
 10
3809.6259566689409
 20
-473.650951173377
 30
0.0
 11
3804.9459566689411
 21
-473.650951173377
 31
0.0
  0
LINE
  5
2DAD
  8
細線
  6
CONTINUOUS
 10
3803.56477965351
 20
-494.36941214323667
 30
0.0
 11
3808.2447796535112
 21
-494.36941214323667
 31
0.0
  0
LINE
  5
2DAE
  8
細線
  6
CONTINUOUS
 10
3823.0146959419808
 20
-494.36941214323667
 30
0.0
 11
3827.6946959419811
 21
-494.36941214323667
 31
0.0
  0
LINE
  5
2DAF
  8
細線
  6
CONTINUOUS
 10
3829.7702704029598
 20
-494.36941214323667
 30
0.0
 11
3834.4502704029592
 21
-494.36941214323667
 31
0.0
  0
LINE
  5
2DB0
  8
細線
  6
CONTINUOUS
 10
3845.1470720148809
 20
-494.36941214323667
 30
0.0
 11
3851.2938041624088
 21
-494.36941214323667
 31
0.0
  0
LINE
  5
2DB1
  8
細線
  6
CONTINUOUS
 10
3851.2938041624088
 20
-473.650951173377
 30
0.0
 11
3847.3338041624088
 21
-473.650951173377
 31
0.0
  0
LINE
  5
2DB2
  8
細線
  6
CONTINUOUS
 10
3836.8702872133999
 20
-473.650951173377
 30
0.0
 11
3829.7702704029598
 21
-473.650951173377
 31
0.0
  0
LINE
  5
2DB3
  8
細線
  6
CONTINUOUS
 10
3818.0335189265511
 20
-473.650951173377
 30
0.0
 11
3813.2259566689422
 21
-473.650951173377
 31
0.0
  0
LINE
  5
2DB4
  8
細線
  6
CONTINUOUS
 10
3739.7084982089318
 20
-493.8109511733777
 30
0.0
 11
3744.3884982089312
 21
-493.8109511733777
 31
0.0
  0
LINE
  5
2DB5
  8
細線
  6
CONTINUOUS
 10
3758.1138776617699
 20
-493.8109511733777
 30
0.0
 11
3762.7938776617689
 21
-493.8109511733777
 31
0.0
  0
LINE
  5
2DB6
  8
細線
  6
CONTINUOUS
 10
3765.463602638079
 20
-493.8109511733777
 30
0.0
 11
3779.3623676425459
 21
-493.8109511733777
 31
0.0
  0
LINE
  5
2DB7
  8
細線
  6
CONTINUOUS
 10
3795.0243650264829
 20
-493.8109511733777
 30
0.0
 11
3800.225194280536
 21
-493.8109511733777
 31
0.0
  0
LINE
  5
2DB8
  8
細線
  6
CONTINUOUS
 10
3803.8251942805359
 20
-493.8109511733777
 30
0.0
 11
3808.5051942805362
 21
-493.8109511733777
 31
0.0
  0
LINE
  5
2DB9
  8
細線
  6
CONTINUOUS
 10
3822.7542813149548
 20
-493.8109511733777
 30
0.0
 11
3827.434281314956
 21
-493.8109511733777
 31
0.0
  0
LINE
  5
2DBA
  8
細線
  6
CONTINUOUS
 10
3829.7702704029598
 20
-493.8109511733777
 30
0.0
 11
3834.4502704029592
 21
-493.8109511733777
 31
0.0
  0
LINE
  5
2DBB
  8
細線
  6
CONTINUOUS
 10
3844.7981068705781
 20
-493.8109511733777
 30
0.0
 11
3851.2938041624088
 21
-493.8109511733777
 31
0.0
  0
LINE
  5
2DBC
  8
細線
  6
CONTINUOUS
 10
3740.044239722803
 20
-493.09095117337762
 30
0.0
 11
3744.7242397228028
 21
-493.09095117337762
 31
0.0
  0
LINE
  5
2DBD
  8
細線
  6
CONTINUOUS
 10
3757.7781361478992
 20
-493.09095117337762
 30
0.0
 11
3762.4581361478981
 21
-493.09095117337762
 31
0.0
  0
LINE
  5
2DBE
  8
細線
  6
CONTINUOUS
 10
3765.463602638079
 20
-493.09095117337762
 30
0.0
 11
3781.2742599443291
 21
-493.09095117337762
 31
0.0
  0
LINE
  5
2DBF
  8
細線
  6
CONTINUOUS
 10
3794.688623512613
 20
-493.09095117337762
 30
0.0
 11
3800.5609357944081
 21
-493.09095117337762
 31
0.0
  0
LINE
  5
2DC0
  8
細線
  6
CONTINUOUS
 10
3804.160935794408
 20
-493.09095117337762
 30
0.0
 11
3808.8409357944079
 21
-493.09095117337762
 31
0.0
  0
LINE
  5
2DC1
  8
細線
  6
CONTINUOUS
 10
3822.4185398010841
 20
-493.09095117337762
 30
0.0
 11
3827.098539801083
 21
-493.09095117337762
 31
0.0
  0
LINE
  5
2DC2
  8
細線
  6
CONTINUOUS
 10
3829.7702704029598
 20
-493.09095117337762
 30
0.0
 11
3834.4502704029592
 21
-493.09095117337762
 31
0.0
  0
LINE
  5
2DC3
  8
細線
  6
CONTINUOUS
 10
3844.3482009372028
 20
-493.09095117337762
 30
0.0
 11
3851.2938041624088
 21
-493.09095117337762
 31
0.0
  0
LINE
  5
2DC4
  8
細線
  6
CONTINUOUS
 10
3740.3799812366751
 20
-492.3709511733764
 30
0.0
 11
3745.059981236674
 21
-492.3709511733764
 31
0.0
  0
LINE
  5
2DC5
  8
細線
  6
CONTINUOUS
 10
3757.4423946340262
 20
-492.3709511733764
 30
0.0
 11
3762.122394634026
 21
-492.3709511733764
 31
0.0
  0
LINE
  5
2DC6
  8
細線
  6
CONTINUOUS
 10
3765.463602638079
 20
-492.3709511733764
 30
0.0
 11
3782.5762549340061
 21
-492.3709511733764
 31
0.0
  0
LINE
  5
2DC7
  8
細線
  6
CONTINUOUS
 10
3794.35288199874
 20
-492.3709511733764
 30
0.0
 11
3800.8966773082789
 21
-492.3709511733764
 31
0.0
  0
LINE
  5
2DC8
  8
細線
  6
CONTINUOUS
 10
3804.4966773082788
 20
-492.3709511733764
 30
0.0
 11
3809.1766773082791
 21
-492.3709511733764
 31
0.0
  0
LINE
  5
2DC9
  8
細線
  6
CONTINUOUS
 10
3822.0827982872111
 20
-492.3709511733764
 30
0.0
 11
3826.7627982872109
 21
-492.3709511733764
 31
0.0
  0
LINE
  5
2DCA
  8
細線
  6
CONTINUOUS
 10
3829.7702704029598
 20
-492.3709511733764
 30
0.0
 11
3834.4502704029592
 21
-492.3709511733764
 31
0.0
  0
LINE
  5
2DCB
  8
細線
  6
CONTINUOUS
 10
3843.8982950038298
 20
-492.3709511733764
 30
0.0
 11
3851.2938041624088
 21
-492.3709511733764
 31
0.0
  0
LINE
  5
2DCC
  8
細線
  6
CONTINUOUS
 10
3740.7157227505468
 20
-491.65095117337609
 30
0.0
 11
3745.3957227505471
 21
-491.65095117337609
 31
0.0
  0
LINE
  5
2DCD
  8
細線
  6
CONTINUOUS
 10
3757.1066531201541
 20
-491.65095117337609
 30
0.0
 11
3761.7866531201548
 21
-491.65095117337609
 31
0.0
  0
LINE
  5
2DCE
  8
細線
  6
CONTINUOUS
 10
3765.463602638079
 20
-491.65095117337609
 30
0.0
 11
3783.462133141958
 21
-491.65095117337609
 31
0.0
  0
LINE
  5
2DCF
  8
細線
  6
CONTINUOUS
 10
3794.0171404848679
 20
-491.65095117337609
 30
0.0
 11
3801.232418822151
 21
-491.65095117337609
 31
0.0
  0
LINE
  5
2DD0
  8
細線
  6
CONTINUOUS
 10
3804.8324188221518
 20
-491.65095117337609
 30
0.0
 11
3809.5124188221512
 21
-491.65095117337609
 31
0.0
  0
LINE
  5
2DD1
  8
細線
  6
CONTINUOUS
 10
3821.7470567733408
 20
-491.65095117337609
 30
0.0
 11
3826.4270567733402
 21
-491.65095117337609
 31
0.0
  0
LINE
  5
2DD2
  8
細線
  6
CONTINUOUS
 10
3829.7702704029598
 20
-491.65095117337609
 30
0.0
 11
3834.4502704029592
 21
-491.65095117337609
 31
0.0
  0
LINE
  5
2DD3
  8
細線
  6
CONTINUOUS
 10
3843.4483890704551
 20
-491.65095117337609
 30
0.0
 11
3851.2938041624088
 21
-491.65095117337609
 31
0.0
  0
LINE
  5
2DD4
  8
細線
  6
CONTINUOUS
 10
3741.051464264418
 20
-490.93095117337668
 30
0.0
 11
3745.7314642644169
 21
-490.93095117337668
 31
0.0
  0
LINE
  5
2DD5
  8
細線
  6
CONTINUOUS
 10
3756.7709116062829
 20
-490.93095117337668
 30
0.0
 11
3761.4509116062832
 21
-490.93095117337668
 31
0.0
  0
LINE
  5
2DD6
  8
細線
  6
CONTINUOUS
 10
3765.463602638079
 20
-490.93095117337668
 30
0.0
 11
3784.072231081379
 21
-490.93095117337668
 31
0.0
  0
LINE
  5
2DD7
  8
細線
  6
CONTINUOUS
 10
3793.6813989709972
 20
-490.93095117337668
 30
0.0
 11
3801.5681603360222
 21
-490.93095117337668
 31
0.0
  0
LINE
  5
2DD8
  8
細線
  6
CONTINUOUS
 10
3805.168160336023
 20
-490.93095117337668
 30
0.0
 11
3809.8481603360219
 21
-490.93095117337668
 31
0.0
  0
LINE
  5
2DD9
  8
細線
  6
CONTINUOUS
 10
3821.4113152594682
 20
-490.93095117337668
 30
0.0
 11
3826.091315259469
 21
-490.93095117337668
 31
0.0
  0
LINE
  5
2DDA
  8
細線
  6
CONTINUOUS
 10
3829.7702704029598
 20
-490.93095117337668
 30
0.0
 11
3834.4502704029592
 21
-490.93095117337668
 31
0.0
  0
LINE
  5
2DDB
  8
細線
  6
CONTINUOUS
 10
3842.9984831370798
 20
-490.93095117337668
 30
0.0
 11
3851.2938041624088
 21
-490.93095117337668
 31
0.0
  0
LINE
  5
2DDC
  8
細線
  6
CONTINUOUS
 10
3741.3872057782901
 20
-490.2109511733774
 30
0.0
 11
3746.067205778289
 21
-490.2109511733774
 31
0.0
  0
LINE
  5
2DDD
  8
細線
  6
CONTINUOUS
 10
3756.4351700924121
 20
-490.2109511733774
 30
0.0
 11
3761.115170092412
 21
-490.2109511733774
 31
0.0
  0
LINE
  5
2DDE
  8
細線
  6
CONTINUOUS
 10
3765.463602638079
 20
-490.2109511733774
 30
0.0
 11
3770.1436026380802
 21
-490.2109511733774
 31
0.0
  0
LINE
  5
2DDF
  8
細線
  6
CONTINUOUS
 10
3778.3259534211288
 20
-490.2109511733774
 30
0.0
 11
3784.4710470196678
 21
-490.2109511733774
 31
0.0
  0
LINE
  5
2DE0
  8
細線
  6
CONTINUOUS
 10
3793.345657457126
 20
-490.2109511733774
 30
0.0
 11
3801.9039018498938
 21
-490.2109511733774
 31
0.0
  0
LINE
  5
2DE1
  8
細線
  6
CONTINUOUS
 10
3805.5039018498928
 20
-490.2109511733774
 30
0.0
 11
3810.183901849894
 21
-490.2109511733774
 31
0.0
  0
LINE
  5
2DE2
  8
細線
  6
CONTINUOUS
 10
3821.075573745597
 20
-490.2109511733774
 30
0.0
 11
3825.7555737455968
 21
-490.2109511733774
 31
0.0
  0
LINE
  5
2DE3
  8
細線
  6
CONTINUOUS
 10
3829.7702704029598
 20
-490.2109511733774
 30
0.0
 11
3834.4502704029592
 21
-490.2109511733774
 31
0.0
  0
LINE
  5
2DE4
  8
細線
  6
CONTINUOUS
 10
3842.5485772037041
 20
-490.2109511733774
 30
0.0
 11
3847.2181236810188
 21
-490.2109511733774
 31
0.0
  0
LINE
  5
2DE5
  8
細線
  6
CONTINUOUS
 10
3847.3338041624088
 20
-490.2109511733774
 30
0.0
 11
3851.2938041624088
 21
-490.2109511733774
 31
0.0
  0
LINE
  5
2DE6
  8
細線
  6
CONTINUOUS
 10
3741.7229472921608
 20
-489.49095117337708
 30
0.0
 11
3760.7794285785399
 21
-489.49095117337708
 31
0.0
  0
LINE
  5
2DE7
  8
細線
  6
CONTINUOUS
 10
3765.463602638079
 20
-489.49095117337708
 30
0.0
 11
3770.1436026380802
 21
-489.49095117337708
 31
0.0
  0
LINE
  5
2DE8
  8
細線
  6
CONTINUOUS
 10
3779.3498345807452
 20
-489.49095117337708
 30
0.0
 11
3784.745055252848
 21
-489.49095117337708
 31
0.0
  0
LINE
  5
2DE9
  8
細線
  6
CONTINUOUS
 10
3793.0099159432539
 20
-489.49095117337708
 30
0.0
 11
3802.239643363765
 21
-489.49095117337708
 31
0.0
  0
LINE
  5
2DEA
  8
細線
  6
CONTINUOUS
 10
3805.8396433637658
 20
-489.49095117337708
 30
0.0
 11
3825.4198322317261
 21
-489.49095117337708
 31
0.0
  0
LINE
  5
2DEB
  8
細線
  6
CONTINUOUS
 10
3829.7702704029598
 20
-489.49095117337708
 30
0.0
 11
3834.4502704029592
 21
-489.49095117337708
 31
0.0
  0
LINE
  5
2DEC
  8
細線
  6
CONTINUOUS
 10
3842.0986712703302
 20
-489.49095117337708
 30
0.0
 11
3846.768217747644
 21
-489.49095117337708
 31
0.0
  0
LINE
  5
2DED
  8
細線
  6
CONTINUOUS
 10
3847.3338041624088
 20
-489.49095117337708
 30
0.0
 11
3851.2938041624088
 21
-489.49095117337708
 31
0.0
  0
LINE
  5
2DEE
  8
細線
  6
CONTINUOUS
 10
3742.0586888060329
 20
-488.77095117337689
 30
0.0
 11
3760.4436870646682
 21
-488.77095117337689
 31
0.0
  0
LINE
  5
2DEF
  8
細線
  6
CONTINUOUS
 10
3765.463602638079
 20
-488.77095117337689
 30
0.0
 11
3770.1436026380802
 21
-488.77095117337689
 31
0.0
  0
LINE
  5
2DF0
  8
細線
  6
CONTINUOUS
 10
3780.0042345625789
 20
-488.77095117337689
 30
0.0
 11
3784.957487027134
 21
-488.77095117337689
 31
0.0
  0
LINE
  5
2DF1
  8
細線
  6
CONTINUOUS
 10
3792.6741744293831
 20
-488.77095117337689
 30
0.0
 11
3797.3541744293821
 21
-488.77095117337689
 31
0.0
  0
LINE
  5
2DF2
  8
細線
  6
CONTINUOUS
 10
3797.8953848776382
 20
-488.77095117337689
 30
0.0
 11
3802.575384877638
 21
-488.77095117337689
 31
0.0
  0
LINE
  5
2DF3
  8
細線
  6
CONTINUOUS
 10
3806.1753848776389
 20
-488.77095117337689
 30
0.0
 11
3825.084090717854
 21
-488.77095117337689
 31
0.0
  0
LINE
  5
2DF4
  8
細線
  6
CONTINUOUS
 10
3829.7702704029598
 20
-488.77095117337689
 30
0.0
 11
3834.4502704029592
 21
-488.77095117337689
 31
0.0
  0
LINE
  5
2DF5
  8
細線
  6
CONTINUOUS
 10
3841.6487653369541
 20
-488.77095117337689
 30
0.0
 11
3846.3183118142701
 21
-488.77095117337689
 31
0.0
  0
LINE
  5
2DF6
  8
細線
  6
CONTINUOUS
 10
3847.3338041624088
 20
-488.77095117337689
 30
0.0
 11
3851.2938041624088
 21
-488.77095117337689
 31
0.0
  0
LINE
  5
2DF7
  8
細線
  6
CONTINUOUS
 10
3742.3944303199041
 20
-488.05095117337669
 30
0.0
 11
3760.1079455507961
 21
-488.05095117337669
 31
0.0
  0
LINE
  5
2DF8
  8
細線
  6
CONTINUOUS
 10
3765.463602638079
 20
-488.05095117337669
 30
0.0
 11
3770.1436026380802
 21
-488.05095117337669
 31
0.0
  0
LINE
  5
2DF9
  8
細線
  6
CONTINUOUS
 10
3780.394434819787
 20
-488.05095117337669
 30
0.0
 11
3785.1372481933799
 21
-488.05095117337669
 31
0.0
  0
LINE
  5
2DFA
  8
細線
  6
CONTINUOUS
 10
3792.3384329155101
 20
-488.05095117337669
 30
0.0
 11
3797.0184329155122
 21
-488.05095117337669
 31
0.0
  0
LINE
  5
2DFB
  8
細線
  6
CONTINUOUS
 10
3798.231126391509
 20
-488.05095117337669
 30
0.0
 11
3802.9111263915088
 21
-488.05095117337669
 31
0.0
  0
LINE
  5
2DFC
  8
細線
  6
CONTINUOUS
 10
3806.5111263915092
 20
-488.05095117337669
 30
0.0
 11
3824.7483492039828
 21
-488.05095117337669
 31
0.0
  0
LINE
  5
2DFD
  8
細線
  6
CONTINUOUS
 10
3829.7702704029598
 20
-488.05095117337669
 30
0.0
 11
3834.4502704029592
 21
-488.05095117337669
 31
0.0
  0
LINE
  5
2DFE
  8
細線
  6
CONTINUOUS
 10
3841.1988594035811
 20
-488.05095117337669
 30
0.0
 11
3845.8684058808949
 21
-488.05095117337669
 31
0.0
  0
LINE
  5
2DFF
  8
細線
  6
CONTINUOUS
 10
3847.3338041624088
 20
-488.05095117337669
 30
0.0
 11
3851.2938041624088
 21
-488.05095117337669
 31
0.0
  0
LINE
  5
2E00
  8
細線
  6
CONTINUOUS
 10
3742.7301718337771
 20
-487.33095117337729
 30
0.0
 11
3759.7722040369249
 21
-487.33095117337729
 31
0.0
  0
LINE
  5
2E01
  8
細線
  6
CONTINUOUS
 10
3765.463602638079
 20
-487.33095117337729
 30
0.0
 11
3770.1436026380802
 21
-487.33095117337729
 31
0.0
  0
LINE
  5
2E02
  8
細線
  6
CONTINUOUS
 10
3780.6386164510809
 20
-487.33095117337729
 30
0.0
 11
3785.2912213764189
 21
-487.33095117337729
 31
0.0
  0
LINE
  5
2E03
  8
細線
  6
CONTINUOUS
 10
3792.0026914016398
 20
-487.33095117337729
 30
0.0
 11
3796.6826914016392
 21
-487.33095117337729
 31
0.0
  0
LINE
  5
2E04
  8
細線
  6
CONTINUOUS
 10
3798.5668679053811
 20
-487.33095117337729
 30
0.0
 11
3803.2468679053809
 21
-487.33095117337729
 31
0.0
  0
LINE
  5
2E05
  8
細線
  6
CONTINUOUS
 10
3806.8468679053799
 20
-487.33095117337729
 30
0.0
 11
3824.4126076901098
 21
-487.33095117337729
 31
0.0
  0
LINE
  5
2E06
  8
細線
  6
CONTINUOUS
 10
3829.7702704029598
 20
-487.33095117337729
 30
0.0
 11
3834.4502704029592
 21
-487.33095117337729
 31
0.0
  0
LINE
  5
2E07
  8
細線
  6
CONTINUOUS
 10
3840.7489534702058
 20
-487.33095117337729
 30
0.0
 11
3845.4184999475201
 21
-487.33095117337729
 31
0.0
  0
LINE
  5
2E08
  8
細線
  6
CONTINUOUS
 10
3847.3338041624088
 20
-487.33095117337729
 30
0.0
 11
3851.2938041624088
 21
-487.33095117337729
 31
0.0
  0
LINE
  5
2E09
  8
細線
  6
CONTINUOUS
 10
3743.065913347647
 20
-486.610951173378
 30
0.0
 11
3759.4364625230542
 21
-486.610951173378
 31
0.0
  0
LINE
  5
2E0A
  8
細線
  6
CONTINUOUS
 10
3765.463602638079
 20
-486.610951173378
 30
0.0
 11
3770.1436026380802
 21
-486.610951173378
 31
0.0
  0
LINE
  5
2E0B
  8
細線
  6
CONTINUOUS
 10
3780.7874634181981
 20
-486.610951173378
 30
0.0
 11
3785.4166713111499
 21
-486.610951173378
 31
0.0
  0
LINE
  5
2E0C
  8
細線
  6
CONTINUOUS
 10
3791.6669498877668
 20
-486.610951173378
 30
0.0
 11
3796.346949887768
 21
-486.610951173378
 31
0.0
  0
LINE
  5
2E0D
  8
細線
  6
CONTINUOUS
 10
3798.9026094192518
 20
-486.610951173378
 30
0.0
 11
3803.5826094192521
 21
-486.610951173378
 31
0.0
  0
LINE
  5
2E0E
  8
細線
  6
CONTINUOUS
 10
3807.182609419252
 20
-486.610951173378
 30
0.0
 11
3824.076866176239
 21
-486.610951173378
 31
0.0
  0
LINE
  5
2E0F
  8
細線
  6
CONTINUOUS
 10
3829.7702704029598
 20
-486.610951173378
 30
0.0
 11
3834.4502704029592
 21
-486.610951173378
 31
0.0
  0
LINE
  5
2E10
  8
細線
  6
CONTINUOUS
 10
3840.299047536831
 20
-486.610951173378
 30
0.0
 11
3844.9685940141462
 21
-486.610951173378
 31
0.0
  0
LINE
  5
2E11
  8
細線
  6
CONTINUOUS
 10
3847.3338041624088
 20
-486.610951173378
 30
0.0
 11
3851.2938041624088
 21
-486.610951173378
 31
0.0
  0
LINE
  5
2E12
  8
細線
  6
CONTINUOUS
 10
3743.40165486152
 20
-485.89095117337678
 30
0.0
 11
3748.0816548615189
 21
-485.89095117337678
 31
0.0
  0
LINE
  5
2E13
  8
細線
  6
CONTINUOUS
 10
3754.4207210091822
 20
-485.89095117337678
 30
0.0
 11
3759.1007210091821
 21
-485.89095117337678
 31
0.0
  0
LINE
  5
2E14
  8
細線
  6
CONTINUOUS
 10
3765.463602638079
 20
-485.89095117337678
 30
0.0
 11
3770.1436026380802
 21
-485.89095117337678
 31
0.0
  0
LINE
  5
2E15
  8
細線
  6
CONTINUOUS
 10
3780.8750129215068
 20
-485.89095117337678
 30
0.0
 11
3785.5131487527951
 21
-485.89095117337678
 31
0.0
  0
LINE
  5
2E16
  8
細線
  6
CONTINUOUS
 10
3791.3312083738961
 20
-485.89095117337678
 30
0.0
 11
3796.0112083738959
 21
-485.89095117337678
 31
0.0
  0
LINE
  5
2E17
  8
細線
  6
CONTINUOUS
 10
3799.2383509331248
 20
-485.89095117337678
 30
0.0
 11
3803.9183509331242
 21
-485.89095117337678
 31
0.0
  0
LINE
  5
2E18
  8
細線
  6
CONTINUOUS
 10
3807.5183509331232
 20
-485.89095117337678
 30
0.0
 11
3812.1983509331249
 21
-485.89095117337678
 31
0.0
  0
LINE
  5
2E19
  8
細線
  6
CONTINUOUS
 10
3819.061124662368
 20
-485.89095117337678
 30
0.0
 11
3823.7411246623669
 21
-485.89095117337678
 31
0.0
  0
LINE
  5
2E1A
  8
細線
  6
CONTINUOUS
 10
3829.7702704029598
 20
-485.89095117337678
 30
0.0
 11
3834.4502704029592
 21
-485.89095117337678
 31
0.0
  0
LINE
  5
2E1B
  8
細線
  6
CONTINUOUS
 10
3839.8491416034572
 20
-485.89095117337678
 30
0.0
 11
3844.518688080771
 21
-485.89095117337678
 31
0.0
  0
LINE
  5
2E1C
  8
細線
  6
CONTINUOUS
 10
3847.3338041624088
 20
-485.89095117337678
 30
0.0
 11
3851.2938041624088
 21
-485.89095117337678
 31
0.0
  0
LINE
  5
2E1D
  8
細線
  6
CONTINUOUS
 10
3743.7373963753912
 20
-485.17095117337658
 30
0.0
 11
3748.4173963753901
 21
-485.17095117337658
 31
0.0
  0
LINE
  5
2E1E
  8
細線
  6
CONTINUOUS
 10
3754.0849794953101
 20
-485.17095117337658
 30
0.0
 11
3758.7649794953099
 21
-485.17095117337658
 31
0.0
  0
LINE
  5
2E1F
  8
細線
  6
CONTINUOUS
 10
3765.463602638079
 20
-485.17095117337658
 30
0.0
 11
3770.1436026380802
 21
-485.17095117337658
 31
0.0
  0
LINE
  5
2E20
  8
細線
  6
CONTINUOUS
 10
3780.9216829529878
 20
-485.17095117337658
 30
0.0
 11
3785.5801140403341
 21
-485.17095117337658
 31
0.0
  0
LINE
  5
2E21
  8
細線
  6
CONTINUOUS
 10
3790.995466860024
 20
-485.17095117337658
 30
0.0
 11
3795.6754668600252
 21
-485.17095117337658
 31
0.0
  0
LINE
  5
2E22
  8
細線
  6
CONTINUOUS
 10
3799.5740924469951
 20
-485.17095117337658
 30
0.0
 11
3804.2540924469949
 21
-485.17095117337658
 31
0.0
  0
LINE
  5
2E23
  8
細線
  6
CONTINUOUS
 10
3807.8540924469949
 20
-485.17095117337658
 30
0.0
 11
3812.5340924469951
 21
-485.17095117337658
 31
0.0
  0
LINE
  5
2E24
  8
細線
  6
CONTINUOUS
 10
3818.725383148495
 20
-485.17095117337658
 30
0.0
 11
3823.4053831484962
 21
-485.17095117337658
 31
0.0
  0
LINE
  5
2E25
  8
細線
  6
CONTINUOUS
 10
3829.7702704029598
 20
-485.17095117337658
 30
0.0
 11
3834.4502704029592
 21
-485.17095117337658
 31
0.0
  0
LINE
  5
2E26
  8
細線
  6
CONTINUOUS
 10
3839.399235670081
 20
-485.17095117337658
 30
0.0
 11
3844.0687821473948
 21
-485.17095117337658
 31
0.0
  0
LINE
  5
2E27
  8
細線
  6
CONTINUOUS
 10
3847.3338041624088
 20
-485.17095117337658
 30
0.0
 11
3851.2938041624088
 21
-485.17095117337658
 31
0.0
  0
LINE
  5
2E28
  8
細線
  6
CONTINUOUS
 10
3744.0731378892629
 20
-484.45095117337718
 30
0.0
 11
3748.7531378892631
 21
-484.45095117337718
 31
0.0
  0
LINE
  5
2E29
  8
細線
  6
CONTINUOUS
 10
3753.7492379814389
 20
-484.45095117337718
 30
0.0
 11
3758.4292379814392
 21
-484.45095117337718
 31
0.0
  0
LINE
  5
2E2A
  8
細線
  6
CONTINUOUS
 10
3765.463602638079
 20
-484.45095117337718
 30
0.0
 11
3770.1436026380802
 21
-484.45095117337718
 31
0.0
  0
LINE
  5
2E2B
  8
細線
  6
CONTINUOUS
 10
3780.9412558463559
 20
-484.45095117337718
 30
0.0
 11
3785.6172396006632
 21
-484.45095117337718
 31
0.0
  0
LINE
  5
2E2C
  8
細線
  6
CONTINUOUS
 10
3790.6597253461532
 20
-484.45095117337718
 30
0.0
 11
3795.339725346153
 21
-484.45095117337718
 31
0.0
  0
LINE
  5
2E2D
  8
細線
  6
CONTINUOUS
 10
3799.9098339608681
 20
-484.45095117337718
 30
0.0
 11
3804.5898339608671
 21
-484.45095117337718
 31
0.0
  0
LINE
  5
2E2E
  8
細線
  6
CONTINUOUS
 10
3808.189833960867
 20
-484.45095117337718
 30
0.0
 11
3812.8698339608668
 21
-484.45095117337718
 31
0.0
  0
LINE
  5
2E2F
  8
細線
  6
CONTINUOUS
 10
3818.3896416346238
 20
-484.45095117337718
 30
0.0
 11
3823.0696416346241
 21
-484.45095117337718
 31
0.0
  0
LINE
  5
2E30
  8
細線
  6
CONTINUOUS
 10
3829.7702704029598
 20
-484.45095117337718
 30
0.0
 11
3834.4502704029592
 21
-484.45095117337718
 31
0.0
  0
LINE
  5
2E31
  8
細線
  6
CONTINUOUS
 10
3838.949329736708
 20
-484.45095117337718
 30
0.0
 11
3843.6188762140209
 21
-484.45095117337718
 31
0.0
  0
LINE
  5
2E32
  8
細線
  6
CONTINUOUS
 10
3847.3338041624088
 20
-484.45095117337718
 30
0.0
 11
3851.2938041624088
 21
-484.45095117337718
 31
0.0
  0
LINE
  5
2E33
  8
細線
  6
CONTINUOUS
 10
3744.4088794031341
 20
-483.73095117337698
 30
0.0
 11
3749.0888794031339
 21
-483.73095117337698
 31
0.0
  0
LINE
  5
2E34
  8
細線
  6
CONTINUOUS
 10
3753.4134964675682
 20
-483.73095117337698
 30
0.0
 11
3758.0934964675671
 21
-483.73095117337698
 31
0.0
  0
LINE
  5
2E35
  8
細線
  6
CONTINUOUS
 10
3765.463602638079
 20
-483.73095117337698
 30
0.0
 11
3770.1436026380802
 21
-483.73095117337698
 31
0.0
  0
LINE
  5
2E36
  8
細線
  6
CONTINUOUS
 10
3780.9421159295648
 20
-483.73095117337698
 30
0.0
 11
3785.6195716106099
 21
-483.73095117337698
 31
0.0
  0
LINE
  5
2E37
  8
細線
  6
CONTINUOUS
 10
3790.3239838322802
 20
-483.73095117337698
 30
0.0
 11
3795.0039838322818
 21
-483.73095117337698
 31
0.0
  0
LINE
  5
2E38
  8
細線
  6
CONTINUOUS
 10
3800.2455754747389
 20
-483.73095117337698
 30
0.0
 11
3804.9255754747378
 21
-483.73095117337698
 31
0.0
  0
LINE
  5
2E39
  8
細線
  6
CONTINUOUS
 10
3808.5255754747382
 20
-483.73095117337698
 30
0.0
 11
3813.205575474738
 21
-483.73095117337698
 31
0.0
  0
LINE
  5
2E3A
  8
細線
  6
CONTINUOUS
 10
3818.0539001207521
 20
-483.73095117337698
 30
0.0
 11
3822.733900120752
 21
-483.73095117337698
 31
0.0
  0
LINE
  5
2E3B
  8
細線
  6
CONTINUOUS
 10
3829.7702704029598
 20
-483.73095117337698
 30
0.0
 11
3834.4502704029592
 21
-483.73095117337698
 31
0.0
  0
LINE
  5
2E3C
  8
細線
  6
CONTINUOUS
 10
3838.4994238033328
 20
-483.73095117337698
 30
0.0
 11
3843.1689702806461
 21
-483.73095117337698
 31
0.0
  0
LINE
  5
2E3D
  8
細線
  6
CONTINUOUS
 10
3847.3338041624088
 20
-483.73095117337698
 30
0.0
 11
3851.2938041624088
 21
-483.73095117337698
 31
0.0
  0
LINE
  5
2E3E
  8
細線
  6
CONTINUOUS
 10
3744.7446209170062
 20
-483.01095117337672
 30
0.0
 11
3749.424620917006
 21
-483.01095117337672
 31
0.0
  0
LINE
  5
2E3F
  8
細線
  6
CONTINUOUS
 10
3753.0777549536961
 20
-483.01095117337672
 30
0.0
 11
3757.7577549536959
 21
-483.01095117337672
 31
0.0
  0
LINE
  5
2E40
  8
細線
  6
CONTINUOUS
 10
3765.463602638079
 20
-483.01095117337672
 30
0.0
 11
3770.1436026380802
 21
-483.01095117337672
 31
0.0
  0
LINE
  5
2E41
  8
細線
  6
CONTINUOUS
 10
3780.9265432011939
 20
-483.01095117337672
 30
0.0
 11
3785.5886972741259
 21
-483.01095117337672
 31
0.0
  0
LINE
  5
2E42
  8
細線
  6
CONTINUOUS
 10
3789.9882423184099
 20
-483.01095117337672
 30
0.0
 11
3794.6682423184102
 21
-483.01095117337672
 31
0.0
  0
LINE
  5
2E43
  8
細線
  6
CONTINUOUS
 10
3800.5813169886092
 20
-483.01095117337672
 30
0.0
 11
3805.2613169886108
 21
-483.01095117337672
 31
0.0
  0
LINE
  5
2E44
  8
細線
  6
CONTINUOUS
 10
3808.8613169886098
 20
-483.01095117337672
 30
0.0
 11
3813.5413169886101
 21
-483.01095117337672
 31
0.0
  0
LINE
  5
2E45
  8
細線
  6
CONTINUOUS
 10
3817.7181586068809
 20
-483.01095117337672
 30
0.0
 11
3822.3981586068812
 21
-483.01095117337672
 31
0.0
  0
LINE
  5
2E46
  8
細線
  6
CONTINUOUS
 10
3829.7702704029598
 20
-483.01095117337672
 30
0.0
 11
3834.4502704029592
 21
-483.01095117337672
 31
0.0
  0
LINE
  5
2E47
  8
細線
  6
CONTINUOUS
 10
3838.049517869958
 20
-483.01095117337672
 30
0.0
 11
3842.7190643472709
 21
-483.01095117337672
 31
0.0
  0
LINE
  5
2E48
  8
細線
  6
CONTINUOUS
 10
3847.3338041624088
 20
-483.01095117337672
 30
0.0
 11
3851.2938041624088
 21
-483.01095117337672
 31
0.0
  0
LINE
  5
2E49
  8
細線
  6
CONTINUOUS
 10
3745.0803624308769
 20
-482.29095117337732
 30
0.0
 11
3749.7603624308772
 21
-482.29095117337732
 31
0.0
  0
LINE
  5
2E4A
  8
細線
  6
CONTINUOUS
 10
3752.7420134398239
 20
-482.29095117337732
 30
0.0
 11
3757.4220134398229
 21
-482.29095117337732
 31
0.0
  0
LINE
  5
2E4B
  8
細線
  6
CONTINUOUS
 10
3765.463602638079
 20
-482.29095117337732
 30
0.0
 11
3770.1436026380802
 21
-482.29095117337732
 31
0.0
  0
LINE
  5
2E4C
  8
細線
  6
CONTINUOUS
 10
3780.8886691878488
 20
-482.29095117337732
 30
0.0
 11
3785.5294495338949
 21
-482.29095117337732
 31
0.0
  0
LINE
  5
2E4D
  8
細線
  6
CONTINUOUS
 10
3789.6525008045392
 20
-482.29095117337732
 30
0.0
 11
3794.3325008045381
 21
-482.29095117337732
 31
0.0
  0
LINE
  5
2E4E
  8
細線
  6
CONTINUOUS
 10
3800.9170585024822
 20
-482.29095117337732
 30
0.0
 11
3805.5970585024811
 21
-482.29095117337732
 31
0.0
  0
LINE
  5
2E4F
  8
細線
  6
CONTINUOUS
 10
3809.1970585024819
 20
-482.29095117337732
 30
0.0
 11
3813.8770585024822
 21
-482.29095117337732
 31
0.0
  0
LINE
  5
2E50
  8
細線
  6
CONTINUOUS
 10
3817.3824170930088
 20
-482.29095117337732
 30
0.0
 11
3822.06241709301
 21
-482.29095117337732
 31
0.0
  0
LINE
  5
2E51
  8
細線
  6
CONTINUOUS
 10
3829.7702704029598
 20
-482.29095117337732
 30
0.0
 11
3834.4502704029592
 21
-482.29095117337732
 31
0.0
  0
LINE
  5
2E52
  8
細線
  6
CONTINUOUS
 10
3837.5996119365818
 20
-482.29095117337732
 30
0.0
 11
3842.269158413897
 21
-482.29095117337732
 31
0.0
  0
LINE
  5
2E53
  8
細線
  6
CONTINUOUS
 10
3847.3338041624088
 20
-482.29095117337732
 30
0.0
 11
3851.2938041624088
 21
-482.29095117337732
 31
0.0
  0
LINE
  5
2E54
  8
細線
  6
CONTINUOUS
 10
3745.4161039447481
 20
-481.57095117337701
 30
0.0
 11
3750.0961039447488
 21
-481.57095117337701
 31
0.0
  0
LINE
  5
2E55
  8
細線
  6
CONTINUOUS
 10
3752.4062719259518
 20
-481.57095117337701
 30
0.0
 11
3757.0862719259521
 21
-481.57095117337701
 31
0.0
  0
LINE
  5
2E56
  8
細線
  6
CONTINUOUS
 10
3765.463602638079
 20
-481.57095117337701
 30
0.0
 11
3770.1436026380802
 21
-481.57095117337701
 31
0.0
  0
LINE
  5
2E57
  8
細線
  6
CONTINUOUS
 10
3780.8151038268479
 20
-481.57095117337701
 30
0.0
 11
3785.4404827245739
 21
-481.57095117337701
 31
0.0
  0
LINE
  5
2E58
  8
細線
  6
CONTINUOUS
 10
3789.3167592906671
 20
-481.57095117337701
 30
0.0
 11
3793.996759290666
 21
-481.57095117337701
 31
0.0
  0
LINE
  5
2E59
  8
細線
  6
CONTINUOUS
 10
3801.2528000163538
 20
-481.57095117337701
 30
0.0
 11
3805.9328000163541
 21
-481.57095117337701
 31
0.0
  0
LINE
  5
2E5A
  8
細線
  6
CONTINUOUS
 10
3809.532800016354
 20
-481.57095117337701
 30
0.0
 11
3814.2128000163539
 21
-481.57095117337701
 31
0.0
  0
LINE
  5
2E5B
  8
細線
  6
CONTINUOUS
 10
3817.0466755791372
 20
-481.57095117337701
 30
0.0
 11
3821.7266755791379
 21
-481.57095117337701
 31
0.0
  0
LINE
  5
2E5C
  8
細線
  6
CONTINUOUS
 10
3829.7702704029598
 20
-481.57095117337701
 30
0.0
 11
3834.4502704029592
 21
-481.57095117337701
 31
0.0
  0
LINE
  5
2E5D
  8
細線
  6
CONTINUOUS
 10
3837.1497060032079
 20
-481.57095117337701
 30
0.0
 11
3841.8192524805222
 21
-481.57095117337701
 31
0.0
  0
LINE
  5
2E5E
  8
細線
  6
CONTINUOUS
 10
3847.3338041624088
 20
-481.57095117337701
 30
0.0
 11
3851.2938041624088
 21
-481.57095117337701
 31
0.0
  0
LINE
  5
2E5F
  8
細線
  6
CONTINUOUS
 10
3745.7518454586202
 20
-480.85095117337772
 30
0.0
 11
3750.431845458621
 21
-480.85095117337772
 31
0.0
  0
LINE
  5
2E60
  8
細線
  6
CONTINUOUS
 10
3752.0705304120811
 20
-480.85095117337772
 30
0.0
 11
3756.75053041208
 21
-480.85095117337772
 31
0.0
  0
LINE
  5
2E61
  8
細線
  6
CONTINUOUS
 10
3765.463602638079
 20
-480.85095117337772
 30
0.0
 11
3770.1436026380802
 21
-480.85095117337772
 31
0.0
  0
LINE
  5
2E62
  8
細線
  6
CONTINUOUS
 10
3780.6871315989529
 20
-480.85095117337772
 30
0.0
 11
3785.3223584037942
 21
-480.85095117337772
 31
0.0
  0
LINE
  5
2E63
  8
細線
  6
CONTINUOUS
 10
3788.9810177767959
 20
-480.85095117337772
 30
0.0
 11
3793.6610177767948
 21
-480.85095117337772
 31
0.0
  0
LINE
  5
2E64
  8
細線
  6
CONTINUOUS
 10
3801.588541530225
 20
-480.85095117337772
 30
0.0
 11
3806.2685415302249
 21
-480.85095117337772
 31
0.0
  0
LINE
  5
2E65
  8
細線
  6
CONTINUOUS
 10
3809.8685415302248
 20
-480.85095117337772
 30
0.0
 11
3814.5485415302251
 21
-480.85095117337772
 31
0.0
  0
LINE
  5
2E66
  8
細線
  6
CONTINUOUS
 10
3816.710934065266
 20
-480.85095117337772
 30
0.0
 11
3821.3909340652658
 21
-480.85095117337772
 31
0.0
  0
LINE
  5
2E67
  8
細線
  6
CONTINUOUS
 10
3829.7702704029598
 20
-480.85095117337772
 30
0.0
 11
3834.4502704029592
 21
-480.85095117337772
 31
0.0
  0
LINE
  5
2E68
  8
細線
  6
CONTINUOUS
 10
3836.6998000698331
 20
-480.85095117337772
 30
0.0
 11
3841.3693465471479
 21
-480.85095117337772
 31
0.0
  0
LINE
  5
2E69
  8
細線
  6
CONTINUOUS
 10
3847.3338041624088
 20
-480.85095117337772
 30
0.0
 11
3851.2938041624088
 21
-480.85095117337772
 31
0.0
  0
LINE
  5
2E6A
  8
細線
  6
CONTINUOUS
 10
3746.087586972491
 20
-480.13095117337662
 30
0.0
 11
3750.7675869724922
 21
-480.13095117337662
 31
0.0
  0
LINE
  5
2E6B
  8
細線
  6
CONTINUOUS
 10
3751.7347888982099
 20
-480.13095117337662
 30
0.0
 11
3756.4147888982088
 21
-480.13095117337662
 31
0.0
  0
LINE
  5
2E6C
  8
細線
  6
CONTINUOUS
 10
3765.463602638079
 20
-480.13095117337662
 30
0.0
 11
3770.1436026380802
 21
-480.13095117337662
 31
0.0
  0
LINE
  5
2E6D
  8
細線
  6
CONTINUOUS
 10
3780.4708934152909
 20
-480.13095117337662
 30
0.0
 11
3785.1755468295669
 21
-480.13095117337662
 31
0.0
  0
LINE
  5
2E6E
  8
細線
  6
CONTINUOUS
 10
3788.6452762629228
 20
-480.13095117337662
 30
0.0
 11
3793.3252762629231
 21
-480.13095117337662
 31
0.0
  0
LINE
  5
2E6F
  8
細線
  6
CONTINUOUS
 10
3801.9242830440958
 20
-480.13095117337662
 30
0.0
 11
3806.604283044097
 21
-480.13095117337662
 31
0.0
  0
LINE
  5
2E70
  8
細線
  6
CONTINUOUS
 10
3810.2042830440969
 20
-480.13095117337662
 30
0.0
 11
3814.8842830440972
 21
-480.13095117337662
 31
0.0
  0
LINE
  5
2E71
  8
細線
  6
CONTINUOUS
 10
3816.3751925513948
 20
-480.13095117337662
 30
0.0
 11
3821.0551925513942
 21
-480.13095117337662
 31
0.0
  0
LINE
  5
2E72
  8
細線
  6
CONTINUOUS
 10
3829.7702704029598
 20
-480.13095117337662
 30
0.0
 11
3834.4502704029592
 21
-480.13095117337662
 31
0.0
  0
LINE
  5
2E73
  8
細線
  6
CONTINUOUS
 10
3836.2498941364588
 20
-480.13095117337662
 30
0.0
 11
3840.9194406137731
 21
-480.13095117337662
 31
0.0
  0
LINE
  5
2E74
  8
細線
  6
CONTINUOUS
 10
3847.3338041624088
 20
-480.13095117337662
 30
0.0
 11
3851.2938041624088
 21
-480.13095117337662
 31
0.0
  0
LINE
  5
2E75
  8
細線
  6
CONTINUOUS
 10
3746.423328486364
 20
-479.4109511733763
 30
0.0
 11
3751.1033284863629
 21
-479.4109511733763
 31
0.0
  0
LINE
  5
2E76
  8
細線
  6
CONTINUOUS
 10
3751.3990473843369
 20
-479.4109511733763
 30
0.0
 11
3756.0790473843372
 21
-479.4109511733763
 31
0.0
  0
LINE
  5
2E77
  8
細線
  6
CONTINUOUS
 10
3765.463602638079
 20
-479.4109511733763
 30
0.0
 11
3770.1436026380802
 21
-479.4109511733763
 31
0.0
  0
LINE
  5
2E78
  8
細線
  6
CONTINUOUS
 10
3780.1187031389759
 20
-479.4109511733763
 30
0.0
 11
3785.001346693612
 21
-479.4109511733763
 31
0.0
  0
LINE
  5
2E79
  8
細線
  6
CONTINUOUS
 10
3788.3095347490521
 20
-479.4109511733763
 30
0.0
 11
3792.9895347490519
 21
-479.4109511733763
 31
0.0
  0
LINE
  5
2E7A
  8
細線
  6
CONTINUOUS
 10
3802.2600245579679
 20
-479.4109511733763
 30
0.0
 11
3806.9400245579682
 21
-479.4109511733763
 31
0.0
  0
LINE
  5
2E7B
  8
細線
  6
CONTINUOUS
 10
3810.5400245579681
 20
-479.4109511733763
 30
0.0
 11
3815.2200245579679
 21
-479.4109511733763
 31
0.0
  0
LINE
  5
2E7C
  8
細線
  6
CONTINUOUS
 10
3816.0394510375222
 20
-479.4109511733763
 30
0.0
 11
3820.719451037522
 21
-479.4109511733763
 31
0.0
  0
LINE
  5
2E7D
  8
細線
  6
CONTINUOUS
 10
3829.7702704029598
 20
-479.4109511733763
 30
0.0
 11
3834.4502704029592
 21
-479.4109511733763
 31
0.0
  0
LINE
  5
2E7E
  8
細線
  6
CONTINUOUS
 10
3835.799988203084
 20
-479.4109511733763
 30
0.0
 11
3840.4695346803969
 21
-479.4109511733763
 31
0.0
  0
LINE
  5
2E7F
  8
細線
  6
CONTINUOUS
 10
3847.3338041624088
 20
-479.4109511733763
 30
0.0
 11
3851.2938041624088
 21
-479.4109511733763
 31
0.0
  0
LINE
  5
2E80
  8
細線
  6
CONTINUOUS
 10
3746.7590700002338
 20
-478.69095117337702
 30
0.0
 11
3755.743305870466
 21
-478.69095117337702
 31
0.0
  0
LINE
  5
2E81
  8
細線
  6
CONTINUOUS
 10
3765.463602638079
 20
-478.69095117337702
 30
0.0
 11
3770.1436026380802
 21
-478.69095117337702
 31
0.0
  0
LINE
  5
2E82
  8
細線
  6
CONTINUOUS
 10
3779.52064173704
 20
-478.69095117337702
 30
0.0
 11
3784.7960421413859
 21
-478.69095117337702
 31
0.0
  0
LINE
  5
2E83
  8
細線
  6
CONTINUOUS
 10
3787.97379323518
 20
-478.69095117337702
 30
0.0
 11
3792.6537932351798
 21
-478.69095117337702
 31
0.0
  0
LINE
  5
2E84
  8
細線
  6
CONTINUOUS
 10
3802.5957660718391
 20
-478.69095117337702
 30
0.0
 11
3807.2757660718398
 21
-478.69095117337702
 31
0.0
  0
LINE
  5
2E85
  8
細線
  6
CONTINUOUS
 10
3810.8757660718402
 20
-478.69095117337702
 30
0.0
 11
3815.55576607184
 21
-478.69095117337702
 31
0.0
  0
LINE
  5
2E86
  8
細線
  6
CONTINUOUS
 10
3815.7037095236519
 20
-478.69095117337702
 30
0.0
 11
3820.3837095236509
 21
-478.69095117337702
 31
0.0
  0
LINE
  5
2E87
  8
細線
  6
CONTINUOUS
 10
3829.7702704029598
 20
-478.69095117337702
 30
0.0
 11
3834.4502704029592
 21
-478.69095117337702
 31
0.0
  0
LINE
  5
2E88
  8
細線
  6
CONTINUOUS
 10
3835.3500822697092
 20
-478.69095117337702
 30
0.0
 11
3840.0196287470239
 21
-478.69095117337702
 31
0.0
  0
LINE
  5
2E89
  8
細線
  6
CONTINUOUS
 10
3847.3338041624088
 20
-478.69095117337702
 30
0.0
 11
3851.2938041624088
 21
-478.69095117337702
 31
0.0
  0
LINE
  5
2E8A
  8
細線
  6
CONTINUOUS
 10
3747.0948115141068
 20
-477.9709511733767
 30
0.0
 11
3755.4075643565948
 21
-477.9709511733767
 31
0.0
  0
LINE
  5
2E8B
  8
細線
  6
CONTINUOUS
 10
3765.463602638079
 20
-477.9709511733767
 30
0.0
 11
3770.1436026380802
 21
-477.9709511733767
 31
0.0
  0
LINE
  5
2E8C
  8
細線
  6
CONTINUOUS
 10
3778.586871813573
 20
-477.9709511733767
 30
0.0
 11
3784.5421467981391
 21
-477.9709511733767
 31
0.0
  0
LINE
  5
2E8D
  8
細線
  6
CONTINUOUS
 10
3787.6380517213088
 20
-477.9709511733767
 30
0.0
 11
3792.3180517213082
 21
-477.9709511733767
 31
0.0
  0
LINE
  5
2E8E
  8
細線
  6
CONTINUOUS
 10
3802.9315075857121
 20
-477.9709511733767
 30
0.0
 11
3807.611507585711
 21
-477.9709511733767
 31
0.0
  0
LINE
  5
2E8F
  8
細線
  6
CONTINUOUS
 10
3811.2115075857109
 20
-477.9709511733767
 30
0.0
 11
3820.0479680097801
 21
-477.9709511733767
 31
0.0
  0
LINE
  5
2E90
  8
細線
  6
CONTINUOUS
 10
3829.7702704029598
 20
-477.9709511733767
 30
0.0
 11
3834.4502704029592
 21
-477.9709511733767
 31
0.0
  0
LINE
  5
2E91
  8
細線
  6
CONTINUOUS
 10
3834.9001763363349
 20
-477.9709511733767
 30
0.0
 11
3839.5697228136478
 21
-477.9709511733767
 31
0.0
  0
LINE
  5
2E92
  8
細線
  6
CONTINUOUS
 10
3847.3338041624088
 20
-477.9709511733767
 30
0.0
 11
3851.2938041624088
 21
-477.9709511733767
 31
0.0
  0
LINE
  5
2E93
  8
細線
  6
CONTINUOUS
 10
3747.430553027978
 20
-477.2509511733773
 30
0.0
 11
3755.0718228427231
 21
-477.2509511733773
 31
0.0
  0
LINE
  5
2E94
  8
細線
  6
CONTINUOUS
 10
3765.463602638079
 20
-477.2509511733773
 30
0.0
 11
3770.1436026380802
 21
-477.2509511733773
 31
0.0
  0
LINE
  5
2E95
  8
細線
  6
CONTINUOUS
 10
3777.34360263808
 20
-477.2509511733773
 30
0.0
 11
3784.1836026380788
 21
-477.2509511733773
 31
0.0
  0
LINE
  5
2E96
  8
細線
  6
CONTINUOUS
 10
3787.3023102074371
 20
-477.2509511733773
 30
0.0
 11
3791.982310207437
 21
-477.2509511733773
 31
0.0
  0
LINE
  5
2E97
  8
細線
  6
CONTINUOUS
 10
3803.2672490995819
 20
-477.2509511733773
 30
0.0
 11
3807.9472490995831
 21
-477.2509511733773
 31
0.0
  0
LINE
  5
2E98
  8
細線
  6
CONTINUOUS
 10
3811.5472490995821
 20
-477.2509511733773
 30
0.0
 11
3819.712226495908
 21
-477.2509511733773
 31
0.0
  0
LINE
  5
2E99
  8
細線
  6
CONTINUOUS
 10
3829.7702704029598
 20
-477.2509511733773
 30
0.0
 11
3834.4502704029592
 21
-477.2509511733773
 31
0.0
  0
LINE
  5
2E9A
  8
細線
  6
CONTINUOUS
 10
3834.4502704029592
 20
-477.2509511733773
 30
0.0
 11
3839.1198168802739
 21
-477.2509511733773
 31
0.0
  0
LINE
  5
2E9B
  8
細線
  6
CONTINUOUS
 10
3847.3338041624088
 20
-477.2509511733773
 30
0.0
 11
3851.2938041624088
 21
-477.2509511733773
 31
0.0
  0
LINE
  5
2E9C
  8
細線
  6
CONTINUOUS
 10
3747.7662945418501
 20
-476.53095117337722
 30
0.0
 11
3754.7360813288501
 21
-476.53095117337722
 31
0.0
  0
LINE
  5
2E9D
  8
細線
  6
CONTINUOUS
 10
3765.463602638079
 20
-476.53095117337722
 30
0.0
 11
3783.6112506232521
 21
-476.53095117337722
 31
0.0
  0
LINE
  5
2E9E
  8
細線
  6
CONTINUOUS
 10
3786.9665686935659
 20
-476.53095117337722
 30
0.0
 11
3791.6465686935649
 21
-476.53095117337722
 31
0.0
  0
LINE
  5
2E9F
  8
細線
  6
CONTINUOUS
 10
3803.6029906134549
 20
-476.53095117337722
 30
0.0
 11
3808.2829906134539
 21
-476.53095117337722
 31
0.0
  0
LINE
  5
2EA0
  8
細線
  6
CONTINUOUS
 10
3811.8829906134551
 20
-476.53095117337722
 30
0.0
 11
3819.3764849820359
 21
-476.53095117337722
 31
0.0
  0
LINE
  5
2EA1
  8
細線
  6
CONTINUOUS
 10
3829.7702704029598
 20
-476.53095117337722
 30
0.0
 11
3838.6699109468991
 21
-476.53095117337722
 31
0.0
  0
LINE
  5
2EA2
  8
細線
  6
CONTINUOUS
 10
3847.3338041624088
 20
-476.53095117337722
 30
0.0
 11
3851.2938041624088
 21
-476.53095117337722
 31
0.0
  0
LINE
  5
2EA3
  8
細線
  6
CONTINUOUS
 10
3748.1020360557209
 20
-475.81095117337782
 30
0.0
 11
3754.4003398149798
 21
-475.81095117337782
 31
0.0
  0
LINE
  5
2EA4
  8
細線
  6
CONTINUOUS
 10
3765.463602638079
 20
-475.81095117337782
 30
0.0
 11
3782.8033145514619
 21
-475.81095117337782
 31
0.0
  0
LINE
  5
2EA5
  8
細線
  6
CONTINUOUS
 10
3786.6308271796938
 20
-475.81095117337782
 30
0.0
 11
3791.3108271796941
 21
-475.81095117337782
 31
0.0
  0
LINE
  5
2EA6
  8
細線
  6
CONTINUOUS
 10
3803.9387321273261
 20
-475.81095117337782
 30
0.0
 11
3808.618732127326
 21
-475.81095117337782
 31
0.0
  0
LINE
  5
2EA7
  8
細線
  6
CONTINUOUS
 10
3812.218732127325
 20
-475.81095117337782
 30
0.0
 11
3819.0407434681638
 21
-475.81095117337782
 31
0.0
  0
LINE
  5
2EA8
  8
細線
  6
CONTINUOUS
 10
3829.7702704029598
 20
-475.81095117337782
 30
0.0
 11
3838.2200050135239
 21
-475.81095117337782
 31
0.0
  0
LINE
  5
2EA9
  8
細線
  6
CONTINUOUS
 10
3847.3338041624088
 20
-475.81095117337782
 30
0.0
 11
3851.2938041624088
 21
-475.81095117337782
 31
0.0
  0
LINE
  5
2EAA
  8
細線
  6
CONTINUOUS
 10
3748.4377775695939
 20
-475.0909511733775
 30
0.0
 11
3754.0645983011091
 21
-475.0909511733775
 31
0.0
  0
LINE
  5
2EAB
  8
細線
  6
CONTINUOUS
 10
3765.463602638079
 20
-475.0909511733775
 30
0.0
 11
3781.6017071395831
 21
-475.0909511733775
 31
0.0
  0
LINE
  5
2EAC
  8
細線
  6
CONTINUOUS
 10
3786.2950856658222
 20
-475.0909511733775
 30
0.0
 11
3790.9750856658211
 21
-475.0909511733775
 31
0.0
  0
LINE
  5
2EAD
  8
細線
  6
CONTINUOUS
 10
3804.2744736411978
 20
-475.0909511733775
 30
0.0
 11
3808.9544736411981
 21
-475.0909511733775
 31
0.0
  0
LINE
  5
2EAE
  8
細線
  6
CONTINUOUS
 10
3812.554473641198
 20
-475.0909511733775
 30
0.0
 11
3818.7050019542939
 21
-475.0909511733775
 31
0.0
  0
LINE
  5
2EAF
  8
細線
  6
CONTINUOUS
 10
3829.7702704029598
 20
-475.0909511733775
 30
0.0
 11
3837.7700990801491
 21
-475.0909511733775
 31
0.0
  0
LINE
  5
2EB0
  8
細線
  6
CONTINUOUS
 10
3847.3338041624088
 20
-475.0909511733775
 30
0.0
 11
3851.2938041624088
 21
-475.0909511733775
 31
0.0
  0
LINE
  5
2EB1
  8
細線
  6
CONTINUOUS
 10
3748.7735190834642
 20
-474.37095117337628
 30
0.0
 11
3753.7288567872361
 21
-474.37095117337628
 31
0.0
  0
LINE
  5
2EB2
  8
細線
  6
CONTINUOUS
 10
3765.463602638079
 20
-474.37095117337628
 30
0.0
 11
3779.8636026380791
 21
-474.37095117337628
 31
0.0
  0
LINE
  5
2EB3
  8
細線
  6
CONTINUOUS
 10
3785.959344151951
 20
-474.37095117337628
 30
0.0
 11
3790.6393441519499
 21
-474.37095117337628
 31
0.0
  0
LINE
  5
2EB4
  8
細線
  6
CONTINUOUS
 10
3804.610215155069
 20
-474.37095117337628
 30
0.0
 11
3809.2902151550688
 21
-474.37095117337628
 31
0.0
  0
LINE
  5
2EB5
  8
細線
  6
CONTINUOUS
 10
3812.8902151550692
 20
-474.37095117337628
 30
0.0
 11
3818.3692604404209
 21
-474.37095117337628
 31
0.0
  0
LINE
  5
2EB6
  8
細線
  6
CONTINUOUS
 10
3829.7702704029598
 20
-474.37095117337628
 30
0.0
 11
3837.3201931467752
 21
-474.37095117337628
 31
0.0
  0
LINE
  5
2EB7
  8
細線
  6
CONTINUOUS
 10
3847.3338041624088
 20
-474.37095117337628
 30
0.0
 11
3851.2938041624088
 21
-474.37095117337628
 31
0.0
  0
LINE
  5
2EB8
  8
細線
  6
CONTINUOUS
 10
3749.1092605973372
 20
-473.650951173377
 30
0.0
 11
3753.3931152733649
 21
-473.650951173377
 31
0.0
  0
LINE
  5
2EB9
  8
細線
  6
CONTINUOUS
 10
3765.463602638079
 20
-473.650951173377
 30
0.0
 11
3777.34360263808
 21
-473.650951173377
 31
0.0
  0
LINE
  5
2EBA
  8
細線
  6
CONTINUOUS
 10
3785.6236026380789
 20
-473.650951173377
 30
0.0
 11
3790.3036026380792
 21
-473.650951173377
 31
0.0
  0
LINE
  5
2EBB
  8
細線
  6
CONTINUOUS
 10
3804.9459566689411
 20
-473.650951173377
 30
0.0
 11
3809.6259566689409
 21
-473.650951173377
 31
0.0
  0
LINE
  5
2EBC
  8
細線
  6
CONTINUOUS
 10
3813.2259566689422
 20
-473.650951173377
 30
0.0
 11
3818.0335189265511
 21
-473.650951173377
 31
0.0
  0
LINE
  5
2EBD
  8
細線
  6
CONTINUOUS
 10
3829.7702704029598
 20
-473.650951173377
 30
0.0
 11
3836.8702872133999
 21
-473.650951173377
 31
0.0
  0
LINE
  5
2EBE
  8
細線
  6
CONTINUOUS
 10
3847.3338041624088
 20
-473.650951173377
 30
0.0
 11
3851.2938041624088
 21
-473.650951173377
 31
0.0
  0
LINE
  5
2EBF
  8
細線
  6
CONTINUOUS
 10
3739.5406274519951
 20
-494.17095117337652
 30
0.0
 11
3744.2206274519958
 21
-494.17095117337652
 31
0.0
  0
LINE
  5
2EC0
  8
細線
  6
CONTINUOUS
 10
3758.2817484187058
 20
-494.17095117337652
 30
0.0
 11
3762.9617484187052
 21
-494.17095117337652
 31
0.0
  0
LINE
  5
2EC1
  8
細線
  6
CONTINUOUS
 10
3765.463602638079
 20
-494.17095117337652
 30
0.0
 11
3778.1022208010058
 21
-494.17095117337652
 31
0.0
  0
LINE
  5
2EC2
  8
細線
  6
CONTINUOUS
 10
3795.1922357834192
 20
-494.17095117337652
 30
0.0
 11
3800.0573235236011
 21
-494.17095117337652
 31
0.0
  0
LINE
  5
2EC3
  8
細線
  6
CONTINUOUS
 10
3803.657323523601
 20
-494.17095117337652
 30
0.0
 11
3808.3373235236008
 21
-494.17095117337652
 31
0.0
  0
LINE
  5
2EC4
  8
細線
  6
CONTINUOUS
 10
3822.9221520718911
 20
-494.17095117337652
 30
0.0
 11
3827.60215207189
 21
-494.17095117337652
 31
0.0
  0
LINE
  5
2EC5
  8
細線
  6
CONTINUOUS
 10
3829.7702704029598
 20
-494.17095117337652
 30
0.0
 11
3834.4502704029592
 21
-494.17095117337652
 31
0.0
  0
LINE
  5
2EC6
  8
細線
  6
CONTINUOUS
 10
3845.023059837265
 20
-494.17095117337652
 30
0.0
 11
3851.2938041624088
 21
-494.17095117337652
 31
0.0
  0
LINE
  5
2EC7
  8
細線
  6
CONTINUOUS
 10
3739.8763689658681
 20
-493.45095117337718
 30
0.0
 11
3744.556368965867
 21
-493.45095117337718
 31
0.0
  0
LINE
  5
2EC8
  8
細線
  6
CONTINUOUS
 10
3757.9460069048332
 20
-493.45095117337718
 30
0.0
 11
3762.626006904833
 21
-493.45095117337718
 31
0.0
  0
LINE
  5
2EC9
  8
細線
  6
CONTINUOUS
 10
3765.463602638079
 20
-493.45095117337718
 30
0.0
 11
3780.4128281777821
 21
-493.45095117337718
 31
0.0
  0
LINE
  5
2ECA
  8
細線
  6
CONTINUOUS
 10
3794.8564942695489
 20
-493.45095117337718
 30
0.0
 11
3800.3930650374718
 21
-493.45095117337718
 31
0.0
  0
LINE
  5
2ECB
  8
細線
  6
CONTINUOUS
 10
3803.9930650374722
 20
-493.45095117337718
 30
0.0
 11
3808.673065037472
 21
-493.45095117337718
 31
0.0
  0
LINE
  5
2ECC
  8
細線
  6
CONTINUOUS
 10
3822.5864105580181
 20
-493.45095117337718
 30
0.0
 11
3827.2664105580188
 21
-493.45095117337718
 31
0.0
  0
LINE
  5
2ECD
  8
細線
  6
CONTINUOUS
 10
3829.7702704029598
 20
-493.45095117337718
 30
0.0
 11
3834.4502704029592
 21
-493.45095117337718
 31
0.0
  0
LINE
  5
2ECE
  8
細線
  6
CONTINUOUS
 10
3844.5731539038902
 20
-493.45095117337718
 30
0.0
 11
3851.2938041624088
 21
-493.45095117337718
 31
0.0
  0
LINE
  5
2ECF
  8
細線
  6
CONTINUOUS
 10
3740.2121104797388
 20
-492.73095117337698
 30
0.0
 11
3744.89211047974
 21
-492.73095117337698
 31
0.0
  0
LINE
  5
2ED0
  8
細線
  6
CONTINUOUS
 10
3757.610265390962
 20
-492.73095117337698
 30
0.0
 11
3762.2902653909618
 21
-492.73095117337698
 31
0.0
  0
LINE
  5
2ED1
  8
細線
  6
CONTINUOUS
 10
3765.463602638079
 20
-492.73095117337698
 30
0.0
 11
3781.9925446515508
 21
-492.73095117337698
 31
0.0
  0
LINE
  5
2ED2
  8
細線
  6
CONTINUOUS
 10
3794.5207527556759
 20
-492.73095117337698
 30
0.0
 11
3800.728806551344
 21
-492.73095117337698
 31
0.0
  0
LINE
  5
2ED3
  8
細線
  6
CONTINUOUS
 10
3804.328806551343
 20
-492.73095117337698
 30
0.0
 11
3809.0088065513442
 21
-492.73095117337698
 31
0.0
  0
LINE
  5
2ED4
  8
細線
  6
CONTINUOUS
 10
3822.2506690441478
 20
-492.73095117337698
 30
0.0
 11
3826.9306690441472
 21
-492.73095117337698
 31
0.0
  0
LINE
  5
2ED5
  8
細線
  6
CONTINUOUS
 10
3829.7702704029598
 20
-492.73095117337698
 30
0.0
 11
3834.4502704029592
 21
-492.73095117337698
 31
0.0
  0
LINE
  5
2ED6
  8
細線
  6
CONTINUOUS
 10
3844.1232479705159
 20
-492.73095117337698
 30
0.0
 11
3851.2938041624088
 21
-492.73095117337698
 31
0.0
  0
LINE
  5
2ED7
  8
細線
  6
CONTINUOUS
 10
3740.5478519936109
 20
-492.01095117337758
 30
0.0
 11
3745.2278519936099
 21
-492.01095117337758
 31
0.0
  0
LINE
  5
2ED8
  8
細線
  6
CONTINUOUS
 10
3757.2745238770899
 20
-492.01095117337758
 30
0.0
 11
3761.9545238770911
 21
-492.01095117337758
 31
0.0
  0
LINE
  5
2ED9
  8
細線
  6
CONTINUOUS
 10
3765.463602638079
 20
-492.01095117337758
 30
0.0
 11
3783.0520023566319
 21
-492.01095117337758
 31
0.0
  0
LINE
  5
2EDA
  8
細線
  6
CONTINUOUS
 10
3794.1850112418042
 20
-492.01095117337758
 30
0.0
 11
3801.0645480652151
 21
-492.01095117337758
 31
0.0
  0
LINE
  5
2EDB
  8
細線
  6
CONTINUOUS
 10
3804.6645480652151
 20
-492.01095117337758
 30
0.0
 11
3809.3445480652149
 21
-492.01095117337758
 31
0.0
  0
LINE
  5
2EDC
  8
細線
  6
CONTINUOUS
 10
3821.9149275302748
 20
-492.01095117337758
 30
0.0
 11
3826.594927530276
 21
-492.01095117337758
 31
0.0
  0
LINE
  5
2EDD
  8
細線
  6
CONTINUOUS
 10
3829.7702704029598
 20
-492.01095117337758
 30
0.0
 11
3834.4502704029592
 21
-492.01095117337758
 31
0.0
  0
LINE
  5
2EDE
  8
細線
  6
CONTINUOUS
 10
3843.673342037142
 20
-492.01095117337758
 30
0.0
 11
3851.2938041624088
 21
-492.01095117337758
 31
0.0
  0
LINE
  5
2EDF
  8
細線
  6
CONTINUOUS
 10
3740.8835935074821
 20
-491.29095117337732
 30
0.0
 11
3745.563593507482
 21
-491.29095117337732
 31
0.0
  0
LINE
  5
2EE0
  8
細線
  6
CONTINUOUS
 10
3756.9387823632192
 20
-491.29095117337732
 30
0.0
 11
3761.618782363219
 21
-491.29095117337732
 31
0.0
  0
LINE
  5
2EE1
  8
細線
  6
CONTINUOUS
 10
3765.463602638079
 20
-491.29095117337732
 30
0.0
 11
3783.7944509305421
 21
-491.29095117337732
 31
0.0
  0
LINE
  5
2EE2
  8
細線
  6
CONTINUOUS
 10
3793.849269727933
 20
-491.29095117337732
 30
0.0
 11
3801.4002895790868
 21
-491.29095117337732
 31
0.0
  0
LINE
  5
2EE3
  8
細線
  6
CONTINUOUS
 10
3805.0002895790858
 20
-491.29095117337732
 30
0.0
 11
3809.680289579087
 21
-491.29095117337732
 31
0.0
  0
LINE
  5
2EE4
  8
細線
  6
CONTINUOUS
 10
3821.579186016404
 20
-491.29095117337732
 30
0.0
 11
3826.2591860164039
 21
-491.29095117337732
 31
0.0
  0
LINE
  5
2EE5
  8
細線
  6
CONTINUOUS
 10
3829.7702704029598
 20
-491.29095117337732
 30
0.0
 11
3834.4502704029592
 21
-491.29095117337732
 31
0.0
  0
LINE
  5
2EE6
  8
細線
  6
CONTINUOUS
 10
3843.2234361037658
 20
-491.29095117337732
 30
0.0
 11
3851.2938041624088
 21
-491.29095117337732
 31
0.0
  0
LINE
  5
2EE7
  8
細線
  6
CONTINUOUS
 10
3741.2193350213538
 20
-490.57095117337713
 30
0.0
 11
3745.8993350213541
 21
-490.57095117337713
 31
0.0
  0
LINE
  5
2EE8
  8
細線
  6
CONTINUOUS
 10
3756.6030408493471
 20
-490.57095117337713
 30
0.0
 11
3761.2830408493478
 21
-490.57095117337713
 31
0.0
  0
LINE
  5
2EE9
  8
細線
  6
CONTINUOUS
 10
3765.463602638079
 20
-490.57095117337713
 30
0.0
 11
3770.1436026380802
 21
-490.57095117337713
 31
0.0
  0
LINE
  5
2EEA
  8
細線
  6
CONTINUOUS
 10
3777.703043982282
 20
-490.57095117337713
 30
0.0
 11
3784.295853177372
 21
-490.57095117337713
 31
0.0
  0
LINE
  5
2EEB
  8
細線
  6
CONTINUOUS
 10
3793.5135282140618
 20
-490.57095117337713
 30
0.0
 11
3801.736031092958
 21
-490.57095117337713
 31
0.0
  0
LINE
  5
2EEC
  8
細線
  6
CONTINUOUS
 10
3805.3360310929588
 20
-490.57095117337713
 30
0.0
 11
3810.0160310929582
 21
-490.57095117337713
 31
0.0
  0
LINE
  5
2EED
  8
細線
  6
CONTINUOUS
 10
3821.243444502531
 20
-490.57095117337713
 30
0.0
 11
3825.9234445025331
 21
-490.57095117337713
 31
0.0
  0
LINE
  5
2EEE
  8
細線
  6
CONTINUOUS
 10
3829.7702704029598
 20
-490.57095117337713
 30
0.0
 11
3834.4502704029592
 21
-490.57095117337713
 31
0.0
  0
LINE
  5
2EEF
  8
細線
  6
CONTINUOUS
 10
3842.773530170392
 20
-490.57095117337713
 30
0.0
 11
3851.2938041624088
 21
-490.57095117337713
 31
0.0
  0
LINE
  5
2EF0
  8
細線
  6
CONTINUOUS
 10
3741.555076535225
 20
-489.85095117337602
 30
0.0
 11
3746.2350765352262
 21
-489.85095117337602
 31
0.0
  0
LINE
  5
2EF1
  8
細線
  6
CONTINUOUS
 10
3756.2672993354759
 20
-489.85095117337602
 30
0.0
 11
3760.9472993354771
 21
-489.85095117337602
 31
0.0
  0
LINE
  5
2EF2
  8
細線
  6
CONTINUOUS
 10
3765.463602638079
 20
-489.85095117337602
 30
0.0
 11
3770.1436026380802
 21
-489.85095117337602
 31
0.0
  0
LINE
  5
2EF3
  8
細線
  6
CONTINUOUS
 10
3778.8832456431019
 20
-489.85095117337602
 30
0.0
 11
3784.6183260988892
 21
-489.85095117337602
 31
0.0
  0
LINE
  5
2EF4
  8
細線
  6
CONTINUOUS
 10
3793.1777867001902
 20
-489.85095117337602
 30
0.0
 11
3802.071772606831
 21
-489.85095117337602
 31
0.0
  0
LINE
  5
2EF5
  8
細線
  6
CONTINUOUS
 10
3805.67177260683
 20
-489.85095117337602
 30
0.0
 11
3810.3517726068312
 21
-489.85095117337602
 31
0.0
  0
LINE
  5
2EF6
  8
細線
  6
CONTINUOUS
 10
3820.9077029886612
 20
-489.85095117337602
 30
0.0
 11
3825.587702988661
 21
-489.85095117337602
 31
0.0
  0
LINE
  5
2EF7
  8
細線
  6
CONTINUOUS
 10
3829.7702704029598
 20
-489.85095117337602
 30
0.0
 11
3834.4502704029592
 21
-489.85095117337602
 31
0.0
  0
LINE
  5
2EF8
  8
細線
  6
CONTINUOUS
 10
3842.3236242370181
 20
-489.85095117337602
 30
0.0
 11
3846.993170714331
 21
-489.85095117337602
 31
0.0
  0
LINE
  5
2EF9
  8
細線
  6
CONTINUOUS
 10
3847.3338041624088
 20
-489.85095117337602
 30
0.0
 11
3851.2938041624088
 21
-489.85095117337602
 31
0.0
  0
LINE
  5
2EFA
  8
細線
  6
CONTINUOUS
 10
3741.8908180490971
 20
-489.13095117337662
 30
0.0
 11
3760.6115578216049
 21
-489.13095117337662
 31
0.0
  0
LINE
  5
2EFB
  8
細線
  6
CONTINUOUS
 10
3765.463602638079
 20
-489.13095117337662
 30
0.0
 11
3770.1436026380802
 21
-489.13095117337662
 31
0.0
  0
LINE
  5
2EFC
  8
細線
  6
CONTINUOUS
 10
3779.7221773169249
 20
-489.13095117337662
 30
0.0
 11
3784.8568569536419
 21
-489.13095117337662
 31
0.0
  0
LINE
  5
2EFD
  8
細線
  6
CONTINUOUS
 10
3792.842045186318
 20
-489.13095117337662
 30
0.0
 11
3797.5220451863188
 21
-489.13095117337662
 31
0.0
  0
LINE
  5
2EFE
  8
細線
  6
CONTINUOUS
 10
3797.7275141207019
 20
-489.13095117337662
 30
0.0
 11
3802.4075141207022
 21
-489.13095117337662
 31
0.0
  0
LINE
  5
2EFF
  8
細線
  6
CONTINUOUS
 10
3806.0075141207021
 20
-489.13095117337662
 30
0.0
 11
3825.2519614747898
 21
-489.13095117337662
 31
0.0
  0
LINE
  5
2F00
  8
細線
  6
CONTINUOUS
 10
3829.7702704029598
 20
-489.13095117337662
 30
0.0
 11
3834.4502704029592
 21
-489.13095117337662
 31
0.0
  0
LINE
  5
2F01
  8
細線
  6
CONTINUOUS
 10
3841.8737183036428
 20
-489.13095117337662
 30
0.0
 11
3846.5432647809571
 21
-489.13095117337662
 31
0.0
  0
LINE
  5
2F02
  8
細線
  6
CONTINUOUS
 10
3847.3338041624088
 20
-489.13095117337662
 30
0.0
 11
3851.2938041624088
 21
-489.13095117337662
 31
0.0
  0
LINE
  5
2F03
  8
細線
  6
CONTINUOUS
 10
3742.2265595629679
 20
-488.41095117337733
 30
0.0
 11
3760.2758163077319
 21
-488.41095117337733
 31
0.0
  0
LINE
  5
2F04
  8
細線
  6
CONTINUOUS
 10
3765.463602638079
 20
-488.41095117337733
 30
0.0
 11
3770.1436026380802
 21
-488.41095117337733
 31
0.0
  0
LINE
  5
2F05
  8
細線
  6
CONTINUOUS
 10
3780.2174631010239
 20
-488.41095117337733
 30
0.0
 11
3785.051897247447
 21
-488.41095117337733
 31
0.0
  0
LINE
  5
2F06
  8
細線
  6
CONTINUOUS
 10
3792.5063036724468
 20
-488.41095117337733
 30
0.0
 11
3797.1863036724458
 21
-488.41095117337733
 31
0.0
  0
LINE
  5
2F07
  8
細線
  6
CONTINUOUS
 10
3798.0632556345731
 20
-488.41095117337733
 30
0.0
 11
3802.7432556345739
 21
-488.41095117337733
 31
0.0
  0
LINE
  5
2F08
  8
細線
  6
CONTINUOUS
 10
3806.3432556345729
 20
-488.41095117337733
 30
0.0
 11
3824.9162199609168
 21
-488.41095117337733
 31
0.0
  0
LINE
  5
2F09
  8
細線
  6
CONTINUOUS
 10
3829.7702704029598
 20
-488.41095117337733
 30
0.0
 11
3834.4502704029592
 21
-488.41095117337733
 31
0.0
  0
LINE
  5
2F0A
  8
細線
  6
CONTINUOUS
 10
3841.4238123702671
 20
-488.41095117337733
 30
0.0
 11
3846.0933588475818
 21
-488.41095117337733
 31
0.0
  0
LINE
  5
2F0B
  8
細線
  6
CONTINUOUS
 10
3847.3338041624088
 20
-488.41095117337733
 30
0.0
 11
3851.2938041624088
 21
-488.41095117337733
 31
0.0
  0
LINE
  5
2F0C
  8
細線
  6
CONTINUOUS
 10
3742.56230107684
 20
-487.69095117337702
 30
0.0
 11
3759.9400747938612
 21
-487.69095117337702
 31
0.0
  0
LINE
  5
2F0D
  8
細線
  6
CONTINUOUS
 10
3765.463602638079
 20
-487.69095117337702
 30
0.0
 11
3770.1436026380802
 21
-487.69095117337702
 31
0.0
  0
LINE
  5
2F0E
  8
細線
  6
CONTINUOUS
 10
3780.5304973592501
 20
-487.69095117337702
 30
0.0
 11
3785.2218305310921
 21
-487.69095117337702
 31
0.0
  0
LINE
  5
2F0F
  8
細線
  6
CONTINUOUS
 10
3792.1705621585752
 20
-487.69095117337702
 30
0.0
 11
3796.850562158575
 21
-487.69095117337702
 31
0.0
  0
LINE
  5
2F10
  8
細線
  6
CONTINUOUS
 10
3798.3989971484448
 20
-487.69095117337702
 30
0.0
 11
3803.0789971484451
 21
-487.69095117337702
 31
0.0
  0
LINE
  5
2F11
  8
細線
  6
CONTINUOUS
 10
3806.678997148445
 20
-487.69095117337702
 30
0.0
 11
3824.5804784470461
 21
-487.69095117337702
 31
0.0
  0
LINE
  5
2F12
  8
細線
  6
CONTINUOUS
 10
3829.7702704029598
 20
-487.69095117337702
 30
0.0
 11
3834.4502704029592
 21
-487.69095117337702
 31
0.0
  0
LINE
  5
2F13
  8
細線
  6
CONTINUOUS
 10
3840.9739064368928
 20
-487.69095117337702
 30
0.0
 11
3845.6434529142061
 21
-487.69095117337702
 31
0.0
  0
LINE
  5
2F14
  8
細線
  6
CONTINUOUS
 10
3847.3338041624088
 20
-487.69095117337702
 30
0.0
 11
3851.2938041624088
 21
-487.69095117337702
 31
0.0
  0
LINE
  5
2F15
  8
細線
  6
CONTINUOUS
 10
3742.8980425907112
 20
-486.9709511733767
 30
0.0
 11
3759.60433327999
 21
-486.9709511733767
 31
0.0
  0
LINE
  5
2F16
  8
細線
  6
CONTINUOUS
 10
3765.463602638079
 20
-486.9709511733767
 30
0.0
 11
3770.1436026380802
 21
-486.9709511733767
 31
0.0
  0
LINE
  5
2F17
  8
細線
  6
CONTINUOUS
 10
3780.725865010028
 20
-486.9709511733767
 30
0.0
 11
3785.3606122217461
 21
-486.9709511733767
 31
0.0
  0
LINE
  5
2F18
  8
細線
  6
CONTINUOUS
 10
3791.8348206447031
 20
-486.9709511733767
 30
0.0
 11
3796.5148206447029
 21
-486.9709511733767
 31
0.0
  0
LINE
  5
2F19
  8
細線
  6
CONTINUOUS
 10
3798.7347386623169
 20
-486.9709511733767
 30
0.0
 11
3803.4147386623172
 21
-486.9709511733767
 31
0.0
  0
LINE
  5
2F1A
  8
細線
  6
CONTINUOUS
 10
3807.0147386623162
 20
-486.9709511733767
 30
0.0
 11
3824.244736933174
 21
-486.9709511733767
 31
0.0
  0
LINE
  5
2F1B
  8
細線
  6
CONTINUOUS
 10
3829.7702704029598
 20
-486.9709511733767
 30
0.0
 11
3834.4502704029592
 21
-486.9709511733767
 31
0.0
  0
LINE
  5
2F1C
  8
細線
  6
CONTINUOUS
 10
3840.524000503518
 20
-486.9709511733767
 30
0.0
 11
3845.1935469808318
 21
-486.9709511733767
 31
0.0
  0
LINE
  5
2F1D
  8
細線
  6
CONTINUOUS
 10
3847.3338041624088
 20
-486.9709511733767
 30
0.0
 11
3851.2938041624088
 21
-486.9709511733767
 31
0.0
  0
LINE
  5
2F1E
  8
細線
  6
CONTINUOUS
 10
3743.2337841045842
 20
-486.25095117337639
 30
0.0
 11
3759.2685917661179
 21
-486.25095117337639
 31
0.0
  0
LINE
  5
2F1F
  8
細線
  6
CONTINUOUS
 10
3765.463602638079
 20
-486.25095117337639
 30
0.0
 11
3770.1436026380802
 21
-486.25095117337639
 31
0.0
  0
LINE
  5
2F20
  8
細線
  6
CONTINUOUS
 10
3780.8445790636429
 20
-486.25095117337639
 30
0.0
 11
3785.4697365599968
 21
-486.25095117337639
 31
0.0
  0
LINE
  5
2F21
  8
細線
  6
CONTINUOUS
 10
3791.4990791308328
 20
-486.25095117337639
 30
0.0
 11
3796.1790791308322
 21
-486.25095117337639
 31
0.0
  0
LINE
  5
2F22
  8
細線
  6
CONTINUOUS
 10
3799.0704801761881
 20
-486.25095117337639
 30
0.0
 11
3803.7504801761879
 21
-486.25095117337639
 31
0.0
  0
LINE
  5
2F23
  8
細線
  6
CONTINUOUS
 10
3807.3504801761878
 20
-486.25095117337639
 30
0.0
 11
3823.9089954193032
 21
-486.25095117337639
 31
0.0
  0
LINE
  5
2F24
  8
細線
  6
CONTINUOUS
 10
3829.7702704029598
 20
-486.25095117337639
 30
0.0
 11
3834.4502704029592
 21
-486.25095117337639
 31
0.0
  0
LINE
  5
2F25
  8
細線
  6
CONTINUOUS
 10
3840.074094570145
 20
-486.25095117337639
 30
0.0
 11
3844.7436410474579
 21
-486.25095117337639
 31
0.0
  0
LINE
  5
2F26
  8
細線
  6
CONTINUOUS
 10
3847.3338041624088
 20
-486.25095117337639
 30
0.0
 11
3851.2938041624088
 21
-486.25095117337639
 31
0.0
  0
LINE
  5
2F27
  8
細線
  6
CONTINUOUS
 10
3743.5695256184549
 20
-485.5309511733771
 30
0.0
 11
3748.2495256184561
 21
-485.5309511733771
 31
0.0
  0
LINE
  5
2F28
  8
細線
  6
CONTINUOUS
 10
3754.2528502522459
 20
-485.5309511733771
 30
0.0
 11
3758.9328502522462
 21
-485.5309511733771
 31
0.0
  0
LINE
  5
2F29
  8
細線
  6
CONTINUOUS
 10
3765.463602638079
 20
-485.5309511733771
 30
0.0
 11
3770.1436026380802
 21
-485.5309511733771
 31
0.0
  0
LINE
  5
2F2A
  8
細線
  6
CONTINUOUS
 10
3780.9054467793708
 20
-485.5309511733771
 30
0.0
 11
3785.5494760799502
 21
-485.5309511733771
 31
0.0
  0
LINE
  5
2F2B
  8
細線
  6
CONTINUOUS
 10
3791.1633376169598
 20
-485.5309511733771
 30
0.0
 11
3795.8433376169601
 21
-485.5309511733771
 31
0.0
  0
LINE
  5
2F2C
  8
細線
  6
CONTINUOUS
 10
3799.4062216900588
 20
-485.5309511733771
 30
0.0
 11
3804.08622169006
 21
-485.5309511733771
 31
0.0
  0
LINE
  5
2F2D
  8
細線
  6
CONTINUOUS
 10
3807.6862216900599
 20
-485.5309511733771
 30
0.0
 11
3812.3662216900589
 21
-485.5309511733771
 31
0.0
  0
LINE
  5
2F2E
  8
細線
  6
CONTINUOUS
 10
3818.8932539054308
 20
-485.5309511733771
 30
0.0
 11
3823.5732539054311
 21
-485.5309511733771
 31
0.0
  0
LINE
  5
2F2F
  8
細線
  6
CONTINUOUS
 10
3829.7702704029598
 20
-485.5309511733771
 30
0.0
 11
3834.4502704029592
 21
-485.5309511733771
 31
0.0
  0
LINE
  5
2F30
  8
細線
  6
CONTINUOUS
 10
3839.6241886367688
 20
-485.5309511733771
 30
0.0
 11
3844.293735114084
 21
-485.5309511733771
 31
0.0
  0
LINE
  5
2F31
  8
細線
  6
CONTINUOUS
 10
3847.3338041624088
 20
-485.5309511733771
 30
0.0
 11
3851.2938041624088
 21
-485.5309511733771
 31
0.0
  0
LINE
  5
2F32
  8
細線
  6
CONTINUOUS
 10
3743.905267132327
 20
-484.81095117337691
 30
0.0
 11
3748.585267132326
 21
-484.81095117337691
 31
0.0
  0
LINE
  5
2F33
  8
細線
  6
CONTINUOUS
 10
3753.9171087383738
 20
-484.81095117337691
 30
0.0
 11
3758.597108738375
 21
-484.81095117337691
 31
0.0
  0
LINE
  5
2F34
  8
細線
  6
CONTINUOUS
 10
3765.463602638079
 20
-484.81095117337691
 30
0.0
 11
3770.1436026380802
 21
-484.81095117337691
 31
0.0
  0
LINE
  5
2F35
  8
細線
  6
CONTINUOUS
 10
3780.932514325149
 20
-484.81095117337691
 30
0.0
 11
3785.5992423225971
 21
-484.81095117337691
 31
0.0
  0
LINE
  5
2F36
  8
細線
  6
CONTINUOUS
 10
3790.827596103089
 20
-484.81095117337691
 30
0.0
 11
3795.5075961030889
 21
-484.81095117337691
 31
0.0
  0
LINE
  5
2F37
  8
細線
  6
CONTINUOUS
 10
3799.7419632039318
 20
-484.81095117337691
 30
0.0
 11
3804.4219632039312
 21
-484.81095117337691
 31
0.0
  0
LINE
  5
2F38
  8
細線
  6
CONTINUOUS
 10
3808.0219632039311
 20
-484.81095117337691
 30
0.0
 11
3812.701963203931
 21
-484.81095117337691
 31
0.0
  0
LINE
  5
2F39
  8
細線
  6
CONTINUOUS
 10
3818.5575123915601
 20
-484.81095117337691
 30
0.0
 11
3823.2375123915599
 21
-484.81095117337691
 31
0.0
  0
LINE
  5
2F3A
  8
細線
  6
CONTINUOUS
 10
3829.7702704029598
 20
-484.81095117337691
 30
0.0
 11
3834.4502704029592
 21
-484.81095117337691
 31
0.0
  0
LINE
  5
2F3B
  8
細線
  6
CONTINUOUS
 10
3839.1742827033941
 20
-484.81095117337691
 30
0.0
 11
3843.8438291807079
 21
-484.81095117337691
 31
0.0
  0
LINE
  5
2F3C
  8
細線
  6
CONTINUOUS
 10
3847.3338041624088
 20
-484.81095117337691
 30
0.0
 11
3851.2938041624088
 21
-484.81095117337691
 31
0.0
  0
LINE
  5
2F3D
  8
細線
  6
CONTINUOUS
 10
3744.2410086461982
 20
-484.09095117337762
 30
0.0
 11
3748.921008646199
 21
-484.09095117337762
 31
0.0
  0
LINE
  5
2F3E
  8
細線
  6
CONTINUOUS
 10
3753.5813672245031
 20
-484.09095117337762
 30
0.0
 11
3758.2613672245029
 21
-484.09095117337762
 31
0.0
  0
LINE
  5
2F3F
  8
細線
  6
CONTINUOUS
 10
3765.463602638079
 20
-484.09095117337762
 30
0.0
 11
3770.1436026380802
 21
-484.09095117337762
 31
0.0
  0
LINE
  5
2F40
  8
細線
  6
CONTINUOUS
 10
3780.9431725964751
 20
-484.09095117337762
 30
0.0
 11
3785.6224366331071
 21
-484.09095117337762
 31
0.0
  0
LINE
  5
2F41
  8
細線
  6
CONTINUOUS
 10
3790.4918545892169
 20
-484.09095117337762
 30
0.0
 11
3795.1718545892181
 21
-484.09095117337762
 31
0.0
  0
LINE
  5
2F42
  8
細線
  6
CONTINUOUS
 10
3800.0777047178021
 20
-484.09095117337762
 30
0.0
 11
3804.7577047178029
 21
-484.09095117337762
 31
0.0
  0
LINE
  5
2F43
  8
細線
  6
CONTINUOUS
 10
3808.3577047178028
 20
-484.09095117337762
 30
0.0
 11
3813.0377047178022
 21
-484.09095117337762
 31
0.0
  0
LINE
  5
2F44
  8
細線
  6
CONTINUOUS
 10
3818.221770877688
 20
-484.09095117337762
 30
0.0
 11
3822.9017708776878
 21
-484.09095117337762
 31
0.0
  0
LINE
  5
2F45
  8
細線
  6
CONTINUOUS
 10
3829.7702704029598
 20
-484.09095117337762
 30
0.0
 11
3834.4502704029592
 21
-484.09095117337762
 31
0.0
  0
LINE
  5
2F46
  8
細線
  6
CONTINUOUS
 10
3838.7243767700202
 20
-484.09095117337762
 30
0.0
 11
3843.3939232473331
 21
-484.09095117337762
 31
0.0
  0
LINE
  5
2F47
  8
細線
  6
CONTINUOUS
 10
3847.3338041624088
 20
-484.09095117337762
 30
0.0
 11
3851.2938041624088
 21
-484.09095117337762
 31
0.0
  0
LINE
  5
2F48
  8
細線
  6
CONTINUOUS
 10
3744.5767501600699
 20
-483.3709511733764
 30
0.0
 11
3749.2567501600702
 21
-483.3709511733764
 31
0.0
  0
LINE
  5
2F49
  8
細線
  6
CONTINUOUS
 10
3753.245625710631
 20
-483.3709511733764
 30
0.0
 11
3757.9256257106322
 21
-483.3709511733764
 31
0.0
  0
LINE
  5
2F4A
  8
細線
  6
CONTINUOUS
 10
3765.463602638079
 20
-483.3709511733764
 30
0.0
 11
3770.1436026380802
 21
-483.3709511733764
 31
0.0
  0
LINE
  5
2F4B
  8
細線
  6
CONTINUOUS
 10
3780.9373745733551
 20
-483.3709511733764
 30
0.0
 11
3785.6078255563898
 21
-483.3709511733764
 31
0.0
  0
LINE
  5
2F4C
  8
細線
  6
CONTINUOUS
 10
3790.1561130753462
 20
-483.3709511733764
 30
0.0
 11
3794.836113075346
 21
-483.3709511733764
 31
0.0
  0
LINE
  5
2F4D
  8
細線
  6
CONTINUOUS
 10
3800.4134462316752
 20
-483.3709511733764
 30
0.0
 11
3805.0934462316741
 21
-483.3709511733764
 31
0.0
  0
LINE
  5
2F4E
  8
細線
  6
CONTINUOUS
 10
3808.6934462316749
 20
-483.3709511733764
 30
0.0
 11
3813.3734462316738
 21
-483.3709511733764
 31
0.0
  0
LINE
  5
2F4F
  8
細線
  6
CONTINUOUS
 10
3817.8860293638172
 20
-483.3709511733764
 30
0.0
 11
3822.5660293638161
 21
-483.3709511733764
 31
0.0
  0
LINE
  5
2F50
  8
細線
  6
CONTINUOUS
 10
3829.7702704029598
 20
-483.3709511733764
 30
0.0
 11
3834.4502704029592
 21
-483.3709511733764
 31
0.0
  0
LINE
  5
2F51
  8
細線
  6
CONTINUOUS
 10
3838.2744708366449
 20
-483.3709511733764
 30
0.0
 11
3842.9440173139592
 21
-483.3709511733764
 31
0.0
  0
LINE
  5
2F52
  8
細線
  6
CONTINUOUS
 10
3847.3338041624088
 20
-483.3709511733764
 30
0.0
 11
3851.2938041624088
 21
-483.3709511733764
 31
0.0
  0
LINE
  5
2F53
  8
細線
  6
CONTINUOUS
 10
3744.9124916739411
 20
-482.650951173377
 30
0.0
 11
3749.5924916739418
 21
-482.650951173377
 31
0.0
  0
LINE
  5
2F54
  8
細線
  6
CONTINUOUS
 10
3752.9098841967598
 20
-482.650951173377
 30
0.0
 11
3757.5898841967601
 21
-482.650951173377
 31
0.0
  0
LINE
  5
2F55
  8
細線
  6
CONTINUOUS
 10
3765.463602638079
 20
-482.650951173377
 30
0.0
 11
3770.1436026380802
 21
-482.650951173377
 31
0.0
  0
LINE
  5
2F56
  8
細線
  6
CONTINUOUS
 10
3780.9157118290332
 20
-482.650951173377
 30
0.0
 11
3785.5657768610499
 21
-482.650951173377
 31
0.0
  0
LINE
  5
2F57
  8
細線
  6
CONTINUOUS
 10
3789.8203715614741
 20
-482.650951173377
 30
0.0
 11
3794.5003715614748
 21
-482.650951173377
 31
0.0
  0
LINE
  5
2F58
  8
細線
  6
CONTINUOUS
 10
3800.7491877455459
 20
-482.650951173377
 30
0.0
 11
3805.4291877455471
 21
-482.650951173377
 31
0.0
  0
LINE
  5
2F59
  8
細線
  6
CONTINUOUS
 10
3809.0291877455461
 20
-482.650951173377
 30
0.0
 11
3813.7091877455459
 21
-482.650951173377
 31
0.0
  0
LINE
  5
2F5A
  8
細線
  6
CONTINUOUS
 10
3817.5502878499451
 20
-482.650951173377
 30
0.0
 11
3822.2302878499449
 21
-482.650951173377
 31
0.0
  0
LINE
  5
2F5B
  8
細線
  6
CONTINUOUS
 10
3829.7702704029598
 20
-482.650951173377
 30
0.0
 11
3834.4502704029592
 21
-482.650951173377
 31
0.0
  0
LINE
  5
2F5C
  8
細線
  6
CONTINUOUS
 10
3837.8245649032701
 20
-482.650951173377
 30
0.0
 11
3842.494111380583
 21
-482.650951173377
 31
0.0
  0
LINE
  5
2F5D
  8
細線
  6
CONTINUOUS
 10
3847.3338041624088
 20
-482.650951173377
 30
0.0
 11
3851.2938041624088
 21
-482.650951173377
 31
0.0
  0
LINE
  5
2F5E
  8
細線
  6
CONTINUOUS
 10
3745.2482331878132
 20
-481.93095117337668
 30
0.0
 11
3749.928233187813
 21
-481.93095117337668
 31
0.0
  0
LINE
  5
2F5F
  8
細線
  6
CONTINUOUS
 10
3752.5741426828881
 20
-481.93095117337668
 30
0.0
 11
3757.254142682888
 21
-481.93095117337668
 31
0.0
  0
LINE
  5
2F60
  8
細線
  6
CONTINUOUS
 10
3765.463602638079
 20
-481.93095117337668
 30
0.0
 11
3770.1436026380802
 21
-481.93095117337668
 31
0.0
  0
LINE
  5
2F61
  8
細線
  6
CONTINUOUS
 10
3780.8582353299839
 20
-481.93095117337668
 30
0.0
 11
3785.4931222067412
 21
-481.93095117337668
 31
0.0
  0
LINE
  5
2F62
  8
細線
  6
CONTINUOUS
 10
3789.4846300476029
 20
-481.93095117337668
 30
0.0
 11
3794.1646300476018
 21
-481.93095117337668
 31
0.0
  0
LINE
  5
2F63
  8
細線
  6
CONTINUOUS
 10
3801.084929259418
 20
-481.93095117337668
 30
0.0
 11
3805.7649292594178
 21
-481.93095117337668
 31
0.0
  0
LINE
  5
2F64
  8
細線
  6
CONTINUOUS
 10
3809.3649292594182
 20
-481.93095117337668
 30
0.0
 11
3814.044929259419
 21
-481.93095117337668
 31
0.0
  0
LINE
  5
2F65
  8
細線
  6
CONTINUOUS
 10
3817.2145463360739
 20
-481.93095117337668
 30
0.0
 11
3821.8945463360742
 21
-481.93095117337668
 31
0.0
  0
LINE
  5
2F66
  8
細線
  6
CONTINUOUS
 10
3829.7702704029598
 20
-481.93095117337668
 30
0.0
 11
3834.4502704029592
 21
-481.93095117337668
 31
0.0
  0
LINE
  5
2F67
  8
細線
  6
CONTINUOUS
 10
3837.3746589698958
 20
-481.93095117337668
 30
0.0
 11
3842.044205447211
 21
-481.93095117337668
 31
0.0
  0
LINE
  5
2F68
  8
細線
  6
CONTINUOUS
 10
3847.3338041624088
 20
-481.93095117337668
 30
0.0
 11
3851.2938041624088
 21
-481.93095117337668
 31
0.0
  0
LINE
  5
2F69
  8
細線
  6
CONTINUOUS
 10
3745.5839747016839
 20
-481.21095117337649
 30
0.0
 11
3750.2639747016851
 21
-481.21095117337649
 31
0.0
  0
LINE
  5
2F6A
  8
細線
  6
CONTINUOUS
 10
3752.2384011690169
 20
-481.21095117337649
 30
0.0
 11
3756.9184011690159
 21
-481.21095117337649
 31
0.0
  0
LINE
  5
2F6B
  8
細線
  6
CONTINUOUS
 10
3765.463602638079
 20
-481.21095117337649
 30
0.0
 11
3770.1436026380802
 21
-481.21095117337649
 31
0.0
  0
LINE
  5
2F6C
  8
細線
  6
CONTINUOUS
 10
3780.7535054186778
 20
-481.21095117337649
 30
0.0
 11
3785.387417475727
 21
-481.21095117337649
 31
0.0
  0
LINE
  5
2F6D
  8
細線
  6
CONTINUOUS
 10
3789.1488885337312
 20
-481.21095117337649
 30
0.0
 11
3793.8288885337311
 21
-481.21095117337649
 31
0.0
  0
LINE
  5
2F6E
  8
細線
  6
CONTINUOUS
 10
3801.4206707732892
 20
-481.21095117337649
 30
0.0
 11
3806.1006707732881
 21
-481.21095117337649
 31
0.0
  0
LINE
  5
2F6F
  8
細線
  6
CONTINUOUS
 10
3809.7006707732889
 20
-481.21095117337649
 30
0.0
 11
3814.3806707732888
 21
-481.21095117337649
 31
0.0
  0
LINE
  5
2F70
  8
細線
  6
CONTINUOUS
 10
3816.8788048222018
 20
-481.21095117337649
 30
0.0
 11
3821.5588048222012
 21
-481.21095117337649
 31
0.0
  0
LINE
  5
2F71
  8
細線
  6
CONTINUOUS
 10
3829.7702704029598
 20
-481.21095117337649
 30
0.0
 11
3834.4502704029592
 21
-481.21095117337649
 31
0.0
  0
LINE
  5
2F72
  8
細線
  6
CONTINUOUS
 10
3836.924753036521
 20
-481.21095117337649
 30
0.0
 11
3841.5942995138348
 21
-481.21095117337649
 31
0.0
  0
LINE
  5
2F73
  8
細線
  6
CONTINUOUS
 10
3847.3338041624088
 20
-481.21095117337649
 30
0.0
 11
3851.2938041624088
 21
-481.21095117337649
 31
0.0
  0
LINE
  5
2F74
  8
細線
  6
CONTINUOUS
 10
3745.9197162155569
 20
-480.4909511733772
 30
0.0
 11
3750.5997162155559
 21
-480.4909511733772
 31
0.0
  0
LINE
  5
2F75
  8
細線
  6
CONTINUOUS
 10
3751.9026596551439
 20
-480.4909511733772
 30
0.0
 11
3756.5826596551451
 21
-480.4909511733772
 31
0.0
  0
LINE
  5
2F76
  8
細線
  6
CONTINUOUS
 10
3765.463602638079
 20
-480.4909511733772
 30
0.0
 11
3770.1436026380802
 21
-480.4909511733772
 31
0.0
  0
LINE
  5
2F77
  8
細線
  6
CONTINUOUS
 10
3780.5790125071239
 20
-480.4909511733772
 30
0.0
 11
3785.2529675584669
 21
-480.4909511733772
 31
0.0
  0
LINE
  5
2F78
  8
細線
  6
CONTINUOUS
 10
3788.81314701986
 20
-480.4909511733772
 30
0.0
 11
3793.493147019859
 21
-480.4909511733772
 31
0.0
  0
LINE
  5
2F79
  8
細線
  6
CONTINUOUS
 10
3801.7564122871609
 20
-480.4909511733772
 30
0.0
 11
3806.4364122871611
 21
-480.4909511733772
 31
0.0
  0
LINE
  5
2F7A
  8
細線
  6
CONTINUOUS
 10
3810.0364122871611
 20
-480.4909511733772
 30
0.0
 11
3814.7164122871609
 21
-480.4909511733772
 31
0.0
  0
LINE
  5
2F7B
  8
細線
  6
CONTINUOUS
 10
3816.5430633083301
 20
-480.4909511733772
 30
0.0
 11
3821.2230633083309
 21
-480.4909511733772
 31
0.0
  0
LINE
  5
2F7C
  8
細線
  6
CONTINUOUS
 10
3829.7702704029598
 20
-480.4909511733772
 30
0.0
 11
3834.4502704029592
 21
-480.4909511733772
 31
0.0
  0
LINE
  5
2F7D
  8
細線
  6
CONTINUOUS
 10
3836.4748471031471
 20
-480.4909511733772
 30
0.0
 11
3841.14439358046
 21
-480.4909511733772
 31
0.0
  0
LINE
  5
2F7E
  8
細線
  6
CONTINUOUS
 10
3847.3338041624088
 20
-480.4909511733772
 30
0.0
 11
3851.2938041624088
 21
-480.4909511733772
 31
0.0
  0
LINE
  5
2F7F
  8
細線
  6
CONTINUOUS
 10
3746.2554577294268
 20
-479.77095117337689
 30
0.0
 11
3750.9354577294271
 21
-479.77095117337689
 31
0.0
  0
LINE
  5
2F80
  8
細線
  6
CONTINUOUS
 10
3751.5669181412732
 20
-479.77095117337689
 30
0.0
 11
3756.246918141273
 21
-479.77095117337689
 31
0.0
  0
LINE
  5
2F81
  8
細線
  6
CONTINUOUS
 10
3765.463602638079
 20
-479.77095117337689
 30
0.0
 11
3770.1436026380802
 21
-479.77095117337689
 31
0.0
  0
LINE
  5
2F82
  8
細線
  6
CONTINUOUS
 10
3780.2968737671658
 20
-479.77095117337689
 30
0.0
 11
3785.0901958836348
 21
-479.77095117337689
 31
0.0
  0
LINE
  5
2F83
  8
細線
  6
CONTINUOUS
 10
3788.4774055059861
 20
-479.77095117337689
 30
0.0
 11
3793.1574055059882
 21
-479.77095117337689
 31
0.0
  0
LINE
  5
2F84
  8
細線
  6
CONTINUOUS
 10
3802.0921538010321
 20
-479.77095117337689
 30
0.0
 11
3806.7721538010328
 21
-479.77095117337689
 31
0.0
  0
LINE
  5
2F85
  8
細線
  6
CONTINUOUS
 10
3810.3721538010332
 20
-479.77095117337689
 30
0.0
 11
3815.0521538010321
 21
-479.77095117337689
 31
0.0
  0
LINE
  5
2F86
  8
細線
  6
CONTINUOUS
 10
3816.2073217944589
 20
-479.77095117337689
 30
0.0
 11
3820.8873217944579
 21
-479.77095117337689
 31
0.0
  0
LINE
  5
2F87
  8
細線
  6
CONTINUOUS
 10
3829.7702704029598
 20
-479.77095117337689
 30
0.0
 11
3834.4502704029592
 21
-479.77095117337689
 31
0.0
  0
LINE
  5
2F88
  8
細線
  6
CONTINUOUS
 10
3836.0249411697719
 20
-479.77095117337689
 30
0.0
 11
3840.6944876470839
 21
-479.77095117337689
 31
0.0
  0
LINE
  5
2F89
  8
細線
  6
CONTINUOUS
 10
3847.3338041624088
 20
-479.77095117337689
 30
0.0
 11
3851.2938041624088
 21
-479.77095117337689
 31
0.0
  0
LINE
  5
2F8A
  8
細線
  6
CONTINUOUS
 10
3746.5911992432998
 20
-479.0509511733776
 30
0.0
 11
3755.9111766274018
 21
-479.0509511733776
 31
0.0
  0
LINE
  5
2F8B
  8
細線
  6
CONTINUOUS
 10
3765.463602638079
 20
-479.0509511733776
 30
0.0
 11
3770.1436026380802
 21
-479.0509511733776
 31
0.0
  0
LINE
  5
2F8C
  8
細線
  6
CONTINUOUS
 10
3779.8636026380791
 20
-479.0509511733776
 30
0.0
 11
3784.90360263808
 21
-479.0509511733776
 31
0.0
  0
LINE
  5
2F8D
  8
細線
  6
CONTINUOUS
 10
3788.1416639921158
 20
-479.0509511733776
 30
0.0
 11
3792.8216639921161
 21
-479.0509511733776
 31
0.0
  0
LINE
  5
2F8E
  8
細線
  6
CONTINUOUS
 10
3802.4278953149042
 20
-479.0509511733776
 30
0.0
 11
3807.107895314904
 21
-479.0509511733776
 31
0.0
  0
LINE
  5
2F8F
  8
細線
  6
CONTINUOUS
 10
3810.7078953149039
 20
-479.0509511733776
 30
0.0
 11
3815.3878953149042
 21
-479.0509511733776
 31
0.0
  0
LINE
  5
2F90
  8
細線
  6
CONTINUOUS
 10
3815.8715802805868
 20
-479.0509511733776
 30
0.0
 11
3820.5515802805871
 21
-479.0509511733776
 31
0.0
  0
LINE
  5
2F91
  8
細線
  6
CONTINUOUS
 10
3829.7702704029598
 20
-479.0509511733776
 30
0.0
 11
3834.4502704029592
 21
-479.0509511733776
 31
0.0
  0
LINE
  5
2F92
  8
細線
  6
CONTINUOUS
 10
3835.5750352363962
 20
-479.0509511733776
 30
0.0
 11
3840.24458171371
 21
-479.0509511733776
 31
0.0
  0
LINE
  5
2F93
  8
細線
  6
CONTINUOUS
 10
3847.3338041624088
 20
-479.0509511733776
 30
0.0
 11
3851.2938041624088
 21
-479.0509511733776
 31
0.0
  0
LINE
  5
2F94
  8
細線
  6
CONTINUOUS
 10
3746.926940757171
 20
-478.33095117337729
 30
0.0
 11
3755.5754351135301
 21
-478.33095117337729
 31
0.0
  0
LINE
  5
2F95
  8
細線
  6
CONTINUOUS
 10
3765.463602638079
 20
-478.33095117337729
 30
0.0
 11
3770.1436026380802
 21
-478.33095117337729
 31
0.0
  0
LINE
  5
2F96
  8
細線
  6
CONTINUOUS
 10
3779.0987825405209
 20
-478.33095117337729
 30
0.0
 11
3784.6775176813198
 21
-478.33095117337729
 31
0.0
  0
LINE
  5
2F97
  8
細線
  6
CONTINUOUS
 10
3787.8059224782442
 20
-478.33095117337729
 30
0.0
 11
3792.4859224782449
 21
-478.33095117337729
 31
0.0
  0
LINE
  5
2F98
  8
細線
  6
CONTINUOUS
 10
3802.7636368287749
 20
-478.33095117337729
 30
0.0
 11
3807.4436368287752
 21
-478.33095117337729
 31
0.0
  0
LINE
  5
2F99
  8
細線
  6
CONTINUOUS
 10
3811.0436368287751
 20
-478.33095117337729
 30
0.0
 11
3820.215838766715
 21
-478.33095117337729
 31
0.0
  0
LINE
  5
2F9A
  8
細線
  6
CONTINUOUS
 10
3829.7702704029598
 20
-478.33095117337729
 30
0.0
 11
3834.4502704029592
 21
-478.33095117337729
 31
0.0
  0
LINE
  5
2F9B
  8
細線
  6
CONTINUOUS
 10
3835.1251293030218
 20
-478.33095117337729
 30
0.0
 11
3839.7946757803361
 21
-478.33095117337729
 31
0.0
  0
LINE
  5
2F9C
  8
細線
  6
CONTINUOUS
 10
3847.3338041624088
 20
-478.33095117337729
 30
0.0
 11
3851.2938041624088
 21
-478.33095117337729
 31
0.0
  0
LINE
  5
2F9D
  8
細線
  6
CONTINUOUS
 10
3747.2626822710431
 20
-477.61095117337788
 30
0.0
 11
3755.2396935996589
 21
-477.61095117337788
 31
0.0
  0
LINE
  5
2F9E
  8
細線
  6
CONTINUOUS
 10
3765.463602638079
 20
-477.61095117337788
 30
0.0
 11
3770.1436026380802
 21
-477.61095117337788
 31
0.0
  0
LINE
  5
2F9F
  8
細線
  6
CONTINUOUS
 10
3777.9903985271199
 20
-477.61095117337788
 30
0.0
 11
3784.3784958528549
 21
-477.61095117337788
 31
0.0
  0
LINE
  5
2FA0
  8
細線
  6
CONTINUOUS
 10
3787.470180964373
 20
-477.61095117337788
 30
0.0
 11
3792.1501809643719
 21
-477.61095117337788
 31
0.0
  0
LINE
  5
2FA1
  8
細線
  6
CONTINUOUS
 10
3803.099378342647
 20
-477.61095117337788
 30
0.0
 11
3807.7793783426469
 21
-477.61095117337788
 31
0.0
  0
LINE
  5
2FA2
  8
細線
  6
CONTINUOUS
 10
3811.3793783426481
 20
-477.61095117337788
 30
0.0
 11
3819.8800972528438
 21
-477.61095117337788
 31
0.0
  0
LINE
  5
2FA3
  8
細線
  6
CONTINUOUS
 10
3829.7702704029598
 20
-477.61095117337788
 30
0.0
 11
3834.4502704029592
 21
-477.61095117337788
 31
0.0
  0
LINE
  5
2FA4
  8
細線
  6
CONTINUOUS
 10
3834.675223369647
 20
-477.61095117337788
 30
0.0
 11
3839.3447698469622
 21
-477.61095117337788
 31
0.0
  0
LINE
  5
2FA5
  8
細線
  6
CONTINUOUS
 10
3847.3338041624088
 20
-477.61095117337788
 30
0.0
 11
3851.2938041624088
 21
-477.61095117337788
 31
0.0
  0
LINE
  5
2FA6
  8
細線
  6
CONTINUOUS
 10
3747.5984237849138
 20
-476.89095117337678
 30
0.0
 11
3754.9039520857868
 21
-476.89095117337678
 31
0.0
  0
LINE
  5
2FA7
  8
細線
  6
CONTINUOUS
 10
3765.463602638079
 20
-476.89095117337678
 30
0.0
 11
3783.9354040425001
 21
-476.89095117337678
 31
0.0
  0
LINE
  5
2FA8
  8
細線
  6
CONTINUOUS
 10
3787.1344394505008
 20
-476.89095117337678
 30
0.0
 11
3791.8144394505011
 21
-476.89095117337678
 31
0.0
  0
LINE
  5
2FA9
  8
細線
  6
CONTINUOUS
 10
3803.4351198565191
 20
-476.89095117337678
 30
0.0
 11
3808.115119856518
 21
-476.89095117337678
 31
0.0
  0
LINE
  5
2FAA
  8
細線
  6
CONTINUOUS
 10
3811.715119856518
 20
-476.89095117337678
 30
0.0
 11
3819.5443557389722
 21
-476.89095117337678
 31
0.0
  0
LINE
  5
2FAB
  8
細線
  6
CONTINUOUS
 10
3829.7702704029598
 20
-476.89095117337678
 30
0.0
 11
3838.894863913587
 21
-476.89095117337678
 31
0.0
  0
LINE
  5
2FAC
  8
細線
  6
CONTINUOUS
 10
3847.3338041624088
 20
-476.89095117337678
 30
0.0
 11
3851.2938041624088
 21
-476.89095117337678
 31
0.0
  0
LINE
  5
2FAD
  8
細線
  6
CONTINUOUS
 10
3747.934165298786
 20
-476.17095117337658
 30
0.0
 11
3754.5682105719161
 21
-476.17095117337658
 31
0.0
  0
LINE
  5
2FAE
  8
細線
  6
CONTINUOUS
 10
3765.463602638079
 20
-476.17095117337658
 30
0.0
 11
3783.2544239556169
 21
-476.17095117337658
 31
0.0
  0
LINE
  5
2FAF
  8
細線
  6
CONTINUOUS
 10
3786.7986979366292
 20
-476.17095117337658
 30
0.0
 11
3791.4786979366299
 21
-476.17095117337658
 31
0.0
  0
LINE
  5
2FB0
  8
細線
  6
CONTINUOUS
 10
3803.7708613703908
 20
-476.17095117337658
 30
0.0
 11
3808.4508613703902
 21
-476.17095117337658
 31
0.0
  0
LINE
  5
2FB1
  8
細線
  6
CONTINUOUS
 10
3812.0508613703892
 20
-476.17095117337658
 30
0.0
 11
3819.208614225101
 21
-476.17095117337658
 31
0.0
  0
LINE
  5
2FB2
  8
細線
  6
CONTINUOUS
 10
3829.7702704029598
 20
-476.17095117337658
 30
0.0
 11
3838.4449579802108
 21
-476.17095117337658
 31
0.0
  0
LINE
  5
2FB3
  8
細線
  6
CONTINUOUS
 10
3847.3338041624088
 20
-476.17095117337658
 30
0.0
 11
3851.2938041624088
 21
-476.17095117337658
 31
0.0
  0
LINE
  5
2FB4
  8
細線
  6
CONTINUOUS
 10
3748.2699068126572
 20
-475.45095117337718
 30
0.0
 11
3754.2324690580431
 21
-475.45095117337718
 31
0.0
  0
LINE
  5
2FB5
  8
細線
  6
CONTINUOUS
 10
3765.463602638079
 20
-475.45095117337718
 30
0.0
 11
3782.2544668540809
 21
-475.45095117337718
 31
0.0
  0
LINE
  5
2FB6
  8
細線
  6
CONTINUOUS
 10
3786.462956422758
 20
-475.45095117337718
 30
0.0
 11
3791.1429564227592
 21
-475.45095117337718
 31
0.0
  0
LINE
  5
2FB7
  8
細線
  6
CONTINUOUS
 10
3804.106602884262
 20
-475.45095117337718
 30
0.0
 11
3808.7866028842609
 21
-475.45095117337718
 31
0.0
  0
LINE
  5
2FB8
  8
細線
  6
CONTINUOUS
 10
3812.3866028842622
 20
-475.45095117337718
 30
0.0
 11
3818.872872711228
 21
-475.45095117337718
 31
0.0
  0
LINE
  5
2FB9
  8
細線
  6
CONTINUOUS
 10
3829.7702704029598
 20
-475.45095117337718
 30
0.0
 11
3837.9950520468369
 21
-475.45095117337718
 31
0.0
  0
LINE
  5
2FBA
  8
細線
  6
CONTINUOUS
 10
3847.3338041624088
 20
-475.45095117337718
 30
0.0
 11
3851.2938041624088
 21
-475.45095117337718
 31
0.0
  0
LINE
  5
2FBB
  8
細線
  6
CONTINUOUS
 10
3748.6056483265288
 20
-474.73095117337692
 30
0.0
 11
3753.8967275441728
 21
-474.73095117337692
 31
0.0
  0
LINE
  5
2FBC
  8
細線
  6
CONTINUOUS
 10
3765.463602638079
 20
-474.73095117337692
 30
0.0
 11
3780.8106294408558
 21
-474.73095117337692
 31
0.0
  0
LINE
  5
2FBD
  8
細線
  6
CONTINUOUS
 10
3786.1272149088859
 20
-474.73095117337692
 30
0.0
 11
3790.8072149088862
 21
-474.73095117337692
 31
0.0
  0
LINE
  5
2FBE
  8
細線
  6
CONTINUOUS
 10
3804.4423443981341
 20
-474.73095117337692
 30
0.0
 11
3809.1223443981339
 21
-474.73095117337692
 31
0.0
  0
LINE
  5
2FBF
  8
細線
  6
CONTINUOUS
 10
3812.7223443981338
 20
-474.73095117337692
 30
0.0
 11
3818.5371311973581
 21
-474.73095117337692
 31
0.0
  0
LINE
  5
2FC0
  8
細線
  6
CONTINUOUS
 10
3829.7702704029598
 20
-474.73095117337692
 30
0.0
 11
3837.5451461134612
 21
-474.73095117337692
 31
0.0
  0
LINE
  5
2FC1
  8
細線
  6
CONTINUOUS
 10
3847.3338041624088
 20
-474.73095117337692
 30
0.0
 11
3851.2938041624088
 21
-474.73095117337692
 31
0.0
  0
LINE
  5
2FC2
  8
細線
  6
CONTINUOUS
 10
3748.9413898404
 20
-474.01095117337758
 30
0.0
 11
3753.5609860302998
 21
-474.01095117337758
 31
0.0
  0
LINE
  5
2FC3
  8
細線
  6
CONTINUOUS
 10
3765.463602638079
 20
-474.01095117337758
 30
0.0
 11
3778.6924050301709
 21
-474.01095117337758
 31
0.0
  0
LINE
  5
2FC4
  8
細線
  6
CONTINUOUS
 10
3785.7914733950151
 20
-474.01095117337758
 30
0.0
 11
3790.4714733950159
 21
-474.01095117337758
 31
0.0
  0
LINE
  5
2FC5
  8
細線
  6
CONTINUOUS
 10
3804.7780859120048
 20
-474.01095117337758
 30
0.0
 11
3809.4580859120051
 21
-474.01095117337758
 31
0.0
  0
LINE
  5
2FC6
  8
細線
  6
CONTINUOUS
 10
3813.058085912005
 20
-474.01095117337758
 30
0.0
 11
3818.2013896834869
 21
-474.01095117337758
 31
0.0
  0
LINE
  5
2FC7
  8
細線
  6
CONTINUOUS
 10
3829.7702704029598
 20
-474.01095117337758
 30
0.0
 11
3837.0952401800869
 21
-474.01095117337758
 31
0.0
  0
LINE
  5
2FC8
  8
細線
  6
CONTINUOUS
 10
3847.3338041624088
 20
-474.01095117337758
 30
0.0
 11
3851.2938041624088
 21
-474.01095117337758
 31
0.0
  0
LINE
  5
2FC9
  8
細線
  6
CONTINUOUS
 10
3700.5420566312318
 20
-493.92278618812861
 30
0.0
 11
3715.6759159191438
 21
-493.92278618812861
 31
0.0
  0
LINE
  5
2FCA
  8
細線
  6
CONTINUOUS
 10
3700.5420566312318
 20
-493.56278618812797
 30
0.0
 11
3715.6759159191438
 21
-493.56278618812797
 31
0.0
  0
LINE
  5
2FCB
  8
細線
  6
CONTINUOUS
 10
3700.5420566312318
 20
-493.2027861881283
 30
0.0
 11
3715.6759159191438
 21
-493.2027861881283
 31
0.0
  0
LINE
  5
2FCC
  8
細線
  6
CONTINUOUS
 10
3700.5420566312318
 20
-492.84278618812868
 30
0.0
 11
3715.6759159191438
 21
-492.84278618812868
 31
0.0
  0
LINE
  5
2FCD
  8
細線
  6
CONTINUOUS
 10
3700.5420566312318
 20
-492.48278618812901
 30
0.0
 11
3715.6759159191438
 21
-492.48278618812901
 31
0.0
  0
LINE
  5
2FCE
  8
細線
  6
CONTINUOUS
 10
3700.5420566312318
 20
-492.12278618812837
 30
0.0
 11
3715.6759159191438
 21
-492.12278618812837
 31
0.0
  0
LINE
  5
2FCF
  8
細線
  6
CONTINUOUS
 10
3700.5420566312318
 20
-491.7627861881287
 30
0.0
 11
3715.6759159191438
 21
-491.7627861881287
 31
0.0
  0
LINE
  5
2FD0
  8
細線
  6
CONTINUOUS
 10
3700.5420566312318
 20
-491.40278618812812
 30
0.0
 11
3715.6759159191438
 21
-491.40278618812812
 31
0.0
  0
LINE
  5
2FD1
  8
細線
  6
CONTINUOUS
 10
3700.5420566312318
 20
-491.04278618812941
 30
0.0
 11
3715.6759159191438
 21
-491.04278618812941
 31
0.0
  0
LINE
  5
2FD2
  8
細線
  6
CONTINUOUS
 10
3700.5420566312318
 20
-490.68278618812877
 30
0.0
 11
3715.6759159191438
 21
-490.68278618812877
 31
0.0
  0
LINE
  5
2FD3
  8
細線
  6
CONTINUOUS
 10
3700.5420566312318
 20
-490.3227861881283
 30
0.0
 11
3715.6759159191438
 21
-490.3227861881283
 31
0.0
  0
LINE
  5
2FD4
  8
細線
  6
CONTINUOUS
 10
3700.5420566312318
 20
-489.96278618812943
 30
0.0
 11
3715.6759159191438
 21
-489.96278618812943
 31
0.0
  0
LINE
  5
2FD5
  8
細線
  6
CONTINUOUS
 10
3700.5420566312318
 20
-489.60278618812799
 30
0.0
 11
3715.6759159191438
 21
-489.60278618812799
 31
0.0
  0
LINE
  5
2FD6
  8
細線
  6
CONTINUOUS
 10
3700.5420566312318
 20
-489.24278618812917
 30
0.0
 11
3715.6759159191438
 21
-489.24278618812917
 31
0.0
  0
LINE
  5
2FD7
  8
細線
  6
CONTINUOUS
 10
3700.5420566312318
 20
-488.88278618812859
 30
0.0
 11
3715.6759159191438
 21
-488.88278618812859
 31
0.0
  0
LINE
  5
2FD8
  8
細線
  6
CONTINUOUS
 10
3700.5420566312318
 20
-488.52278618812892
 30
0.0
 11
3715.6759159191438
 21
-488.52278618812892
 31
0.0
  0
LINE
  5
2FD9
  8
細線
  6
CONTINUOUS
 10
3700.5420566312318
 20
-488.1627861881293
 30
0.0
 11
3715.6759159191438
 21
-488.1627861881293
 31
0.0
  0
LINE
  5
2FDA
  8
細線
  6
CONTINUOUS
 10
3700.5420566312318
 20
-487.80278618812957
 30
0.0
 11
3715.6759159191438
 21
-487.80278618812957
 31
0.0
  0
LINE
  5
2FDB
  8
細線
  6
CONTINUOUS
 10
3700.5420566312318
 20
-487.44278618812899
 30
0.0
 11
3715.6759159191438
 21
-487.44278618812899
 31
0.0
  0
LINE
  5
2FDC
  8
細線
  6
CONTINUOUS
 10
3700.5420566312318
 20
-487.08278618812841
 30
0.0
 11
3715.6759159191438
 21
-487.08278618812841
 31
0.0
  0
LINE
  5
2FDD
  8
細線
  6
CONTINUOUS
 10
3700.5420566312318
 20
-486.72278618812868
 30
0.0
 11
3715.6759159191438
 21
-486.72278618812868
 31
0.0
  0
LINE
  5
2FDE
  8
細線
  6
CONTINUOUS
 10
3700.5420566312318
 20
-486.36278618812901
 30
0.0
 11
3715.6759159191438
 21
-486.36278618812901
 31
0.0
  0
LINE
  5
2FDF
  8
細線
  6
CONTINUOUS
 10
3700.5420566312318
 20
-486.00278618812939
 30
0.0
 11
3715.6759159191438
 21
-486.00278618812939
 31
0.0
  0
LINE
  5
2FE0
  8
細線
  6
CONTINUOUS
 10
3700.5420566312318
 20
-485.64278618812892
 30
0.0
 11
3715.6759159191438
 21
-485.64278618812892
 31
0.0
  0
LINE
  5
2FE1
  8
細線
  6
CONTINUOUS
 10
3700.5420566312318
 20
-485.28278618812919
 30
0.0
 11
3715.6759159191438
 21
-485.28278618812919
 31
0.0
  0
LINE
  5
2FE2
  8
細線
  6
CONTINUOUS
 10
3700.5420566312318
 20
-484.92278618812952
 30
0.0
 11
3715.6759159191438
 21
-484.92278618812952
 31
0.0
  0
LINE
  5
2FE3
  8
細線
  6
CONTINUOUS
 10
3700.5420566312318
 20
-484.56278618812979
 30
0.0
 11
3715.6759159191438
 21
-484.56278618812979
 31
0.0
  0
LINE
  5
2FE4
  8
細線
  6
CONTINUOUS
 10
3700.5420566312318
 20
-484.20278618812921
 30
0.0
 11
3715.6759159191438
 21
-484.20278618812921
 31
0.0
  0
LINE
  5
2FE5
  8
細線
  6
CONTINUOUS
 10
3700.5420566312318
 20
-483.84278618812863
 30
0.0
 11
3715.6759159191438
 21
-483.84278618812863
 31
0.0
  0
LINE
  5
2FE6
  8
細線
  6
CONTINUOUS
 10
3700.5420566312318
 20
-483.48278618812901
 30
0.0
 11
3715.6759159191438
 21
-483.48278618812901
 31
0.0
  0
LINE
  5
2FE7
  8
細線
  6
CONTINUOUS
 10
3700.5420566312318
 20
-483.12278618812837
 30
0.0
 11
3715.6759159191438
 21
-483.12278618812837
 31
0.0
  0
LINE
  5
2FE8
  8
細線
  6
CONTINUOUS
 10
3700.5420566312318
 20
-482.76278618812961
 30
0.0
 11
3715.6759159191438
 21
-482.76278618812961
 31
0.0
  0
LINE
  5
2FE9
  8
細線
  6
CONTINUOUS
 10
3700.5420566312318
 20
-482.40278618812903
 30
0.0
 11
3715.6759159191438
 21
-482.40278618812903
 31
0.0
  0
LINE
  5
2FEA
  8
細線
  6
CONTINUOUS
 10
3700.5420566312318
 20
-482.0427861881293
 30
0.0
 11
3715.6759159191438
 21
-482.0427861881293
 31
0.0
  0
LINE
  5
2FEB
  8
細線
  6
CONTINUOUS
 10
3700.5420566312318
 20
-481.68278618812877
 30
0.0
 11
3715.6759159191438
 21
-481.68278618812877
 31
0.0
  0
LINE
  5
2FEC
  8
細線
  6
CONTINUOUS
 10
3700.5420566312318
 20
-481.32278618812819
 30
0.0
 11
3715.6759159191438
 21
-481.32278618812819
 31
0.0
  0
LINE
  5
2FED
  8
細線
  6
CONTINUOUS
 10
3700.5420566312318
 20
-480.96278618812948
 30
0.0
 11
3715.6759159191438
 21
-480.96278618812948
 31
0.0
  0
LINE
  5
2FEE
  8
細線
  6
CONTINUOUS
 10
3700.5420566312318
 20
-480.6027861881289
 30
0.0
 11
3715.6759159191438
 21
-480.6027861881289
 31
0.0
  0
LINE
  5
2FEF
  8
細線
  6
CONTINUOUS
 10
3700.5420566312318
 20
-480.24278618812917
 30
0.0
 11
3715.6759159191438
 21
-480.24278618812917
 31
0.0
  0
LINE
  5
2FF0
  8
細線
  6
CONTINUOUS
 10
3700.5420566312318
 20
-479.88278618812859
 30
0.0
 11
3715.6759159191438
 21
-479.88278618812859
 31
0.0
  0
LINE
  5
2FF1
  8
細線
  6
CONTINUOUS
 10
3700.5420566312318
 20
-479.52278618812988
 30
0.0
 11
3715.6759159191438
 21
-479.52278618812988
 31
0.0
  0
LINE
  5
2FF2
  8
細線
  6
CONTINUOUS
 10
3700.5420566312318
 20
-479.1627861881293
 30
0.0
 11
3715.6759159191438
 21
-479.1627861881293
 31
0.0
  0
LINE
  5
2FF3
  8
細線
  6
CONTINUOUS
 10
3734.6742417893288
 20
-462.24278618812917
 30
0.0
 11
3739.943049731884
 21
-462.24278618812917
 31
0.0
  0
LINE
  5
2FF4
  8
細線
  6
CONTINUOUS
 10
3733.6939674619039
 20
-461.52278618812892
 30
0.0
 11
3740.9233240593089
 21
-461.52278618812892
 31
0.0
  0
LINE
  5
2FF5
  8
細線
  6
CONTINUOUS
 10
3733.0477873820209
 20
-460.80278618812952
 30
0.0
 11
3741.5695041391941
 21
-460.80278618812952
 31
0.0
  0
LINE
  5
2FF6
  8
細線
  6
CONTINUOUS
 10
3732.5962016981689
 20
-460.08278618812841
 30
0.0
 11
3742.0210898230448
 21
-460.08278618812841
 31
0.0
  0
LINE
  5
2FF7
  8
細線
  6
CONTINUOUS
 10
3732.2864406711178
 20
-459.36278618812821
 30
0.0
 11
3742.330850850095
 21
-459.36278618812821
 31
0.0
  0
LINE
  5
2FF8
  8
細線
  6
CONTINUOUS
 10
3732.093172735073
 20
-458.64278618812881
 30
0.0
 11
3742.5241187861411
 21
-458.64278618812881
 31
0.0
  0
LINE
  5
2FF9
  8
細線
  6
CONTINUOUS
 10
3732.0036505863059
 20
-457.9227861881285
 30
0.0
 11
3742.6136409349069
 21
-457.9227861881285
 31
0.0
  0
LINE
  5
2FFA
  8
細線
  6
CONTINUOUS
 10
3732.012610572031
 20
-457.20278618812921
 30
0.0
 11
3742.6046809491809
 21
-457.20278618812921
 31
0.0
  0
LINE
  5
2FFB
  8
細線
  6
CONTINUOUS
 10
3732.120562912592
 20
-456.48278618812901
 30
0.0
 11
3742.4967286086212
 21
-456.48278618812901
 31
0.0
  0
LINE
  5
2FFC
  8
細線
  6
CONTINUOUS
 10
3732.333947924848
 20
-455.76278618812972
 30
0.0
 11
3742.2833435963662
 21
-455.76278618812972
 31
0.0
  0
LINE
  5
2FFD
  8
細線
  6
CONTINUOUS
 10
3732.667284594278
 20
-455.04278618812941
 30
0.0
 11
3741.9500069269361
 21
-455.04278618812941
 31
0.0
  0
LINE
  5
2FFE
  8
細線
  6
CONTINUOUS
 10
3733.1493130742779
 20
-454.32278618812819
 30
0.0
 11
3741.4679784469349
 21
-454.32278618812819
 31
0.0
  0
LINE
  5
2FFF
  8
細線
  6
CONTINUOUS
 10
3733.841505250788
 20
-453.60278618812879
 30
0.0
 11
3740.7757862704252
 21
-453.60278618812879
 31
0.0
  0
LINE
  5
3000
  8
細線
  6
CONTINUOUS
 10
3734.9200733346429
 20
-452.8827861881295
 30
0.0
 11
3739.6972181865699
 21
-452.8827861881295
 31
0.0
  0
LINE
  5
3001
  8
細線
  6
CONTINUOUS
 10
3742.3422092780379
 20
-459.3295333219653
 30
0.0
 11
3742.3422092780379
 21
-455.92796277756361
 31
0.0
  0
LINE
  5
3002
  8
細線
  6
CONTINUOUS
 10
3741.6222092780372
 20
-460.73077996566502
 30
0.0
 11
3741.6222092780372
 21
-454.52671613386377
 31
0.0
  0
LINE
  5
3003
  8
細線
  6
CONTINUOUS
 10
3740.9022092780378
 20
-461.54228014652239
 30
0.0
 11
3740.9022092780378
 21
-453.71521595300641
 31
0.0
  0
LINE
  5
3004
  8
細線
  6
CONTINUOUS
 10
3740.1822092780371
 20
-462.09775967846548
 30
0.0
 11
3740.1822092780371
 21
-453.15973642106331
 31
0.0
  0
LINE
  5
3005
  8
細線
  6
CONTINUOUS
 10
3739.4622092780378
 20
-462.4858661667717
 30
0.0
 11
3739.4622092780378
 21
-452.77162993275709
 31
0.0
  0
LINE
  5
3006
  8
細線
  6
CONTINUOUS
 10
3738.742209278038
 20
-462.74483325895329
 30
0.0
 11
3738.742209278038
 21
-452.51266284057562
 31
0.0
  0
LINE
  5
3007
  8
細線
  6
CONTINUOUS
 10
3738.0222092780368
 20
-462.89375131023138
 30
0.0
 11
3738.0222092780368
 21
-452.3637447892965
 31
0.0
  0
LINE
  5
3008
  8
細線
  6
CONTINUOUS
 10
3737.3022092780379
 20
-462.94188185175648
 30
0.0
 11
3737.3022092780379
 21
-452.31561424777237
 31
0.0
  0
LINE
  5
3009
  8
細線
  6
CONTINUOUS
 10
3732.63283011676
 20
-473.8995932211642
 30
0.0
 11
3732.7836181768889
 21
-473.74880516103661
 31
0.0
  0
LINE
  5
300A
  8
細線
  6
CONTINUOUS
 10
3731.614596351852
 20
-473.8995932211642
 30
0.0
 11
3732.4109187519398
 21
-473.10327082107449
 31
0.0
  0
LINE
  5
300B
  8
細線
  6
CONTINUOUS
 10
3730.596362586939
 20
-473.8995932211659
 30
0.0
 11
3732.0382193269929
 21
-472.45773648111248
 31
0.0
  0
LINE
  5
300C
  8
細線
  6
CONTINUOUS
 10
3729.5781288220301
 20
-473.8995932211642
 30
0.0
 11
3731.6655199020438
 21
-471.81220214115132
 31
0.0
  0
LINE
  5
300D
  8
細線
  6
CONTINUOUS
 10
3728.5598950571189
 20
-473.8995932211659
 30
0.0
 11
3731.292820477096
 21
-471.1666678011884
 31
0.0
  0
LINE
  5
300E
  8
細線
  6
CONTINUOUS
 10
3727.5416612922158
 20
-473.8995932211642
 30
0.0
 11
3730.9201210521501
 21
-470.52113346123082
 31
0.0
  0
LINE
  5
300F
  8
細線
  6
CONTINUOUS
 10
3726.5234275273042
 20
-473.8995932211659
 30
0.0
 11
3730.5474216272019
 21
-469.87559912126881
 31
0.0
  0
LINE
  5
3010
  8
細線
  6
CONTINUOUS
 10
3725.5051937623962
 20
-473.8995932211642
 30
0.0
 11
3730.1747222022532
 21
-469.23006478130759
 31
0.0
  0
LINE
  5
3011
  8
細線
  6
CONTINUOUS
 10
3724.486959997485
 20
-473.8995932211659
 30
0.0
 11
3729.8020227773059
 21
-468.58453044134461
 31
0.0
  0
LINE
  5
3012
  8
細線
  6
CONTINUOUS
 10
3723.468726232582
 20
-473.8995932211642
 30
0.0
 11
3729.4293233523599
 21
-467.938996101388
 31
0.0
  0
LINE
  5
3013
  8
細線
  6
CONTINUOUS
 10
3722.4504924676712
 20
-473.8995932211659
 30
0.0
 11
3729.0566239274121
 21
-467.29346176142502
 31
0.0
  0
LINE
  5
3014
  8
細線
  6
CONTINUOUS
 10
3721.4322587027618
 20
-473.8995932211642
 30
0.0
 11
3728.6839245024639
 21
-466.64792742146392
 31
0.0
  0
LINE
  5
3015
  8
細線
  6
CONTINUOUS
 10
3720.414024937852
 20
-473.8995932211642
 30
0.0
 11
3728.3112250775148
 21
-466.00239308150179
 31
0.0
  0
LINE
  5
3016
  8
細線
  6
CONTINUOUS
 10
3719.3957911729422
 20
-473.8995932211659
 30
0.0
 11
3727.938525652567
 21
-465.35685874153978
 31
0.0
  0
LINE
  5
3017
  8
細線
  6
CONTINUOUS
 10
3718.3775574080391
 20
-473.8995932211642
 30
0.0
 11
3727.565826227622
 21
-464.7113244015822
 31
0.0
  0
LINE
  5
3018
  8
細線
  6
CONTINUOUS
 10
3717.4335034156002
 20
-473.82541344869281
 30
0.0
 11
3727.1931268026729
 21
-464.06579006162099
 31
0.0
  0
LINE
  5
3019
  8
細線
  6
CONTINUOUS
 10
3718.824436605455
 20
-471.41624649392861
 30
0.0
 11
3726.8204273777242
 21
-463.42025572165812
 31
0.0
  0
LINE
  5
301A
  8
細線
  6
CONTINUOUS
 10
3720.2153697953149
 20
-469.00707953915793
 30
0.0
 11
3726.4477279527759
 21
-462.77472138169691
 31
0.0
  0
LINE
  5
301B
  8
細線
  6
CONTINUOUS
 10
3721.6063029851662
 20
-466.59791258440282
 30
0.0
 11
3726.0750285278309
 21
-462.12918704173848
 31
0.0
  0
LINE
  5
301C
  8
細線
  6
CONTINUOUS
 10
3722.9972361750251
 20
-464.18874562963578
 30
0.0
 11
3725.7023291028831
 21
-461.48365270177641
 31
0.0
  0
LINE
  5
301D
  8
細線
  6
CONTINUOUS
 10
3724.38816936488
 20
-461.77957867486879
 30
0.0
 11
3725.3296296779349
 21
-460.8381183618144
 31
0.0
  0
LINE
  5
301E
  8
細線
  6
CONTINUOUS
 10
3717.538104498331
 20
-473.64423905887412
 30
0.0
 11
3717.7934586606239
 21
-473.89959322116692
 31
0.0
  0
LINE
  5
301F
  8
細線
  6
CONTINUOUS
 10
3717.9108039232801
 20
-472.99870471891188
 30
0.0
 11
3718.8116924255341
 21
-473.89959322116692
 31
0.0
  0
LINE
  5
3020
  8
細線
  6
CONTINUOUS
 10
3718.2835033482279
 20
-472.35317037895078
 30
0.0
 11
3719.829926190444
 21
-473.8995932211659
 31
0.0
  0
LINE
  5
3021
  8
細線
  6
CONTINUOUS
 10
3718.6562027731738
 20
-471.70763603899229
 30
0.0
 11
3720.8481599553488
 21
-473.89959322116692
 31
0.0
  0
LINE
  5
3022
  8
細線
  6
CONTINUOUS
 10
3719.0289021981221
 20
-471.06210169903119
 30
0.0
 11
3721.8663937202582
 21
-473.89959322116778
 31
0.0
  0
LINE
  5
3023
  8
細線
  6
CONTINUOUS
 10
3719.4016016230712
 20
-470.41656735906821
 30
0.0
 11
3722.884627485168
 21
-473.89959322116692
 31
0.0
  0
LINE
  5
3024
  8
細線
  6
CONTINUOUS
 10
3719.774301048019
 20
-469.77103301910699
 30
0.0
 11
3723.9028612500779
 21
-473.8995932211659
 31
0.0
  0
LINE
  5
3025
  8
細線
  6
CONTINUOUS
 10
3720.1470004729672
 20
-469.12549867914498
 30
0.0
 11
3724.9210950149859
 21
-473.8995932211642
 31
0.0
  0
LINE
  5
3026
  8
細線
  6
CONTINUOUS
 10
3720.5196998979131
 20
-468.47996433918752
 30
0.0
 11
3725.9393287798939
 21
-473.89959322116778
 31
0.0
  0
LINE
  5
3027
  8
細線
  6
CONTINUOUS
 10
3720.8923993228618
 20
-467.83442999922539
 30
0.0
 11
3726.9575625448019
 21
-473.89959322116692
 31
0.0
  0
LINE
  5
3028
  8
細線
  6
CONTINUOUS
 10
3721.26509874781
 20
-467.18889565926429
 30
0.0
 11
3727.9757963097131
 21
-473.8995932211659
 31
0.0
  0
LINE
  5
3029
  8
細線
  6
CONTINUOUS
 10
3721.6377981727569
 20
-466.5433613193012
 30
0.0
 11
3728.9940300746221
 21
-473.8995932211659
 31
0.0
  0
LINE
  5
302A
  8
細線
  6
CONTINUOUS
 10
3722.0104975977029
 20
-465.8978269793447
 30
0.0
 11
3730.0122638395251
 21
-473.8995932211659
 31
0.0
  0
LINE
  5
302B
  8
細線
  6
CONTINUOUS
 10
3722.3831970226511
 20
-465.25229263938172
 30
0.0
 11
3731.0304976044358
 21
-473.89959322116692
 31
0.0
  0
LINE
  5
302C
  8
細線
  6
CONTINUOUS
 10
3722.7558964476002
 20
-464.60675829942051
 30
0.0
 11
3732.0487313693461
 21
-473.89959322116692
 31
0.0
  0
LINE
  5
302D
  8
細線
  6
CONTINUOUS
 10
3723.1285958725471
 20
-463.96122395945753
 30
0.0
 11
3732.6025393557638
 21
-473.43516744267481
 31
0.0
  0
LINE
  5
302E
  8
細線
  6
CONTINUOUS
 10
3723.5012952974948
 20
-463.31568961949642
 30
0.0
 11
3731.2116061659099
 21
-471.02600048790958
 31
0.0
  0
LINE
  5
302F
  8
細線
  6
CONTINUOUS
 10
3723.8739947224421
 20
-462.67015527953788
 30
0.0
 11
3729.8206729760541
 21
-468.61683353315078
 31
0.0
  0
LINE
  5
3030
  8
細線
  6
CONTINUOUS
 10
3724.2466941473899
 20
-462.02462093957593
 30
0.0
 11
3728.4297397862001
 21
-466.2076665783847
 31
0.0
  0
LINE
  5
3031
  8
細線
  6
CONTINUOUS
 10
3724.6193935723381
 20
-461.37908659961471
 30
0.0
 11
3727.0388065963398
 21
-463.7984996236159
 31
0.0
  0
LINE
  5
3032
  8
細線
  6
CONTINUOUS
 10
3724.992092997285
 20
-460.73355225965179
 30
0.0
 11
3725.647873406484
 21
-461.38933266885078
 31
0.0
  0
LINE
  5
3033
  8
細線
  6
CONTINUOUS
 10
3715.3422092780379
 20
-493.99681272708273
 30
0.0
 11
3715.3422092780379
 21
-478.84164356841251
 31
0.0
  0
LINE
  5
3034
  8
細線
  6
CONTINUOUS
 10
3714.9822092780382
 20
-493.99681272708273
 30
0.0
 11
3714.9822092780382
 21
-478.84164356841251
 31
0.0
  0
LINE
  5
3035
  8
細線
  6
CONTINUOUS
 10
3714.6222092780372
 20
-493.99681272708273
 30
0.0
 11
3714.6222092780372
 21
-478.84164356841251
 31
0.0
  0
LINE
  5
3036
  8
細線
  6
CONTINUOUS
 10
3714.262209278038
 20
-493.99681272708273
 30
0.0
 11
3714.262209278038
 21
-478.84164356841251
 31
0.0
  0
LINE
  5
3037
  8
細線
  6
CONTINUOUS
 10
3713.9022092780378
 20
-493.99681272708273
 30
0.0
 11
3713.9022092780378
 21
-478.84164356841251
 31
0.0
  0
LINE
  5
3038
  8
細線
  6
CONTINUOUS
 10
3713.5422092780382
 20
-493.99681272708273
 30
0.0
 11
3713.5422092780382
 21
-478.84164356841251
 31
0.0
  0
LINE
  5
3039
  8
細線
  6
CONTINUOUS
 10
3713.182209278038
 20
-493.99681272708273
 30
0.0
 11
3713.182209278038
 21
-478.84164356841251
 31
0.0
  0
LINE
  5
303A
  8
細線
  6
CONTINUOUS
 10
3712.8222092780379
 20
-493.99681272708273
 30
0.0
 11
3712.8222092780379
 21
-478.84164356841251
 31
0.0
  0
LINE
  5
303B
  8
細線
  6
CONTINUOUS
 10
3712.4622092780378
 20
-493.99681272708273
 30
0.0
 11
3712.4622092780378
 21
-478.84164356841251
 31
0.0
  0
LINE
  5
303C
  8
細線
  6
CONTINUOUS
 10
3712.1022092780381
 20
-493.99681272708273
 30
0.0
 11
3712.1022092780381
 21
-478.84164356841251
 31
0.0
  0
LINE
  5
303D
  8
細線
  6
CONTINUOUS
 10
3711.742209278038
 20
-493.99681272708273
 30
0.0
 11
3711.742209278038
 21
-478.84164356841251
 31
0.0
  0
LINE
  5
303E
  8
細線
  6
CONTINUOUS
 10
3711.382209278037
 20
-493.99681272708273
 30
0.0
 11
3711.382209278037
 21
-478.84164356841251
 31
0.0
  0
LINE
  5
303F
  8
細線
  6
CONTINUOUS
 10
3711.0222092780382
 20
-493.99681272708273
 30
0.0
 11
3711.0222092780382
 21
-478.84164356841251
 31
0.0
  0
LINE
  5
3040
  8
細線
  6
CONTINUOUS
 10
3710.6622092780381
 20
-493.99681272708273
 30
0.0
 11
3710.6622092780381
 21
-478.84164356841251
 31
0.0
  0
LINE
  5
3041
  8
細線
  6
CONTINUOUS
 10
3710.3022092780379
 20
-493.99681272708273
 30
0.0
 11
3710.3022092780379
 21
-478.84164356841251
 31
0.0
  0
LINE
  5
3042
  8
細線
  6
CONTINUOUS
 10
3709.9422092780369
 20
-493.99681272708273
 30
0.0
 11
3709.9422092780369
 21
-478.84164356841251
 31
0.0
  0
LINE
  5
3043
  8
細線
  6
CONTINUOUS
 10
3709.5822092780381
 20
-493.99681272708273
 30
0.0
 11
3709.5822092780381
 21
-478.84164356841251
 31
0.0
  0
LINE
  5
3044
  8
細線
  6
CONTINUOUS
 10
3709.222209278038
 20
-493.99681272708273
 30
0.0
 11
3709.222209278038
 21
-478.84164356841251
 31
0.0
  0
LINE
  5
3045
  8
細線
  6
CONTINUOUS
 10
3708.8622092780379
 20
-493.99681272708273
 30
0.0
 11
3708.8622092780379
 21
-478.84164356841251
 31
0.0
  0
LINE
  5
3046
  8
細線
  6
CONTINUOUS
 10
3708.5022092780382
 20
-493.99681272708273
 30
0.0
 11
3708.5022092780382
 21
-478.84164356841251
 31
0.0
  0
LINE
  5
3047
  8
細線
  6
CONTINUOUS
 10
3708.1422092780372
 20
-493.99681272708273
 30
0.0
 11
3708.1422092780372
 21
-478.84164356841251
 31
0.0
  0
LINE
  5
3048
  8
細線
  6
CONTINUOUS
 10
3707.782209278037
 20
-493.99681272708273
 30
0.0
 11
3707.782209278037
 21
-478.84164356841251
 31
0.0
  0
LINE
  5
3049
  8
細線
  6
CONTINUOUS
 10
3707.4222092780369
 20
-493.99681272708273
 30
0.0
 11
3707.4222092780369
 21
-478.84164356841251
 31
0.0
  0
LINE
  5
304A
  8
細線
  6
CONTINUOUS
 10
3707.0622092780382
 20
-493.99681272708273
 30
0.0
 11
3707.0622092780382
 21
-478.84164356841251
 31
0.0
  0
LINE
  5
304B
  8
細線
  6
CONTINUOUS
 10
3706.702209278038
 20
-493.99681272708273
 30
0.0
 11
3706.702209278038
 21
-478.84164356841251
 31
0.0
  0
LINE
  5
304C
  8
細線
  6
CONTINUOUS
 10
3706.3422092780379
 20
-493.99681272708273
 30
0.0
 11
3706.3422092780379
 21
-478.84164356841251
 31
0.0
  0
LINE
  5
304D
  8
細線
  6
CONTINUOUS
 10
3705.9822092780369
 20
-493.99681272708273
 30
0.0
 11
3705.9822092780369
 21
-478.84164356841251
 31
0.0
  0
LINE
  5
304E
  8
細線
  6
CONTINUOUS
 10
3705.6222092780372
 20
-493.99681272708273
 30
0.0
 11
3705.6222092780372
 21
-478.84164356841251
 31
0.0
  0
LINE
  5
304F
  8
細線
  6
CONTINUOUS
 10
3705.262209278038
 20
-493.99681272708273
 30
0.0
 11
3705.262209278038
 21
-478.84164356841251
 31
0.0
  0
LINE
  5
3050
  8
細線
  6
CONTINUOUS
 10
3704.9022092780378
 20
-493.99681272708273
 30
0.0
 11
3704.9022092780378
 21
-478.84164356841251
 31
0.0
  0
LINE
  5
3051
  8
細線
  6
CONTINUOUS
 10
3704.5422092780382
 20
-493.99681272708273
 30
0.0
 11
3704.5422092780382
 21
-478.84164356841251
 31
0.0
  0
LINE
  5
3052
  8
細線
  6
CONTINUOUS
 10
3704.1822092780371
 20
-493.99681272708273
 30
0.0
 11
3704.1822092780371
 21
-478.84164356841251
 31
0.0
  0
LINE
  5
3053
  8
細線
  6
CONTINUOUS
 10
3703.822209278037
 20
-493.99681272708273
 30
0.0
 11
3703.822209278037
 21
-478.84164356841251
 31
0.0
  0
LINE
  5
3054
  8
細線
  6
CONTINUOUS
 10
3703.4622092780378
 20
-493.99681272708273
 30
0.0
 11
3703.4622092780378
 21
-478.84164356841251
 31
0.0
  0
LINE
  5
3055
  8
細線
  6
CONTINUOUS
 10
3703.1022092780381
 20
-493.99681272708273
 30
0.0
 11
3703.1022092780381
 21
-478.84164356841251
 31
0.0
  0
LINE
  5
3056
  8
細線
  6
CONTINUOUS
 10
3702.742209278038
 20
-493.99681272708273
 30
0.0
 11
3702.742209278038
 21
-478.84164356841251
 31
0.0
  0
LINE
  5
3057
  8
細線
  6
CONTINUOUS
 10
3702.382209278037
 20
-493.99681272708273
 30
0.0
 11
3702.382209278037
 21
-478.84164356841251
 31
0.0
  0
LINE
  5
3058
  8
細線
  6
CONTINUOUS
 10
3702.0222092780382
 20
-493.99681272708273
 30
0.0
 11
3702.0222092780382
 21
-478.84164356841251
 31
0.0
  0
LINE
  5
3059
  8
細線
  6
CONTINUOUS
 10
3701.6622092780372
 20
-493.99681272708273
 30
0.0
 11
3701.6622092780372
 21
-478.84164356841251
 31
0.0
  0
LINE
  5
305A
  8
細線
  6
CONTINUOUS
 10
3701.3022092780379
 20
-493.99681272708273
 30
0.0
 11
3701.3022092780379
 21
-478.84164356841251
 31
0.0
  0
LINE
  5
305B
  8
細線
  6
CONTINUOUS
 10
3700.9422092780378
 20
-493.99681272708273
 30
0.0
 11
3700.9422092780378
 21
-478.84164356841251
 31
0.0
  0
LINE
  5
305C
  8
細線
  6
CONTINUOUS
 10
3700.5822092780381
 20
-493.99681272708273
 30
0.0
 11
3700.5822092780381
 21
-478.84164356841251
 31
0.0
  0
LINE
  5
305D
  8
細線
  6
CONTINUOUS
 10
3708.8613004489821
 20
-467.76396338982471
 30
0.0
 11
3688.3767302444721
 21
-494.43570990100261
 31
0.0
  0
LINE
  5
305E
  8
細線
  6
CONTINUOUS
 10
3688.3767302444721
 20
-494.43570990100261
 30
0.0
 11
3686.3700784693351
 21
-495.27181480730951
 31
0.0
  0
LINE
  5
305F
  8
細線
  6
CONTINUOUS
 10
3686.3700784693351
 20
-495.27181480730951
 30
0.0
 11
3684.5306476754608
 21
-495.94069873235497
 31
0.0
  0
LINE
  5
3060
  8
細線
  6
CONTINUOUS
 10
3684.5306476754608
 20
-495.94069873235497
 30
0.0
 11
3683.527321787893
 21
-495.02098333541778
 31
0.0
  0
LINE
  5
3061
  8
細線
  6
CONTINUOUS
 10
3683.527321787893
 20
-495.02098333541778
 30
0.0
 11
3682.691216881587
 21
-493.85043646658909
 31
0.0
  0
LINE
  5
3062
  8
細線
  6
CONTINUOUS
 10
3682.691216881587
 20
-493.85043646658909
 30
0.0
 11
3682.022332956541
 21
-491.59295321956091
 31
0.0
  0
LINE
  5
3063
  8
細線
  6
CONTINUOUS
 10
3682.022332956541
 20
-491.59295321956091
 30
0.0
 11
3682.691216881587
 21
-489.50269095379412
 31
0.0
  0
LINE
  5
3064
  8
細線
  6
CONTINUOUS
 10
3682.691216881587
 20
-489.50269095379412
 30
0.0
 11
3685.1995316005068
 21
-485.90743985667581
 31
0.0
  0
LINE
  5
3065
  8
細線
  6
CONTINUOUS
 10
3685.1995316005068
 20
-485.90743985667581
 30
0.0
 11
3704.0955024830341
 21
-460.32262972369563
 31
0.0
  0
LINE
  5
3066
  8
細線
  6
CONTINUOUS
 10
3704.0955024830341
 20
-460.32262972369563
 30
0.0
 11
3704.0955024830341
 21
-458.4831989298213
 31
0.0
  0
LINE
  5
3067
  8
細線
  6
CONTINUOUS
 10
3704.0955024830341
 20
-458.4831989298213
 30
0.0
 11
3704.5971654268192
 21
-457.3126520609926
 31
0.0
  0
LINE
  5
3068
  8
細線
  6
CONTINUOUS
 10
3704.5971654268192
 20
-457.3126520609926
 30
0.0
 11
3705.9349332769089
 21
-455.80766322964109
 31
0.0
  0
LINE
  5
3069
  8
細線
  6
CONTINUOUS
 10
3705.9349332769089
 20
-455.80766322964109
 30
0.0
 11
3706.3529857300618
 21
-455.38961077648707
 31
0.0
  0
LINE
  5
306A
  8
細線
  6
CONTINUOUS
 10
3706.3529857300618
 20
-455.38961077648707
 30
0.0
 11
3707.1054801457381
 21
-454.30267439828867
 31
0.0
  0
LINE
  5
306B
  8
細線
  6
CONTINUOUS
 10
3707.1054801457381
 20
-454.30267439828867
 30
0.0
 11
3708.359637505197
 21
-454.13545341702729
 31
0.0
  0
LINE
  5
306C
  8
細線
  6
CONTINUOUS
 10
3708.359637505197
 20
-454.13545341702729
 30
0.0
 11
3710.5335102615941
 21
-453.7174009638743
 31
0.0
  0
LINE
  5
306D
  8
細線
  6
CONTINUOUS
 10
3710.5335102615941
 20
-453.7174009638743
 30
0.0
 11
3711.369615167901
 21
-453.80101145450539
 31
0.0
  0
LINE
  5
306E
  8
細線
  6
CONTINUOUS
 10
3711.369615167901
 20
-453.80101145450539
 30
0.0
 11
3713.125435471145
 21
-454.38628488891891
 31
0.0
  0
LINE
  5
306F
  8
細線
  6
CONTINUOUS
 10
3713.125435471145
 20
-454.38628488891891
 30
0.0
 11
3713.794319396191
 21
-455.22238979522581
 31
0.0
  0
LINE
  5
3070
  8
細線
  6
CONTINUOUS
 10
3713.794319396191
 20
-455.22238979522581
 30
0.0
 11
3715.6337501900648
 21
-457.6470940235144
 31
0.0
  0
LINE
  5
3071
  8
細線
  6
CONTINUOUS
 10
3715.6337501900648
 20
-457.6470940235144
 30
0.0
 11
3721.319263552949
 21
-467.09507946477919
 31
0.0
  0
LINE
  5
3072
  8
細線
  6
CONTINUOUS
 10
3725.3471696357769
 20
-473.8995932211659
 30
0.0
 11
3733.4395076874821
 21
-487.86886893643208
 31
0.0
  0
LINE
  5
3073
  8
細線
  6
CONTINUOUS
 10
3733.4395076874821
 20
-487.86886893643208
 30
0.0
 11
3734.215502924154
 21
-489.86428525929972
 31
0.0
  0
LINE
  5
3074
  8
細線
  6
CONTINUOUS
 10
3734.215502924154
 20
-489.86428525929972
 30
0.0
 11
3733.8829335370078
 21
-490.86199342073309
 31
0.0
  0
LINE
  5
3075
  8
細線
  6
CONTINUOUS
 10
3733.8829335370078
 20
-490.86199342073309
 30
0.0
 11
3732.8852253755749
 21
-492.2476992005017
 31
0.0
  0
LINE
  5
3076
  8
細線
  6
CONTINUOUS
 10
3732.8852253755749
 20
-492.2476992005017
 30
0.0
 11
3729.0052491922211
 21
-493.4116920555075
 31
0.0
  0
LINE
  5
3077
  8
細線
  6
CONTINUOUS
 10
3729.0052491922211
 20
-493.4116920555075
 30
0.0
 11
3726.67726348221
 21
-494.2431155233694
 31
0.0
  0
LINE
  5
3078
  8
細線
  6
CONTINUOUS
 10
3726.67726348221
 20
-494.2431155233694
 30
0.0
 11
3724.6264189281528
 21
-493.4116920555075
 31
0.0
  0
LINE
  5
3079
  8
細線
  6
CONTINUOUS
 10
3724.6264189281528
 20
-493.4116920555075
 30
0.0
 11
3721.4670097502781
 21
-490.03056995287028
 31
0.0
  0
LINE
  5
307A
  8
細線
  6
CONTINUOUS
 10
3721.4670097502781
 20
-490.03056995287028
 30
0.0
 11
3721.3561532878971
 21
-488.20143832357599
 31
0.0
  0
LINE
  5
307B
  8
細線
  6
CONTINUOUS
 10
3721.3561532878971
 20
-488.20143832357599
 30
0.0
 11
3708.8613004489821
 21
-467.76396338982471
 31
0.0
  0
LINE
  5
307C
  8
細線
  6
CONTINUOUS
 10
3732.496234704432
 20
-492.36439640184238
 30
0.0
 11
3733.5854085836372
 21
-491.27522252263719
 31
0.0
  0
LINE
  5
307D
  8
細線
  6
CONTINUOUS
 10
3731.0416150402821
 20
-492.80078230108887
 30
0.0
 11
3734.1490334883702
 21
-489.69336385300028
 31
0.0
  0
LINE
  5
307E
  8
細線
  6
CONTINUOUS
 10
3729.5869953761248
 20
-493.23716820033718
 30
0.0
 11
3733.8639280341949
 21
-488.96023554226531
 31
0.0
  0
LINE
  5
307F
  8
細線
  6
CONTINUOUS
 10
3728.0547869581678
 20
-493.7511428533839
 30
0.0
 11
3733.5788225800202
 21
-488.22710723153023
 31
0.0
  0
LINE
  5
3080
  8
細線
  6
CONTINUOUS
 10
3726.5828544537349
 20
-494.20484159290521
 30
0.0
 11
3733.2485187918942
 21
-487.53917725474679
 31
0.0
  0
LINE
  5
3081
  8
細線
  6
CONTINUOUS
 10
3725.8583419671681
 20
-493.911120314568
 30
0.0
 11
3732.875024272033
 21
-486.894438009704
 31
0.0
  0
LINE
  5
3082
  8
細線
  6
CONTINUOUS
 10
3725.1338294805978
 20
-493.61739903622811
 30
0.0
 11
3732.50152975217
 21
-486.24969876465781
 31
0.0
  0
LINE
  5
3083
  8
細線
  6
CONTINUOUS
 10
3724.4790322738359
 20
-493.25396247808061
 30
0.0
 11
3732.1280352323038
 21
-485.60495951961138
 31
0.0
  0
LINE
  5
3084
  8
細線
  6
CONTINUOUS
 10
3723.9871735907859
 20
-492.7275873962202
 30
0.0
 11
3731.7545407124412
 21
-484.96022027456502
 31
0.0
  0
LINE
  5
3085
  8
細線
  6
CONTINUOUS
 10
3723.4953149077351
 20
-492.20121231436082
 30
0.0
 11
3731.3810461925782
 21
-484.31548102951859
 31
0.0
  0
LINE
  5
3086
  8
細線
  6
CONTINUOUS
 10
3723.0034562246879
 20
-491.67483723250422
 30
0.0
 11
3731.0075516727161
 21
-483.67074178447592
 31
0.0
  0
LINE
  5
3087
  8
細線
  6
CONTINUOUS
 10
3722.5115975416388
 20
-491.1484621506429
 30
0.0
 11
3730.6340571528531
 21
-483.0260025394295
 31
0.0
  0
LINE
  5
3088
  8
細線
  6
CONTINUOUS
 10
3722.0197388585898
 20
-490.62208706878249
 30
0.0
 11
3730.2605626329878
 21
-482.38126329438398
 31
0.0
  0
LINE
  5
3089
  8
細線
  6
CONTINUOUS
 10
3721.5278801755398
 20
-490.09571198692299
 30
0.0
 11
3729.8870681131252
 21
-481.73652404933682
 31
0.0
  0
LINE
  5
308A
  8
細線
  6
CONTINUOUS
 10
3721.416025675675
 20
-489.18933272188542
 30
0.0
 11
3729.513573593264
 21
-481.091784804295
 31
0.0
  0
LINE
  5
308B
  8
細線
  6
CONTINUOUS
 10
3721.3578408891071
 20
-488.22928374354109
 30
0.0
 11
3729.1400790734001
 21
-480.44704555924773
 31
0.0
  0
LINE
  5
308C
  8
細線
  6
CONTINUOUS
 10
3720.9810303879931
 20
-487.58786047974581
 30
0.0
 11
3728.7665845535362
 21
-479.80230631420221
 31
0.0
  0
LINE
  5
308D
  8
細線
  6
CONTINUOUS
 10
3720.5947023659951
 20
-486.95595473683301
 30
0.0
 11
3728.3930900336718
 21
-479.1575670691559
 31
0.0
  0
LINE
  5
308E
  8
細線
  6
CONTINUOUS
 10
3720.2083743439989
 20
-486.3240489939194
 30
0.0
 11
3728.0195955138088
 21
-478.51282782410863
 31
0.0
  0
LINE
  5
308F
  8
細線
  6
CONTINUOUS
 10
3719.8220463220041
 20
-485.69214325101029
 30
0.0
 11
3727.646100993948
 21
-477.86808857906669
 31
0.0
  0
LINE
  5
3090
  8
細線
  6
CONTINUOUS
 10
3719.435718300007
 20
-485.06023750809749
 30
0.0
 11
3727.272606474085
 21
-477.22334933402129
 31
0.0
  0
LINE
  5
3091
  8
細線
  6
CONTINUOUS
 10
3719.0493902780108
 20
-484.42833176518383
 30
0.0
 11
3726.8991119542202
 21
-476.57861008897402
 31
0.0
  0
LINE
  5
3092
  8
細線
  6
CONTINUOUS
 10
3718.6630622560142
 20
-483.79642602227108
 30
0.0
 11
3726.5256174343572
 21
-475.93387084392771
 31
0.0
  0
LINE
  5
3093
  8
細線
  6
CONTINUOUS
 10
3718.2767342340198
 20
-483.16452027936111
 30
0.0
 11
3726.152122914496
 21
-475.28913159888498
 31
0.0
  0
LINE
  5
3094
  8
細線
  6
CONTINUOUS
 10
3717.8904062120232
 20
-482.5326145364474
 30
0.0
 11
3725.7786283946321
 21
-474.64439235383861
 31
0.0
  0
LINE
  5
3095
  8
細線
  6
CONTINUOUS
 10
3717.504078190027
 20
-481.90070879353379
 30
0.0
 11
3725.405133874769
 21
-473.99965310879128
 31
0.0
  0
LINE
  5
3096
  8
細線
  6
CONTINUOUS
 10
3717.117750168029
 20
-481.2688030506219
 30
0.0
 11
3724.486959997485
 21
-473.8995932211659
 31
0.0
  0
LINE
  5
3097
  8
細線
  6
CONTINUOUS
 10
3716.7314221460351
 20
-480.63689730771279
 30
0.0
 11
3723.468726232582
 21
-473.8995932211642
 31
0.0
  0
LINE
  5
3098
  8
細線
  6
CONTINUOUS
 10
3716.345094124039
 20
-480.00499156479822
 30
0.0
 11
3722.4504924676712
 21
-473.8995932211659
 31
0.0
  0
LINE
  5
3099
  8
細線
  6
CONTINUOUS
 10
3715.958766102041
 20
-479.37308582188638
 30
0.0
 11
3721.4322587027618
 21
-473.8995932211642
 31
0.0
  0
LINE
  5
309A
  8
細線
  6
CONTINUOUS
 10
3715.5724380800448
 20
-478.74118007897272
 30
0.0
 11
3720.414024937852
 21
-473.8995932211642
 31
0.0
  0
LINE
  5
309B
  8
細線
  6
CONTINUOUS
 10
3715.1861100580481
 20
-478.109274336059
 30
0.0
 11
3719.3957911729422
 21
-473.8995932211659
 31
0.0
  0
LINE
  5
309C
  8
細線
  6
CONTINUOUS
 10
3714.7997820360529
 20
-477.47736859314989
 30
0.0
 11
3718.3775574080391
 21
-473.8995932211642
 31
0.0
  0
LINE
  5
309D
  8
細線
  6
CONTINUOUS
 10
3714.4134540140558
 20
-476.84546285023629
 30
0.0
 11
3717.4335034156002
 21
-473.82541344869281
 31
0.0
  0
LINE
  5
309E
  8
細線
  6
CONTINUOUS
 10
3714.0271259920601
 20
-476.2135571073236
 30
0.0
 11
3718.824436605455
 21
-471.41624649392861
 31
0.0
  0
LINE
  5
309F
  8
細線
  6
CONTINUOUS
 10
3713.640797970063
 20
-475.58165136441079
 30
0.0
 11
3720.2153697953149
 21
-469.00707953915793
 31
0.0
  0
LINE
  5
30A0
  8
細線
  6
CONTINUOUS
 10
3713.2544699480682
 20
-474.94974562150082
 30
0.0
 11
3721.2403206442509
 21
-466.9638949253208
 31
0.0
  0
LINE
  5
30A1
  8
細線
  6
CONTINUOUS
 10
3712.868141926072
 20
-474.31783987858807
 30
0.0
 11
3720.8577797822941
 21
-466.32820202236547
 31
0.0
  0
LINE
  5
30A2
  8
細線
  6
CONTINUOUS
 10
3712.481813904074
 20
-473.68593413567442
 30
0.0
 11
3720.4752389203391
 21
-465.69250911941032
 31
0.0
  0
LINE
  5
30A3
  8
細線
  6
CONTINUOUS
 10
3712.0954858820769
 20
-473.05402839276081
 30
0.0
 11
3720.0926980583831
 21
-465.05681621645579
 31
0.0
  0
LINE
  5
30A4
  8
細線
  6
CONTINUOUS
 10
3711.7091578600812
 20
-472.42212264984801
 30
0.0
 11
3719.7101571964281
 21
-464.42112331350057
 31
0.0
  0
LINE
  5
30A5
  8
細線
  6
CONTINUOUS
 10
3711.3228298380859
 20
-471.79021690693889
 30
0.0
 11
3719.3276163344758
 21
-463.78543041054979
 31
0.0
  0
LINE
  5
30A6
  8
細線
  6
CONTINUOUS
 10
3687.1465122467112
 20
-494.94830073340421
 30
0.0
 11
3690.752658021685
 21
-491.3421549584304
 31
0.0
  0
LINE
  5
30A7
  8
細線
  6
CONTINUOUS
 10
3710.9365018160888
 20
-471.15831116402518
 30
0.0
 11
3718.9450754725208
 21
-463.14973750759458
 31
0.0
  0
LINE
  5
30A8
  8
細線
  6
CONTINUOUS
 10
3685.4817278013579
 20
-495.59485141384761
 30
0.0
 11
3694.1238373784759
 21
-486.95274183672831
 31
0.0
  0
LINE
  5
30A9
  8
細線
  6
CONTINUOUS
 10
3710.5501737940931
 20
-470.52640542111249
 30
0.0
 11
3718.5625346105662
 21
-462.51404460464022
 31
0.0
  0
LINE
  5
30AA
  8
細線
  6
CONTINUOUS
 10
3684.3151689150159
 20
-495.74317653527982
 30
0.0
 11
3697.4950167352772
 21
-482.56332871501797
 31
0.0
  0
LINE
  5
30AB
  8
細線
  6
CONTINUOUS
 10
3710.163845772096
 20
-469.89449967819883
 30
0.0
 11
3718.1799937486089
 21
-461.87835170168592
 31
0.0
  0
LINE
  5
30AC
  8
細線
  6
CONTINUOUS
 10
3683.7839165159348
 20
-495.25619516945562
 30
0.0
 11
3700.8661960920499
 21
-478.17391559334141
 31
0.0
  0
LINE
  5
30AD
  8
細線
  6
CONTINUOUS
 10
3709.7775177501012
 20
-469.26259393528971
 30
0.0
 11
3717.797452886658
 21
-461.24265879873423
 31
0.0
  0
LINE
  5
30AE
  8
細線
  6
CONTINUOUS
 10
3683.3079771200478
 20
-494.71390080043278
 30
0.0
 11
3704.2373754488522
 21
-473.78450247162851
 31
0.0
  0
LINE
  5
30AF
  8
細線
  6
CONTINUOUS
 10
3709.391189728105
 20
-468.630688192376
 30
0.0
 11
3717.4149120247021
 21
-460.60696589577992
 31
0.0
  0
LINE
  5
30B0
  8
細線
  6
CONTINUOUS
 10
3682.8837130513339
 20
-494.11993110423589
 30
0.0
 11
3707.6085548056481
 21
-469.39508934992358
 31
0.0
  0
LINE
  5
30B1
  8
細線
  6
CONTINUOUS
 10
3709.004861706107
 20
-467.99878244946331
 30
0.0
 11
3717.032371162747
 21
-459.97127299282369
 31
0.0
  0
LINE
  5
30B2
  8
細線
  6
CONTINUOUS
 10
3682.5640756341541
 20
-493.42133475650678
 30
0.0
 11
3716.649830300792
 21
-459.33558008986932
 31
0.0
  0
LINE
  5
30B3
  8
細線
  6
CONTINUOUS
 10
3682.33133648789
 20
-492.63584013786061
 30
0.0
 11
3716.267289438837
 21
-458.69988718691502
 31
0.0
  0
LINE
  5
30B4
  8
細線
  6
CONTINUOUS
 10
3682.0985973416268
 20
-491.8503455192207
 30
0.0
 11
3715.8847485768829
 21
-458.06419428396327
 31
0.0
  0
LINE
  5
30B5
  8
細線
  6
CONTINUOUS
 10
3682.3444868766192
 20
-490.58622221931768
 30
0.0
 11
3715.482711511866
 21
-457.44799758407078
 31
0.0
  0
LINE
  5
30B6
  8
細線
  6
CONTINUOUS
 10
3683.3406765070122
 20
-488.57179882401442
 30
0.0
 11
3715.043473417199
 21
-456.86900191382892
 31
0.0
  0
LINE
  5
30B7
  8
細線
  6
CONTINUOUS
 10
3685.8004935427771
 20
-485.09374802334008
 30
0.0
 11
3714.6042353225321
 21
-456.29000624358599
 31
0.0
  0
LINE
  5
30B8
  8
細線
  6
CONTINUOUS
 10
3688.677003928618
 20
-481.19900387259389
 30
0.0
 11
3714.1649972278669
 21
-455.7110105733467
 31
0.0
  0
LINE
  5
30B9
  8
細線
  6
CONTINUOUS
 10
3691.5535143144921
 20
-477.30425972181229
 30
0.0
 11
3713.7236815494739
 21
-455.13409248683053
 31
0.0
  0
LINE
  5
30BA
  8
細線
  6
CONTINUOUS
 10
3694.4300247003598
 20
-473.40951557103421
 30
0.0
 11
3713.2711332095132
 21
-454.56840706187938
 31
0.0
  0
LINE
  5
30BB
  8
細線
  6
CONTINUOUS
 10
3697.3065350862371
 20
-469.51477142024618
 30
0.0
 11
3712.6076250809592
 21
-454.2136814255241
 31
0.0
  0
LINE
  5
30BC
  8
細線
  6
CONTINUOUS
 10
3700.1830454721012
 20
-465.62002726947179
 30
0.0
 11
3711.8439497572772
 21
-453.95912298429579
 31
0.0
  0
LINE
  5
30BD
  8
細線
  6
CONTINUOUS
 10
3703.0595558579562
 20
-461.72528311871469
 30
0.0
 11
3711.018899126323
 21
-453.76593985034611
 31
0.0
  0
LINE
  5
30BE
  8
細線
  6
CONTINUOUS
 10
3704.0955024830359
 20
-459.67110272872333
 30
0.0
 11
3709.9338932922401
 21
-453.83271191951962
 31
0.0
  0
LINE
  5
30BF
  8
細線
  6
CONTINUOUS
 10
3704.0955024830341
 20
-458.6528689638148
 30
0.0
 11
3708.6732229166369
 21
-454.07514853021212
 31
0.0
  0
LINE
  5
30C0
  8
細線
  6
CONTINUOUS
 10
3706.3810180854298
 20
-455.34911959650839
 30
0.0
 11
3707.4769991510238
 21
-454.25313853091609
 31
0.0
  0
LINE
  5
30C1
  8
細線
  6
CONTINUOUS
 10
3682.6623908944721
 20
-493.75314876008127
 30
0.0
 11
3684.7647960157369
 21
-495.85555388134662
 31
0.0
  0
LINE
  5
30C2
  8
細線
  6
CONTINUOUS
 10
3682.233660888196
 20
-492.30618498889578
 30
0.0
 11
3685.5115007766708
 21
-495.5840248773697
 31
0.0
  0
LINE
  5
30C3
  8
細線
  6
CONTINUOUS
 10
3682.1475038479921
 20
-491.20179418378069
 30
0.0
 11
3686.2582055376042
 21
-495.31249587339289
 31
0.0
  0
LINE
  5
30C4
  8
細線
  6
CONTINUOUS
 10
3682.3943483970602
 20
-490.43040496793992
 30
0.0
 11
3686.9811465402258
 21
-495.01720311110557
 31
0.0
  0
LINE
  5
30C5
  8
細線
  6
CONTINUOUS
 10
3682.6411929461278
 20
-489.65901575210268
 30
0.0
 11
3687.6998997860401
 21
-494.71772259201538
 31
0.0
  0
LINE
  5
30C6
  8
細線
  6
CONTINUOUS
 10
3683.0248682642482
 20
-489.02445730531372
 30
0.0
 11
3688.4025293593459
 21
-494.40211840041178
 31
0.0
  0
LINE
  5
30C7
  8
細線
  6
CONTINUOUS
 10
3683.4433204964021
 20
-488.42467577255809
 30
0.0
 11
3688.8448472182158
 21
-493.82620249437099
 31
0.0
  0
LINE
  5
30C8
  8
細線
  6
CONTINUOUS
 10
3683.8617727285582
 20
-487.82489423980269
 30
0.0
 11
3689.2871650770858
 21
-493.25028658833202
 31
0.0
  0
LINE
  5
30C9
  8
細線
  6
CONTINUOUS
 10
3684.2802249607089
 20
-487.22511270705081
 30
0.0
 11
3689.7294829359539
 21
-492.67437068229668
 31
0.0
  0
LINE
  5
30CA
  8
細線
  6
CONTINUOUS
 10
3684.6986771928641
 20
-486.62533117429621
 30
0.0
 11
3690.1718007948248
 21
-492.0984547762568
 31
0.0
  0
LINE
  5
30CB
  8
細線
  6
CONTINUOUS
 10
3685.1171294250198
 20
-486.02554964154058
 30
0.0
 11
3690.6141186536952
 21
-491.52253887021692
 31
0.0
  0
LINE
  5
30CC
  8
細線
  6
CONTINUOUS
 10
3685.546909660337
 20
-485.43709611194799
 30
0.0
 11
3691.0564365125661
 21
-490.9466229641771
 31
0.0
  0
LINE
  5
30CD
  8
細線
  6
CONTINUOUS
 10
3685.9794676130982
 20
-484.85142029980528
 30
0.0
 11
3691.4987543714342
 21
-490.3707070581417
 31
0.0
  0
LINE
  5
30CE
  8
細線
  6
CONTINUOUS
 10
3686.4120255658599
 20
-484.26574448765717
 30
0.0
 11
3691.9410722303028
 21
-489.79479115210182
 31
0.0
  0
LINE
  5
30CF
  8
細線
  6
CONTINUOUS
 10
3686.844583518623
 20
-483.68006867550912
 30
0.0
 11
3692.383390089175
 21
-489.21887524606279
 31
0.0
  0
LINE
  5
30D0
  8
細線
  6
CONTINUOUS
 10
3687.2771414713852
 20
-483.09439286336283
 30
0.0
 11
3692.8257079480459
 21
-488.64295934002291
 31
0.0
  0
LINE
  5
30D1
  8
細線
  6
CONTINUOUS
 10
3687.7096994241469
 20
-482.50871705121563
 30
0.0
 11
3693.2680258069149
 21
-488.06704343398309
 31
0.0
  0
LINE
  5
30D2
  8
細線
  6
CONTINUOUS
 10
3688.1422573769069
 20
-481.92304123907201
 30
0.0
 11
3693.7103436657831
 21
-487.4911275279469
 31
0.0
  0
LINE
  5
30D3
  8
細線
  6
CONTINUOUS
 10
3688.5748153296699
 20
-481.33736542692401
 30
0.0
 11
3694.1526615246539
 21
-486.91521162190702
 31
0.0
  0
LINE
  5
30D4
  8
細線
  6
CONTINUOUS
 10
3689.007373282433
 20
-480.75168961477578
 30
0.0
 11
3694.5949793835248
 21
-486.3392957158689
 31
0.0
  0
LINE
  5
30D5
  8
細線
  6
CONTINUOUS
 10
3689.4399312351952
 20
-480.16601380262858
 30
0.0
 11
3695.0372972423961
 21
-485.76337980982902
 31
0.0
  0
LINE
  5
30D6
  8
細線
  6
CONTINUOUS
 10
3689.8724891879551
 20
-479.58033799048502
 30
0.0
 11
3695.4796151012629
 21
-485.18746390379277
 31
0.0
  0
LINE
  5
30D7
  8
細線
  6
CONTINUOUS
 10
3690.3050471407182
 20
-478.99466217833788
 30
0.0
 11
3695.9219329601328
 21
-484.6115479977538
 31
0.0
  0
LINE
  5
30D8
  8
細線
  6
CONTINUOUS
 10
3690.7376050934799
 20
-478.40898636618971
 30
0.0
 11
3696.3642508190042
 21
-484.03563209171301
 31
0.0
  0
LINE
  5
30D9
  8
細線
  6
CONTINUOUS
 10
3691.170163046243
 20
-477.8233105540416
 30
0.0
 11
3696.806568677875
 21
-483.45971618567398
 31
0.0
  0
LINE
  5
30DA
  8
細線
  6
CONTINUOUS
 10
3691.6027209990052
 20
-477.2376347418944
 30
0.0
 11
3697.2488865367441
 21
-482.88380027963422
 31
0.0
  0
LINE
  5
30DB
  8
細線
  6
CONTINUOUS
 10
3692.0352789517642
 20
-476.65195892975089
 30
0.0
 11
3697.691204395614
 21
-482.30788437359791
 31
0.0
  0
LINE
  5
30DC
  8
細線
  6
CONTINUOUS
 10
3692.4678369045282
 20
-476.06628311760369
 30
0.0
 11
3698.1335222544831
 21
-481.731968467559
 31
0.0
  0
LINE
  5
30DD
  8
細線
  6
CONTINUOUS
 10
3692.9003948572899
 20
-475.48060730545552
 30
0.0
 11
3698.5758401133539
 21
-481.15605256152003
 31
0.0
  0
LINE
  5
30DE
  8
細線
  6
CONTINUOUS
 10
3693.332952810053
 20
-474.89493149330832
 30
0.0
 11
3699.018157972223
 21
-480.58013665547918
 31
0.0
  0
LINE
  5
30DF
  8
細線
  6
CONTINUOUS
 10
3693.765510762812
 20
-474.3092556811639
 30
0.0
 11
3699.460475831092
 21
-480.00422074944379
 31
0.0
  0
LINE
  5
30E0
  8
細線
  6
CONTINUOUS
 10
3694.1980687155742
 20
-473.72357986901761
 30
0.0
 11
3699.902793689962
 21
-479.42830484340487
 31
0.0
  0
LINE
  5
30E1
  8
細線
  6
CONTINUOUS
 10
3694.6306266683368
 20
-473.1379040568695
 30
0.0
 11
3700.3451115488319
 21
-478.85238893736408
 31
0.0
  0
LINE
  5
30E2
  8
細線
  6
CONTINUOUS
 10
3695.0631846210999
 20
-472.55222824472128
 30
0.0
 11
3700.7874294077042
 21
-478.27647303132511
 31
0.0
  0
LINE
  5
30E3
  8
細線
  6
CONTINUOUS
 10
3695.495742573863
 20
-471.96655243257408
 30
0.0
 11
3701.2297472665741
 21
-477.70055712528608
 31
0.0
  0
LINE
  5
30E4
  8
細線
  6
CONTINUOUS
 10
3695.9283005266229
 20
-471.38087662043063
 30
0.0
 11
3701.6720651254418
 21
-477.1246412192499
 31
0.0
  0
LINE
  5
30E5
  8
細線
  6
CONTINUOUS
 10
3696.3608584793851
 20
-470.79520080828252
 30
0.0
 11
3702.1143829843122
 21
-476.54872531321001
 31
0.0
  0
LINE
  5
30E6
  8
細線
  6
CONTINUOUS
 10
3696.7934164321482
 20
-470.2095249961352
 30
0.0
 11
3702.5567008431822
 21
-475.9728094071711
 31
0.0
  0
LINE
  5
30E7
  8
細線
  6
CONTINUOUS
 10
3697.2259743849108
 20
-469.6238491839872
 30
0.0
 11
3702.9990187020539
 21
-475.39689350113122
 31
0.0
  0
LINE
  5
30E8
  8
細線
  6
CONTINUOUS
 10
3697.6585323376712
 20
-469.03817337184358
 30
0.0
 11
3703.4413365609212
 21
-474.82097759509492
 31
0.0
  0
LINE
  5
30E9
  8
細線
  6
CONTINUOUS
 10
3698.091090290432
 20
-468.45249755969638
 30
0.0
 11
3703.8836544197911
 21
-474.24506168905498
 31
0.0
  0
LINE
  5
30EA
  8
細線
  6
CONTINUOUS
 10
3698.5236482431951
 20
-467.86682174754827
 30
0.0
 11
3704.325972278662
 21
-473.66914578301601
 31
0.0
  0
LINE
  5
30EB
  8
細線
  6
CONTINUOUS
 10
3698.9562061959568
 20
-467.28114593540198
 30
0.0
 11
3704.7682901375329
 21
-473.09322987697709
 31
0.0
  0
LINE
  5
30EC
  8
細線
  6
CONTINUOUS
 10
3721.4516148816901
 20
-489.77655462113438
 30
0.0
 11
3725.400615989638
 21
-493.72555572908323
 31
0.0
  0
LINE
  5
30ED
  8
細線
  6
CONTINUOUS
 10
3699.3887641487208
 20
-466.69547012325393
 30
0.0
 11
3705.2106079964028
 21
-472.51731397093721
 31
0.0
  0
LINE
  5
30EE
  8
細線
  6
CONTINUOUS
 10
3721.3859223807258
 20
-488.69262835525979
 30
0.0
 11
3726.8682132155118
 21
-494.17491919004658
 31
0.0
  0
LINE
  5
30EF
  8
細線
  6
CONTINUOUS
 10
3699.8213221014812
 20
-466.1097943111094
 30
0.0
 11
3705.652925855271
 21
-471.94139806490102
 31
0.0
  0
LINE
  5
30F0
  8
細線
  6
CONTINUOUS
 10
3720.480209016946
 20
-486.76868122657601
 30
0.0
 11
3727.6184907264942
 21
-493.90696293612427
 31
0.0
  0
LINE
  5
30F1
  8
細線
  6
CONTINUOUS
 10
3700.253880054242
 20
-465.52411849896311
 30
0.0
 11
3706.0952437141418
 21
-471.36548215886108
 31
0.0
  0
LINE
  5
30F2
  8
細線
  6
CONTINUOUS
 10
3718.8783852242191
 20
-484.14862366894022
 30
0.0
 11
3728.3687682374798
 21
-493.63900668220089
 31
0.0
  0
LINE
  5
30F3
  8
細線
  6
CONTINUOUS
 10
3700.6864380070051
 20
-464.9384426868159
 30
0.0
 11
3706.5375615730109
 21
-470.7895662528212
 31
0.0
  0
LINE
  5
30F4
  8
細線
  6
CONTINUOUS
 10
3717.2765614314922
 20
-481.5285661113025
 30
0.0
 11
3729.124047794895
 21
-493.37605247470538
 31
0.0
  0
LINE
  5
30F5
  8
細線
  6
CONTINUOUS
 10
3701.1189959597668
 20
-464.35276687466779
 30
0.0
 11
3706.9798794318831
 21
-470.21365034678229
 31
0.0
  0
LINE
  5
30F6
  8
細線
  6
CONTINUOUS
 10
3715.674737638753
 20
-478.90850855365392
 30
0.0
 11
3729.9073045371329
 21
-493.14107545203342
 31
0.0
  0
LINE
  5
30F7
  8
細線
  6
CONTINUOUS
 10
3701.5515539125281
 20
-463.76709106252417
 30
0.0
 11
3707.4221972907499
 21
-469.6377344407469
 31
0.0
  0
LINE
  5
30F8
  8
細線
  6
CONTINUOUS
 10
3714.0729138460351
 20
-476.28845099603183
 30
0.0
 11
3730.6905612793689
 21
-492.90609842936499
 31
0.0
  0
LINE
  5
30F9
  8
細線
  6
CONTINUOUS
 10
3701.9841118652912
 20
-463.18141525037697
 30
0.0
 11
3707.8645151496198
 21
-469.06181853470611
 31
0.0
  0
LINE
  5
30FA
  8
細線
  6
CONTINUOUS
 10
3712.4710900533091
 20
-473.6683934383949
 30
0.0
 11
3731.4738180216059
 21
-492.67112140669218
 31
0.0
  0
LINE
  5
30FB
  8
細線
  6
CONTINUOUS
 10
3702.416669818052
 20
-462.59573943822897
 30
0.0
 11
3708.3068330084911
 21
-468.48590262866708
 31
0.0
  0
LINE
  5
30FC
  8
細線
  6
CONTINUOUS
 10
3710.8692662605831
 20
-471.0483358807582
 30
0.0
 11
3732.2570747638438
 21
-492.43614438402028
 31
0.0
  0
LINE
  5
30FD
  8
細線
  6
CONTINUOUS
 10
3702.849227770816
 20
-462.01006362608177
 30
0.0
 11
3708.749150867362
 21
-467.90998672262822
 31
0.0
  0
LINE
  5
30FE
  8
細線
  6
CONTINUOUS
 10
3709.2674424678548
 20
-468.4282783231215
 30
0.0
 11
3732.9696319675259
 21
-492.13046782279213
 31
0.0
  0
LINE
  5
30FF
  8
細線
  6
CONTINUOUS
 10
3703.2817857235782
 20
-461.42438781393457
 30
0.0
 11
3733.3958693574868
 21
-491.53847144784447
 31
0.0
  0
LINE
  5
3100
  8
細線
  6
CONTINUOUS
 10
3703.7143436763381
 20
-460.83871200178999
 30
0.0
 11
3733.8221067474469
 21
-490.94647507290068
 31
0.0
  0
LINE
  5
3101
  8
細線
  6
CONTINUOUS
 10
3704.0955024830369
 20
-460.20163704357901
 30
0.0
 11
3717.538104498331
 21
-473.64423905887412
 31
0.0
  0
LINE
  5
3102
  8
細線
  6
CONTINUOUS
 10
3717.7934586606239
 20
-473.89959322116692
 30
0.0
 11
3734.1011648678041
 21
-490.20729942834572
 31
0.0
  0
LINE
  5
3103
  8
細線
  6
CONTINUOUS
 10
3704.0955024830341
 20
-459.1834032786677
 30
0.0
 11
3717.9108039232801
 21
-472.99870471891188
 31
0.0
  0
LINE
  5
3104
  8
細線
  6
CONTINUOUS
 10
3718.8116924255341
 20
-473.89959322116692
 30
0.0
 11
3733.8585783080998
 21
-488.94647910373118
 31
0.0
  0
LINE
  5
3105
  8
細線
  6
CONTINUOUS
 10
3704.1909113078541
 20
-458.26057833857658
 30
0.0
 11
3718.2835033482279
 21
-472.35317037895078
 31
0.0
  0
LINE
  5
3106
  8
細線
  6
CONTINUOUS
 10
3719.829926190444
 20
-473.8995932211659
 30
0.0
 11
3732.9442213026682
 21
-487.0138883333907
 31
0.0
  0
LINE
  5
3107
  8
細線
  6
CONTINUOUS
 10
3704.4963814373241
 20
-457.54781470314299
 30
0.0
 11
3718.6562027731738
 21
-471.70763603899229
 31
0.0
  0
LINE
  5
3108
  8
細線
  6
CONTINUOUS
 10
3720.8481599553488
 20
-473.89959322116692
 30
0.0
 11
3731.5421489457781
 21
-484.59358221159749
 31
0.0
  0
LINE
  5
3109
  8
細線
  6
CONTINUOUS
 10
3704.9182417248262
 20
-456.95144122573441
 30
0.0
 11
3719.0289021981221
 21
-471.06210169903119
 31
0.0
  0
LINE
  5
310A
  8
細線
  6
CONTINUOUS
 10
3721.8663937202582
 20
-473.89959322116778
 30
0.0
 11
3730.1400765888789
 21
-482.17327608978712
 31
0.0
  0
LINE
  5
310B
  8
細線
  6
CONTINUOUS
 10
3705.3974105553712
 20
-456.41237629136998
 30
0.0
 11
3719.4016016230712
 21
-470.41656735906821
 31
0.0
  0
LINE
  5
310C
  8
細線
  6
CONTINUOUS
 10
3722.884627485168
 20
-473.89959322116692
 30
0.0
 11
3728.7380042319792
 21
-479.7529699679767
 31
0.0
  0
LINE
  5
310D
  8
細線
  6
CONTINUOUS
 10
3705.876579385917
 20
-455.87331135700549
 30
0.0
 11
3719.774301048019
 21
-469.77103301910699
 31
0.0
  0
LINE
  5
310E
  8
細線
  6
CONTINUOUS
 10
3723.9028612500779
 20
-473.8995932211659
 30
0.0
 11
3727.3359318750772
 21
-477.33266384616439
 31
0.0
  0
LINE
  5
310F
  8
細線
  6
CONTINUOUS
 10
3706.3767648919788
 20
-455.35526309816339
 30
0.0
 11
3720.1470004729649
 21
-469.12549867914959
 31
0.0
  0
LINE
  5
3110
  8
細線
  6
CONTINUOUS
 10
3724.9210950149832
 20
-473.89959322116692
 30
0.0
 11
3725.9338595181762
 21
-474.91235772435948
 31
0.0
  0
LINE
  5
3111
  8
細線
  6
CONTINUOUS
 10
3706.793315068533
 20
-454.75357950980691
 30
0.0
 11
3720.5196998979131
 21
-468.47996433918752
 31
0.0
  0
LINE
  5
3112
  8
細線
  6
CONTINUOUS
 10
3707.3306244776668
 20
-454.27265515403133
 30
0.0
 11
3720.8923993228618
 21
-467.83442999922539
 31
0.0
  0
LINE
  5
3113
  8
細線
  6
CONTINUOUS
 10
3708.2290660349408
 20
-454.15286294639412
 30
0.0
 11
3721.26509874781
 21
-467.18889565926429
 31
0.0
  0
LINE
  5
3114
  8
細線
  6
CONTINUOUS
 10
3709.0895269212442
 20
-453.99509006778811
 30
0.0
 11
3720.004214929857
 21
-464.90977807640093
 31
0.0
  0
LINE
  5
3115
  8
細線
  6
CONTINUOUS
 10
3709.9435294337441
 20
-453.83085881538358
 30
0.0
 11
3718.4655505739902
 21
-462.35287995563112
 31
0.0
  0
LINE
  5
3116
  8
細線
  6
CONTINUOUS
 10
3710.8832825788709
 20
-453.75237819560101
 30
0.0
 11
3716.9268862181279
 21
-459.79598183485763
 31
0.0
  0
LINE
  5
3117
  8
細線
  6
CONTINUOUS
 10
3712.2404168200751
 20
-454.09127867189579
 30
0.0
 11
3715.1230925335099
 21
-456.97395438533152
 31
0.0
  0
LINE
  5
3118
  8
細線
  6
CONTINUOUS
 10
3736.5822092780381
 20
-462.89199061143012
 30
0.0
 11
3736.5822092780381
 21
-452.36550548809868
 31
0.0
  0
LINE
  5
3119
  8
細線
  6
CONTINUOUS
 10
3735.8622092780388
 20
-462.74120868315953
 30
0.0
 11
3735.8622092780388
 21
-452.51628741636841
 31
0.0
  0
LINE
  5
311A
  8
細線
  6
CONTINUOUS
 10
3735.1422092780381
 20
-462.48013807667161
 30
0.0
 11
3735.1422092780381
 21
-452.77735802285628
 31
0.0
  0
LINE
  5
311B
  8
細線
  6
CONTINUOUS
 10
3734.4222092780369
 20
-462.0894561391018
 30
0.0
 11
3734.4222092780369
 21
-453.168039960427
 31
0.0
  0
LINE
  5
311C
  8
細線
  6
CONTINUOUS
 10
3733.702209278038
 20
-461.53042052747918
 30
0.0
 11
3733.702209278038
 21
-453.72707557204973
 31
0.0
  0
LINE
  5
311D
  8
細線
  6
CONTINUOUS
 10
3732.9822092780382
 20
-460.7128005117815
 30
0.0
 11
3732.9822092780382
 21
-454.5446955877473
 31
0.0
  0
LINE
  5
311E
  8
細線
  6
CONTINUOUS
 10
3732.262209278038
 20
-459.29094871561529
 30
0.0
 11
3732.262209278038
 21
-455.96654738391362
 31
0.0
  0
TEXT
  5
311F
  8
文字
 10
3961.1807116798482
 20
-477.40000551007552
 30
0.0
 40
19.199999999999999
  1
アドヴァン
  7
JAPANESE
  0
TEXT
  5
3120
  8
文字
 10
3866.4909488322278
 20
-493.57026566254763
 30
0.0
 40
6.4799999999999986
  1
TEL 03-3475-0281　　FAX 03-3475-0429
  0
TEXT
  5
3121
  8
文字
 10
3870.0909488322282
 20
-477.3163026285942
 30
0.0
 40
19.199999999999999
  1
株式会社
  7
JAPANESE
  0
TEXT
  5
3122
  8
文字
 10
4424.6898920756385
 20
-493.57026566254763
 30
0.0
 40
10.800000000000001
  1
竹内
  0
LINE
  5
3123
  8
図面枠
  6
CONTINUOUS
 10
3471.0459862529851
 20
-461.17026566524822
 30
0.0
 11
3651.0459862529851
 21
-461.17026566524822
 31
0.0
  0
LINE
  5
3124
  8
図面枠
  6
CONTINUOUS
 10
3651.0459862529851
 20
-474.67026566389848
 30
0.0
 11
3471.0459862529851
 21
-474.67026566389848
 31
0.0
  0
LINE
  5
3125
  8
図面枠
  6
CONTINUOUS
 10
3471.0459862529851
 20
-488.17026566254708
 30
0.0
 11
3651.0459862529851
 21
-488.17026566254708
 31
0.0
  0
TEXT
  5
3126
  8
文字
 10
3147.8363021478622
 20
-482.78246480123693
 30
0.0
 40
13.824
  1
ガレージSタイプ納まり詳細参考図（RC）
  7
JAPANESE
  0
TEXT
  5
3127
  8
文字
 10
4436.3898920756383
 20
-466.57026566524883
 30
0.0
 40
10.800000000000001
  1
S=1/5
  0
TEXT
  5
3128
  8
文字
 10
4129.8459862529826
 20
-493.57026566254763
 30
0.0
 40
10.800000000000001
  1
W=2570　H=2280
  0
TEXT
  5
3129
  8
文字
 10
3478.2459862529849
 20
-459.82026566592361
 30
0.0
 40
10.800000000000001
  1
10.07.26
  0
LINE
  5
312F
  8
図面枠
  6
CONTINUOUS
 10
3112.7220053639239
 20
488.87988613140982
 30
0.0
 11
4525.9074101671258
 21
488.87988613140982
 31
0.0
  0
LINE
  5
3130
  8
図面枠
  6
CONTINUOUS
 10
3112.7220053639239
 20
-501.6702656611983
 30
0.0
 11
3112.7220053639239
 21
488.87988613140982
 31
0.0
  0
TEXT
  5
3136
  8
文字
 10
3162.469570108939
 20
594.21743126516685
 30
0.0
 40
82.944000000000017
  1
A4
  7
JAPANESE
  0
LINE
  5
316F
  8
_0-2_
  6
CONTINUOUS
 62
     5
 10
3961.411938438469
 20
365.96066267425488
 30
0.0
 11
3961.411938438469
 21
211.4120316999053
 31
0.0
  0
LINE
  5
3170
  8
_0-9_
  6
CONTINUOUS
 62
     7
 10
3288.9725158003771
 20
170.30025678055461
 30
0.0
 11
3288.9725158003771
 21
410.13399009775469
 31
0.0
  0
LINE
  5
3171
  8
_0-9_
  6
CONTINUOUS
 62
     7
 10
3308.9725158003771
 20
410.13399009775469
 30
0.0
 11
3308.9725158003771
 21
190.30025678055449
 31
0.0
  0
LINE
  5
3172
  8
_0-9_
  6
CONTINUOUS
 62
     7
 10
3511.411938438469
 20
193.30025678055461
 30
0.0
 11
3511.411938438469
 21
410.13399009775469
 31
0.0
  0
LINE
  5
3173
  8
_0-9_
  6
DASHED1
 62
     7
 10
3511.411938438469
 20
250.30025678055461
 30
0.0
 11
3511.411938438469
 21
300.30025678055461
 31
0.0
  0
CIRCLE
  5
3174
  8
_0-0_
  6
CONTINUOUS
 62
     1
 10
3512.997427593069
 20
268.74085559995473
 30
0.0
 40
1.5
  0
TEXT
  5
3175
  8
文字
 10
3525.8435153289679
 20
301.44743434535468
 30
0.0
 40
9.0
  1
ｹ-ｽｾﾝﾀ-部分固定用穴あり
  0
TEXT
  5
3176
  8
文字
 10
3525.8435153289679
 20
289.44743434535462
 30
0.0
 40
9.0
  1
その部分は確実に固定（ｱﾝｸﾞﾙ等にて）
  0
LINE
  5
3177
  8
_0-0_
  6
CONTINUOUS
 62
     1
 10
3512.997427593069
 20
268.74085559995473
 30
0.0
 11
3525.8435156708688
 21
298.4474342797547
 31
0.0
  0
LINE
  5
3178
  8
_0-9_
  6
CONTINUOUS
 62
     7
 10
4263.0546012081677
 20
120.96066267425461
 30
0.0
 11
4263.0546012081677
 21
250.96066267425451
 31
0.0
  0
LINE
  5
3179
  8
_0-9_
  6
CONTINUOUS
 62
     7
 10
4283.0546012081686
 20
230.96066267425451
 30
0.0
 11
4283.0546012081686
 21
120.96066267425461
 31
0.0
  0
LINE
  5
317A
  8
_0-9_
  6
CONTINUOUS
 62
     7
 10
4263.0546012081677
 20
250.96066267425451
 30
0.0
 11
4479.0546012081677
 21
250.96066267425451
 31
0.0
  0
LINE
  5
317B
  8
_0-9_
  6
CONTINUOUS
 62
     7
 10
4479.0546012081677
 20
230.96066267425451
 30
0.0
 11
4283.0546012081686
 21
230.96066267425451
 31
0.0
  0
LINE
  5
317C
  8
_0-9_
  6
CONTINUOUS
 62
     7
 10
4283.0546012081686
 20
120.96066267425461
 30
0.0
 11
4419.0546012081686
 21
120.96066267425439
 31
0.0
  0
TEXT
  5
317D
  8
文字
 10
4033.622491328968
 20
195.2546933453547
 30
0.0
 40
12.0
  1
外　部
 41
0.748503
  0
TEXT
  5
317E
  8
文字
 10
3401.4796713289688
 20
-58.69233665464543
 30
0.0
 40
12.0
  1
外　部
 41
0.748503
  0
LINE
  5
317F
  8
文字
 10
4018.8036364769682
 20
192.9994817858547
 30
0.0
 11
4077.4867638339679
 21
192.9994817858547
 31
0.0
  0
LINE
  5
3180
  8
文字
 10
4077.4867638339679
 20
192.9994817858547
 30
0.0
 11
4077.4867638339679
 21
209.6025129405547
 31
0.0
  0
LINE
  5
3181
  8
文字
 10
4077.4867638339679
 20
209.6025129405547
 30
0.0
 11
4018.8036364769682
 21
209.6025129405547
 31
0.0
  0
LINE
  5
3182
  8
文字
 10
4018.8036364769682
 20
209.6025129405547
 30
0.0
 11
4018.8036364769682
 21
192.9994817858547
 31
0.0
  0
LINE
  5
3183
  8
文字
 10
3388.4609709150691
 20
-44.309360062745377
 30
0.0
 11
3388.4609709150691
 21
-61.19865037534538
 31
0.0
  0
LINE
  5
3184
  8
文字
 10
3388.4609709150691
 20
-61.19865037534538
 30
0.0
 11
3442.2776925888688
 21
-61.19865037534538
 31
0.0
  0
LINE
  5
3185
  8
文字
 10
3442.2776925888688
 20
-61.19865037534538
 30
0.0
 11
3442.2776925888688
 21
-44.309360062745377
 31
0.0
  0
LINE
  5
3186
  8
文字
 10
3442.2776925888688
 20
-44.309360062745377
 30
0.0
 11
3388.4609709150691
 21
-44.309360062745377
 31
0.0
  0
LINE
  5
3187
  8
_0-9_
  6
CENTER1
 62
     4
 10
4306.9714789552681
 20
152.4383503324546
 30
0.0
 11
4306.9714789552681
 21
107.5167756031548
 31
0.0
  0
CIRCLE
  5
3188
  8
_0-0_
  6
CONTINUOUS
 62
     1
 10
4419.0546012081686
 20
-285.78023887032509
 30
0.0
 40
1.5
  0
TEXT
  5
3189
  8
文字
 10
4326.0068323289679
 20
-318.76125303129447
 30
0.0
 40
9.0
  1
壁がある場合
  0
TEXT
  5
318A
  8
文字
 10
4326.0068323289679
 20
-330.13201787072649
 30
0.0
 40
9.0
  1
50ｍｍ以上離す
  0
LINE
  5
318B
  8
_0-0_
  6
CONTINUOUS
 62
     1
 10
4419.0546012081686
 20
-285.78023887032509
 30
0.0
 11
4398.2757502609993
 21
-311.88166405612509
 31
0.0
  0
LINE
  5
318C
  8
寸法線
 10
4208.0546012081686
 20
275.96066267425448
 30
0.0
 11
4199.3612687715668
 21
278.29003408017729
 31
0.0
  0
LINE
  5
318D
  8
寸法線
 10
4208.0546012081686
 20
275.96066267425448
 30
0.0
 11
4199.3612687715668
 21
273.63129126833189
 31
0.0
  0
LINE
  5
318E
  8
寸法線
 10
4208.0546012081686
 20
275.96066267425448
 30
0.0
 11
4208.0546012081686
 21
245.96066267425451
 31
0.0
  0
LINE
  5
318F
  8
寸法線
 10
4208.0546012081686
 20
275.96066267425448
 30
0.0
 11
4193.0546012081677
 21
275.96066267425448
 31
0.0
  0
LINE
  5
3190
  8
寸法線
 10
4233.0546012081686
 20
275.96066267425448
 30
0.0
 11
4248.0546012081686
 21
275.96066267425448
 31
0.0
  0
LINE
  5
3191
  8
寸法線
 10
4208.0546012081686
 20
275.96066267425448
 30
0.0
 11
4233.0546012081686
 21
275.96066267425448
 31
0.0
  0
LINE
  5
3192
  8
寸法線
 10
4208.0546012081686
 20
275.96066267425448
 30
0.0
 11
4199.3612687715668
 21
273.63129126833189
 31
0.0
  0
LINE
  5
3193
  8
寸法線
 10
4208.0546012081686
 20
275.96066267425448
 30
0.0
 11
4199.3612687715668
 21
278.29003408017729
 31
0.0
  0
LINE
  5
3194
  8
寸法線
 10
4233.0546012081686
 20
275.96066267425448
 30
0.0
 11
4241.7479336447695
 21
273.63129126833189
 31
0.0
  0
LINE
  5
3195
  8
寸法線
 10
4233.0546012081686
 20
275.96066267425448
 30
0.0
 11
4241.7479336447695
 21
278.29003408017729
 31
0.0
  0
LINE
  5
3196
  8
寸法線
 10
4233.0546012081686
 20
275.96066267425448
 30
0.0
 11
4233.0546012081686
 21
245.96066267425451
 31
0.0
  0
TEXT
  5
3197
  8
寸法線
 10
4213.6605469089109
 20
276.78013803529512
 30
0.0
 40
9.0
  1
25
  0
LINE
  5
3198
  8
寸法線
 10
4233.0546012081686
 20
275.96066267425448
 30
0.0
 11
4343.0546012081677
 21
275.96066267425448
 31
0.0
  0
LINE
  5
3199
  8
寸法線
 10
4233.0546012081686
 20
275.96066267425448
 30
0.0
 11
4241.7479336447695
 21
278.29003408017729
 31
0.0
  0
LINE
  5
319A
  8
寸法線
 10
4233.0546012081686
 20
275.96066267425448
 30
0.0
 11
4241.7479336447695
 21
273.63129126833189
 31
0.0
  0
LINE
  5
319B
  8
寸法線
 10
4343.0546012081677
 20
275.96066267425448
 30
0.0
 11
4334.3612687715668
 21
278.29003408017729
 31
0.0
  0
LINE
  5
319C
  8
寸法線
 10
4343.0546012081677
 20
275.96066267425448
 30
0.0
 11
4334.3612687715668
 21
273.63129126833189
 31
0.0
  0
TEXT
  5
319D
  8
寸法線
 10
4286.1223275913198
 20
277.03400967051971
 30
0.0
 40
9.0
  1
110
  0
LINE
  5
319E
  8
寸法線
 10
4263.0546012081677
 20
305.96066267425448
 30
0.0
 11
4254.3612687715668
 21
308.29003408017729
 31
0.0
  0
LINE
  5
319F
  8
寸法線
 10
4263.0546012081677
 20
305.96066267425448
 30
0.0
 11
4254.3612687715668
 21
303.63129126833189
 31
0.0
  0
LINE
  5
31A0
  8
寸法線
 10
4263.0546012081677
 20
305.96066267425448
 30
0.0
 11
4263.0546012081677
 21
275.96066267425448
 31
0.0
  0
LINE
  5
31A1
  8
寸法線
 10
4263.0546012081677
 20
305.96066267425448
 30
0.0
 11
4248.0546012081686
 21
305.96066267425448
 31
0.0
  0
LINE
  5
31A2
  8
寸法線
 10
4283.0546012081686
 20
305.96066267425448
 30
0.0
 11
4298.0546012081686
 21
305.96066267425448
 31
0.0
  0
LINE
  5
31A3
  8
寸法線
 10
4263.0546012081677
 20
305.96066267425448
 30
0.0
 11
4283.0546012081686
 21
305.96066267425448
 31
0.0
  0
LINE
  5
31A4
  8
寸法線
 10
4263.0546012081677
 20
305.96066267425448
 30
0.0
 11
4254.3612687715668
 21
303.63129126833189
 31
0.0
  0
LINE
  5
31A5
  8
寸法線
 10
4263.0546012081677
 20
305.96066267425448
 30
0.0
 11
4254.3612687715668
 21
308.29003408017729
 31
0.0
  0
LINE
  5
31A6
  8
寸法線
 10
4283.0546012081686
 20
305.96066267425448
 30
0.0
 11
4291.7479336447695
 21
303.63129126833189
 31
0.0
  0
LINE
  5
31A7
  8
寸法線
 10
4283.0546012081686
 20
305.96066267425448
 30
0.0
 11
4291.7479336447695
 21
308.29003408017729
 31
0.0
  0
LINE
  5
31A8
  8
寸法線
 10
4283.0546012081686
 20
305.96066267425448
 30
0.0
 11
4283.0546012081686
 21
275.96066267425448
 31
0.0
  0
TEXT
  5
31A9
  8
寸法線
 10
4264.8952996299122
 20
306.91713764481142
 30
0.0
 40
9.0
  1
20
  0
LINE
  5
31AA
  8
寸法線
 10
4283.0546012081686
 20
305.96066267425448
 30
0.0
 11
4343.0546012081677
 21
305.96066267425448
 31
0.0
  0
LINE
  5
31AB
  8
寸法線
 10
4283.0546012081686
 20
305.96066267425448
 30
0.0
 11
4291.7479336447695
 21
308.29003408017729
 31
0.0
  0
LINE
  5
31AC
  8
寸法線
 10
4283.0546012081686
 20
305.96066267425448
 30
0.0
 11
4291.7479336447695
 21
303.63129126833189
 31
0.0
  0
LINE
  5
31AD
  8
寸法線
 10
4343.0546012081677
 20
305.96066267425448
 30
0.0
 11
4334.3612687715668
 21
308.29003408017729
 31
0.0
  0
LINE
  5
31AE
  8
寸法線
 10
4343.0546012081677
 20
305.96066267425448
 30
0.0
 11
4334.3612687715668
 21
303.63129126833189
 31
0.0
  0
LINE
  5
31AF
  8
寸法線
 10
4343.0546012081677
 20
305.96066267425448
 30
0.0
 11
4343.0546012081677
 21
275.96066267425448
 31
0.0
  0
TEXT
  5
31B0
  8
寸法線
 10
4306.9742246630558
 20
306.31190509335403
 30
0.0
 40
9.0
  1
60
  0
LINE
  5
31B1
  8
寸法線
 10
4343.0546012081677
 20
335.96066267425471
 30
0.0
 11
4334.3612687715668
 21
338.29003408017729
 31
0.0
  0
LINE
  5
31B2
  8
寸法線
 10
4343.0546012081677
 20
335.96066267425471
 30
0.0
 11
4334.3612687715668
 21
333.63129126833189
 31
0.0
  0
LINE
  5
31B3
  8
寸法線
 10
4343.0546012081677
 20
335.96066267425471
 30
0.0
 11
4343.0546012081677
 21
305.96066267425448
 31
0.0
  0
LINE
  5
31B4
  8
_0-9_
  6
CONTINUOUS
 62
     7
 10
4419.0546012081686
 20
120.96066267425449
 30
0.0
 11
4419.0546012081686
 21
-350.92475223101673
 31
0.0
  0
LINE
  5
31B5
  8
_0-9_
  6
CONTINUOUS
 62
     5
 10
4233.0546012081686
 20
120.96066267425461
 30
0.0
 11
4343.0546012081677
 21
120.96066267425461
 31
0.0
  0
LINE
  5
31B6
  8
_0-9_
  6
CONTINUOUS
 62
     5
 10
4343.0546012081677
 20
120.96066267425461
 30
0.0
 11
4343.0546012081677
 21
42.960662674254763
 31
0.0
  0
LINE
  5
31B7
  8
_0-9_
  6
CONTINUOUS
 62
     5
 10
4266.0546012081686
 20
40.960662674254593
 30
0.0
 11
4236.0546012081677
 21
40.960662674254593
 31
0.0
  0
LINE
  5
31B8
  8
_0-9_
  6
CONTINUOUS
 62
     5
 10
4233.0546012081686
 20
43.960662674254593
 30
0.0
 11
4233.0546012081686
 21
52.960662674254593
 31
0.0
  0
LINE
  5
31B9
  8
_0-9_
  6
CONTINUOUS
 62
     5
 10
4236.0546012081677
 20
55.960662674254593
 30
0.0
 11
4243.0546012081677
 21
55.960662674254593
 31
0.0
  0
LINE
  5
31BA
  8
_0-9_
  6
CONTINUOUS
 62
     5
 10
4233.0546012081686
 20
120.96066267425461
 30
0.0
 11
4233.0546012081686
 21
93.960662674254536
 31
0.0
  0
LINE
  5
31BB
  8
_0-9_
  6
CONTINUOUS
 62
     5
 10
4236.0546012081677
 20
90.960662674254536
 30
0.0
 11
4267.0546012081677
 21
90.960662674254536
 31
0.0
  0
LINE
  5
31BC
  8
_0-9_
  6
CONTINUOUS
 62
     5
 10
4267.0546012081677
 20
90.960662674254536
 30
0.0
 11
4267.0546012081677
 21
42.960662674254763
 31
0.0
  0
LINE
  5
31BD
  8
_0-9_
  6
CONTINUOUS
 62
     5
 10
4269.0546012081686
 20
113.96066267425461
 30
0.0
 11
4269.0546012081686
 21
-229.03933732574529
 31
0.0
  0
LINE
  5
31BE
  8
_0-9_
  6
CONTINUOUS
 62
     5
 10
4269.0546012081686
 20
-229.03933732574529
 30
0.0
 11
4339.0546012081677
 21
-229.03933732574529
 31
0.0
  0
LINE
  5
31BF
  8
_0-9_
  6
CONTINUOUS
 62
     5
 10
4339.0546012081677
 20
-229.03933732574529
 30
0.0
 11
4339.0546012081677
 21
113.96066267425461
 31
0.0
  0
LINE
  5
31C0
  8
_0-9_
  6
CONTINUOUS
 62
     5
 10
4233.0546012081686
 20
120.96066267425461
 30
0.0
 11
4233.0546012081686
 21
95.960662674254536
 31
0.0
  0
LINE
  5
31C1
  8
_0-9_
  6
CONTINUOUS
 62
     5
 10
4233.0546012081686
 20
95.960662674254536
 30
0.0
 11
4213.0546012081686
 21
95.960662674254536
 31
0.0
  0
LINE
  5
31C2
  8
_0-9_
  6
CONTINUOUS
 62
     5
 10
4213.0546012081686
 20
95.960662674254536
 30
0.0
 11
4213.0546012081686
 21
100.96066267425449
 31
0.0
  0
LINE
  5
31C3
  8
_0-9_
  6
CONTINUOUS
 62
     5
 10
4213.0546012081686
 20
100.96066267425449
 30
0.0
 11
4208.0546012081686
 21
100.96066267425449
 31
0.0
  0
LINE
  5
31C4
  8
_0-9_
  6
CONTINUOUS
 62
     5
 10
4208.0546012081686
 20
100.96066267425449
 30
0.0
 11
4208.0546012081686
 21
120.96066267425461
 31
0.0
  0
LINE
  5
31C5
  8
_0-9_
  6
CONTINUOUS
 62
     5
 10
4208.0546012081686
 20
120.96066267425461
 30
0.0
 11
4233.0546012081686
 21
120.96066267425461
 31
0.0
  0
LINE
  5
31C6
  8
_0-9_
  6
CONTINUOUS
 62
     5
 10
4233.0546012081686
 20
115.96066267425461
 30
0.0
 11
4343.0546012081677
 21
115.96066267425461
 31
0.0
  0
LINE
  5
31C7
  8
_0-9_
  6
CONTINUOUS
 62
     5
 10
4235.0546012081677
 20
113.96066267425461
 30
0.0
 11
4235.0546012081677
 21
92.960662674254536
 31
0.0
  0
LINE
  5
31C8
  8
_0-9_
  6
CONTINUOUS
 62
     5
 10
4235.0546012081677
 20
92.960662674254536
 30
0.0
 11
4266.0546012081686
 21
92.960662674254536
 31
0.0
  0
LINE
  5
31C9
  8
_0-9_
  6
CONTINUOUS
 62
     5
 10
4269.0546012081686
 20
89.960662674254536
 30
0.0
 11
4269.0546012081686
 21
40.960662674254593
 31
0.0
  0
LINE
  5
31CA
  8
_0-9_
  6
CONTINUOUS
 62
     5
 10
4267.0546012081677
 20
42.960662674254763
 30
0.0
 11
4235.0546012081677
 21
42.960662674254763
 31
0.0
  0
LINE
  5
31CB
  8
_0-9_
  6
CONTINUOUS
 62
     5
 10
4235.0546012081677
 20
42.960662674254763
 30
0.0
 11
4235.0546012081677
 21
53.960662674254593
 31
0.0
  0
LINE
  5
31CC
  8
_0-9_
  6
CONTINUOUS
 62
     5
 10
4235.0546012081677
 20
53.960662674254593
 30
0.0
 11
4243.0546012081677
 21
53.960662674254593
 31
0.0
  0
LINE
  5
31CD
  8
_0-9_
  6
CONTINUOUS
 62
     5
 10
4243.0546012081677
 20
53.960662674254593
 30
0.0
 11
4243.0546012081677
 21
55.960662674254593
 31
0.0
  0
LINE
  5
31CE
  8
_0-9_
  6
CONTINUOUS
 62
     5
 10
4235.0546012081677
 20
113.96066267425461
 30
0.0
 11
4341.0546012081686
 21
113.96066267425461
 31
0.0
  0
LINE
  5
31CF
  8
_0-9_
  6
CONTINUOUS
 62
     5
 10
4341.0546012081686
 20
113.96066267425461
 30
0.0
 11
4341.0546012081686
 21
42.960662674254763
 31
0.0
  0
LINE
  5
31D0
  8
_0-9_
  6
CONTINUOUS
 62
     5
 10
4341.0546012081686
 20
42.960662674254763
 30
0.0
 11
4341.0546012081686
 21
55.960662674254593
 31
0.0
  0
LINE
  5
31D1
  8
_0-9_
  6
CONTINUOUS
 62
     5
 10
4341.0546012081686
 20
55.960662674254593
 30
0.0
 11
4339.0546012081677
 21
55.960662674254593
 31
0.0
  0
LINE
  5
31D2
  8
_0-9_
  6
CONTINUOUS
 62
     5
 10
4339.0546012081677
 20
55.960662674254593
 30
0.0
 11
4339.0546012081677
 21
40.960662674254593
 31
0.0
  0
ARC
  5
31D3
  8
_0-9_
  6
CONTINUOUS
 62
     5
 10
4266.0546012081686
 20
43.960662674254593
 30
0.0
 40
3.0
 50
270.0
 51
0.0
  0
ARC
  5
31D4
  8
_0-9_
  6
CONTINUOUS
 62
     5
 10
4236.0546012081677
 20
43.960662674254593
 30
0.0
 40
3.0
 50
180.0
 51
270.0
  0
ARC
  5
31D5
  8
_0-9_
  6
CONTINUOUS
 62
     5
 10
4236.0546012081677
 20
52.960662674254593
 30
0.0
 40
3.0
 50
90.0
 51
180.0
  0
ARC
  5
31D6
  8
_0-9_
  6
CONTINUOUS
 62
     5
 10
4236.0546012081677
 20
93.960662674254536
 30
0.0
 40
3.0
 50
180.0
 51
270.0
  0
ARC
  5
31D7
  8
_0-9_
  6
CONTINUOUS
 62
     5
 10
4266.0546012081686
 20
89.960662674254536
 30
0.0
 40
3.0
 50
0.0
 51
90.0
  0
ARC
  5
31D8
  8
_0-9_
  6
CONTINUOUS
 62
     5
 10
4341.0546012081686
 20
42.960662674254763
 30
0.0
 40
2.0
 50
180.0
 51
0.0
  0
LINE
  5
31D9
  8
_0-9_
  6
CENTER1
 62
     5
 10
4339.0546012081677
 20
113.96066267425461
 30
0.0
 11
4269.5546012081677
 21
-229.03933732574529
 31
0.0
  0
LINE
  5
31DA
  8
_0-9_
  6
CENTER1
 62
     5
 10
4339.0546012081677
 20
-229.03933732574529
 30
0.0
 11
4269.5546012081677
 21
113.96066267425461
 31
0.0
  0
LINE
  5
31DB
  8
_0-9_
  6
CONTINUOUS
 62
     5
 10
3961.411938438469
 20
120.96066267425461
 30
0.0
 11
4208.0546012081686
 21
120.96066267425461
 31
0.0
  0
LINE
  5
31DC
  8
_0-9_
  6
CONTINUOUS
 62
     5
 10
4208.0546012081686
 20
120.96066267425461
 30
0.0
 11
4208.0546012081686
 21
105.96066267425449
 31
0.0
  0
LINE
  5
31DD
  8
_0-9_
  6
CONTINUOUS
 62
     5
 10
4208.0546012081686
 20
105.96066267425449
 30
0.0
 11
3961.411938438469
 21
105.96066267425449
 31
0.0
  0
LINE
  5
31DE
  8
_0-9_
  6
CONTINUOUS
 62
     5
 10
3961.411938438469
 20
47.960662674254593
 30
0.0
 11
4208.0546012081686
 21
47.960662674254593
 31
0.0
  0
LINE
  5
31DF
  8
_0-9_
  6
CONTINUOUS
 62
     5
 10
4208.0546012081686
 20
47.960662674254593
 30
0.0
 11
4208.0546012081686
 21
40.960662674254593
 31
0.0
  0
LINE
  5
31E0
  8
_0-9_
  6
CONTINUOUS
 62
     5
 10
4208.0546012081686
 20
40.960662674254593
 30
0.0
 11
3961.411938438469
 21
40.960662674254593
 31
0.0
  0
LINE
  5
31E1
  8
_0-9_
  6
CONTINUOUS
 62
     5
 10
4208.0546012081686
 20
47.960662674254593
 30
0.0
 11
4208.0546012081686
 21
105.96066267425449
 31
0.0
  0
LINE
  5
31E2
  8
_0-9_
  6
CONTINUOUS
 62
     5
 10
4188.0546012081677
 20
40.960662674254593
 30
0.0
 11
4248.0546012081686
 21
40.960662674254593
 31
0.0
  0
LINE
  5
31E3
  8
_0-9_
  6
CONTINUOUS
 62
     5
 10
4248.0546012081686
 20
40.960662674254593
 30
0.0
 11
4248.0546012081686
 21
38.960662674254593
 31
0.0
  0
LINE
  5
31E4
  8
_0-9_
  6
CONTINUOUS
 62
     5
 10
4248.0546012081686
 20
38.960662674254593
 30
0.0
 11
4188.0546012081677
 21
38.960662674254593
 31
0.0
  0
LINE
  5
31E5
  8
_0-9_
  6
CONTINUOUS
 62
     5
 10
4188.0546012081677
 20
38.960662674254593
 30
0.0
 11
4188.0546012081677
 21
40.960662674254593
 31
0.0
  0
CIRCLE
  5
31E6
  8
_0-0_
  6
CONTINUOUS
 62
     1
 10
4227.631567610968
 20
37.425415938454712
 30
0.0
 40
1.5
  0
TEXT
  5
31E7
  8
文字
 10
4189.674768701504
 20
3.613975522285898
 30
0.0
 40
9.0
  1
ｶﾞ-ﾄﾞｺﾞﾑ
  0
TEXT
  5
31E8
  8
文字
 10
4189.674768701504
 20
-7.6112695401196211
 30
0.0
 40
9.0
  1
（ﾄﾞｱ側）
  0
LINE
  5
31E9
  8
_0-0_
  6
CONTINUOUS
 62
     1
 10
4227.631567610968
 20
37.425415938454712
 30
0.0
 11
4223.8212575630687
 21
14.140187867854699
 31
0.0
  0
CIRCLE
  5
31EA
  8
_0-0_
  6
CONTINUOUS
 62
     1
 10
4217.0473730333688
 20
117.86529472805459
 30
0.0
 40
1.5
  0
TEXT
  5
31EB
  8
文字
 10
4166.8463218345323
 20
149.1989435264351
 30
0.0
 40
9.0
  1
ｶﾞ-ﾄﾞｺﾞﾑ
  0
TEXT
  5
31EC
  8
文字
 10
4162.0800173289681
 20
139.24096879574071
 30
0.0
 40
9.0
  1
（枠側）
  0
LINE
  5
31ED
  8
_0-0_
  6
CONTINUOUS
 62
     1
 10
4217.0473730333688
 20
117.86529472805459
 30
0.0
 11
4204.7612538263465
 21
147.7822910537412
 31
0.0
  0
CIRCLE
  5
31EE
  8
_0-0_
  6
CONTINUOUS
 62
     1
 10
4125.4940899373678
 20
120.6171853181546
 30
0.0
 40
1.5
  0
TEXT
  5
31EF
  8
文字
 10
4055.1580043289682
 20
152.82956234535459
 30
0.0
 40
9.0
  1
ガレ-ジドア
  0
TEXT
  5
31F0
  8
文字
 10
4054.095241610944
 20
142.07671482673359
 30
0.0
 40
9.0
  1
表面材
  0
LINE
  5
31F1
  8
_0-0_
  6
CONTINUOUS
 62
     1
 10
4125.4940899373678
 20
120.6171853181546
 30
0.0
 11
4112.158004769668
 21
149.82956235225461
 31
0.0
  0
LINE
  5
31F2
  8
_0-9_
  6
DASHED1
 62
     5
 10
3561.411938438469
 20
253.30025678055461
 30
0.0
 11
3561.411938438469
 21
250.30025678055461
 31
0.0
  0
LINE
  5
31F3
  8
_0-9_
  6
CONTINUOUS
 62
     5
 10
3961.411938438469
 20
202.41203169990541
 30
0.0
 11
3961.411938438469
 21
7.1283676308545401
 31
0.0
  0
LINE
  5
31F4
  8
_0-9_
  6
DOT
 62
     5
 10
3257.9267263319689
 20
-277.2120276166454
 30
0.0
 11
3906.425422787368
 21
-277.2120276166454
 31
0.0
  0
LINE
  5
31F5
  8
寸法線
 10
3373.9083155440062
 20
-277.2120276166454
 30
0.0
 11
3371.578944138083
 21
-268.51869518004378
 31
0.0
  0
LINE
  5
31F6
  8
寸法線
 10
3373.9083155440062
 20
-277.2120276166454
 30
0.0
 11
3376.237686949929
 21
-268.51869518004378
 31
0.0
  0
LINE
  5
31F7
  8
寸法線
 10
3343.9083155440062
 20
-277.2120276166454
 30
0.0
 11
3343.9083155440062
 21
-14.69974321944528
 31
0.0
  0
LINE
  5
31F8
  8
寸法線
 10
3343.9083155440062
 20
-277.2120276166454
 30
0.0
 11
3341.578944138083
 21
-268.51869518004378
 31
0.0
  0
LINE
  5
31F9
  8
寸法線
 10
3343.9083155440062
 20
-277.2120276166454
 30
0.0
 11
3346.237686949929
 21
-268.51869518004378
 31
0.0
  0
LINE
  5
31FA
  8
寸法線
 10
3343.9083155440062
 20
-14.69974321944528
 30
0.0
 11
3341.578944138083
 21
-23.3930756560469
 31
0.0
  0
LINE
  5
31FB
  8
寸法線
 10
3343.9083155440062
 20
-14.69974321944528
 30
0.0
 11
3346.237686949929
 21
-23.3930756560469
 31
0.0
  0
LINE
  5
31FC
  8
寸法線
 10
3343.9083155440062
 20
-14.69974321944528
 30
0.0
 11
3358.9083155440062
 21
-14.69974321944539
 31
0.0
  0
LINE
  5
31FD
  8
寸法線
 10
3343.9083155440062
 20
-14.69974321944528
 30
0.0
 11
3343.9083155440062
 21
250.30025678055461
 31
0.0
  0
LINE
  5
31FE
  8
寸法線
 10
3343.9083155440062
 20
-14.69974321944528
 30
0.0
 11
3341.578944138083
 21
-6.006410782843659
 31
0.0
  0
LINE
  5
31FF
  8
寸法線
 10
3343.9083155440062
 20
-14.69974321944528
 30
0.0
 11
3346.237686949929
 21
-6.006410782843659
 31
0.0
  0
LINE
  5
3200
  8
寸法線
 10
3343.9083155440062
 20
250.30025678055461
 30
0.0
 11
3341.578944138083
 21
241.6069243439531
 31
0.0
  0
LINE
  5
3201
  8
寸法線
 10
3343.9083155440062
 20
250.30025678055461
 30
0.0
 11
3346.237686949929
 21
241.6069243439531
 31
0.0
  0
LINE
  5
3202
  8
寸法線
 10
3343.9083155440062
 20
250.30025678055461
 30
0.0
 11
3513.9083155440062
 21
250.30025678055461
 31
0.0
  0
TEXT
  5
3203
  8
寸法線
 10
3343.9083155440062
 20
110.30025678055461
 30
0.0
 40
9.0
  1
250
 50
90.0
  0
LINE
  5
3204
  8
寸法線
 10
3313.9083155440062
 20
-277.2120276166454
 30
0.0
 11
3313.9083155440062
 21
250.30025678055461
 31
0.0
  0
LINE
  5
3205
  8
寸法線
 10
3313.9083155440062
 20
-277.2120276166454
 30
0.0
 11
3311.5789441380839
 21
-268.51869518004378
 31
0.0
  0
LINE
  5
3206
  8
寸法線
 10
3313.9083155440062
 20
-277.2120276166454
 30
0.0
 11
3316.237686949929
 21
-268.51869518004378
 31
0.0
  0
LINE
  5
3207
  8
寸法線
 10
3313.9083155440062
 20
250.30025678055461
 30
0.0
 11
3311.5789441380839
 21
241.6069243439531
 31
0.0
  0
LINE
  5
3208
  8
寸法線
 10
3313.9083155440062
 20
250.30025678055461
 30
0.0
 11
3316.237686949929
 21
241.6069243439531
 31
0.0
  0
LINE
  5
3209
  8
寸法線
 10
3313.9083155440062
 20
250.30025678055461
 30
0.0
 11
3343.9083155440062
 21
250.30025678055461
 31
0.0
  0
LINE
  5
320A
  8
寸法線
 10
3424.4596238596682
 20
115.30025678055461
 30
0.0
 11
3424.4596238596682
 21
140.30025678055461
 31
0.0
  0
LINE
  5
320B
  8
寸法線
 10
3424.4596238596682
 20
115.30025678055461
 30
0.0
 11
3422.1302524537459
 21
123.9935892171561
 31
0.0
  0
LINE
  5
320C
  8
寸法線
 10
3424.4596238596682
 20
115.30025678055461
 30
0.0
 11
3426.788995265591
 21
123.9935892171561
 31
0.0
  0
LINE
  5
320D
  8
寸法線
 10
3424.4596238596682
 20
140.30025678055461
 30
0.0
 11
3422.1302524537459
 21
131.60692434395301
 31
0.0
  0
LINE
  5
320E
  8
寸法線
 10
3424.4596238596682
 20
140.30025678055461
 30
0.0
 11
3426.788995265591
 21
131.60692434395301
 31
0.0
  0
LINE
  5
320F
  8
寸法線
 10
3424.4596238596682
 20
115.30025678055461
 30
0.0
 11
3454.4596238596691
 21
115.30025678055461
 31
0.0
  0
LINE
  5
3210
  8
寸法線
 10
3424.4596238596682
 20
140.30025678055461
 30
0.0
 11
3454.4596238596691
 21
140.30025678055461
 31
0.0
  0
TEXT
  5
3211
  8
寸法線
 10
3423.9411307657761
 20
120.4214970814304
 30
0.0
 40
9.0
  1
25
 50
90.0
  0
LINE
  5
3212
  8
寸法線
 10
3424.4596238596682
 20
140.30025678055461
 30
0.0
 11
3424.4596238596682
 21
170.30025678055461
 31
0.0
  0
LINE
  5
3213
  8
寸法線
 10
3424.4596238596682
 20
140.30025678055461
 30
0.0
 11
3422.1302524537459
 21
148.9935892171564
 31
0.0
  0
LINE
  5
3214
  8
寸法線
 10
3424.4596238596682
 20
140.30025678055461
 30
0.0
 11
3426.788995265591
 21
148.9935892171564
 31
0.0
  0
LINE
  5
3215
  8
寸法線
 10
3424.4596238596682
 20
170.30025678055461
 30
0.0
 11
3422.1302524537459
 21
161.60692434395301
 31
0.0
  0
LINE
  5
3216
  8
寸法線
 10
3424.4596238596682
 20
170.30025678055461
 30
0.0
 11
3426.788995265591
 21
161.60692434395301
 31
0.0
  0
LINE
  5
3217
  8
_0-9_
  6
CONTINUOUS
 62
     7
 10
3424.4596238596682
 20
170.30025678055461
 30
0.0
 11
3454.4596238596691
 21
170.30025678055461
 31
0.0
  0
TEXT
  5
3218
  8
寸法線
 10
3424.118329330533
 20
148.2428951521382
 30
0.0
 40
9.0
  1
30
 50
90.0
  0
LINE
  5
3219
  8
寸法線
 10
3373.9083155440062
 20
170.30025678055461
 30
0.0
 11
3373.9083155440062
 21
190.30025678055461
 31
0.0
  0
LINE
  5
321A
  8
寸法線
 10
3373.9083155440062
 20
170.30025678055461
 30
0.0
 11
3371.578944138083
 21
178.9935892171564
 31
0.0
  0
LINE
  5
321B
  8
寸法線
 10
3373.9083155440062
 20
170.30025678055461
 30
0.0
 11
3376.237686949929
 21
178.9935892171564
 31
0.0
  0
LINE
  5
321C
  8
寸法線
 10
3373.9083155440062
 20
190.30025678055461
 30
0.0
 11
3371.578944138083
 21
181.60692434395301
 31
0.0
  0
LINE
  5
321D
  8
寸法線
 10
3373.9083155440062
 20
190.30025678055461
 30
0.0
 11
3376.237686949929
 21
181.60692434395301
 31
0.0
  0
LINE
  5
321E
  8
_0-9_
  6
CONTINUOUS
 62
     7
 10
3424.4596238596682
 20
190.30025678055461
 30
0.0
 11
3454.4596238596691
 21
190.30025678055461
 31
0.0
  0
TEXT
  5
321F
  8
寸法線
 10
3373.3634291736998
 20
172.26776534781521
 30
0.0
 40
9.0
  1
20
 50
90.0
  0
LINE
  5
3227
  8
寸法線
 10
3434.925623933133
 20
-287.21202761664682
 30
0.0
 11
3434.925623933133
 21
-197.2120276166454
 31
0.0
  0
LINE
  5
3228
  8
寸法線
 10
3434.925623933133
 20
-287.2120276166454
 30
0.0
 11
3432.5962525272112
 21
-278.51869518004378
 31
0.0
  0
LINE
  5
3229
  8
寸法線
 10
3434.925623933133
 20
-287.2120276166454
 30
0.0
 11
3437.2549953390562
 21
-278.51869518004378
 31
0.0
  0
LINE
  5
322A
  8
寸法線
 10
3434.925623933133
 20
-197.2120276166454
 30
0.0
 11
3432.5962525272112
 21
-205.90536005324691
 31
0.0
  0
LINE
  5
322B
  8
寸法線
 10
3434.925623933133
 20
-197.2120276166454
 30
0.0
 11
3437.2549953390562
 21
-205.90536005324691
 31
0.0
  0
LINE
  5
322C
  8
寸法線
 10
3434.925623933133
 20
-197.2120276166454
 30
0.0
 11
3506.632197366715
 21
-197.2120276166454
 31
0.0
  0
TEXT
  5
322D
  8
寸法線
 10
3433.4951236414981
 20
-245.4558196108421
 30
0.0
 40
9.0
  1
90
 50
90.0
  0
LINE
  5
322E
  8
寸法線
 10
3288.9725158003771
 20
340.33277825885449
 30
0.0
 11
3308.9725158003771
 21
340.33277825885449
 31
0.0
  0
LINE
  5
322F
  8
寸法線
 10
3288.9725158003771
 20
340.33277825885449
 30
0.0
 11
3297.6658482369789
 21
342.66214966477719
 31
0.0
  0
LINE
  5
3230
  8
寸法線
 10
3288.9725158003771
 20
340.33277825885449
 30
0.0
 11
3297.6658482369789
 21
338.0034068529319
 31
0.0
  0
LINE
  5
3231
  8
寸法線
 10
3308.9725158003771
 20
340.33277825885449
 30
0.0
 11
3300.2791833637748
 21
342.66214966477719
 31
0.0
  0
LINE
  5
3232
  8
寸法線
 10
3308.9725158003771
 20
340.33277825885449
 30
0.0
 11
3300.2791833637748
 21
338.0034068529319
 31
0.0
  0
TEXT
  5
3233
  8
寸法線
 10
3290.9091100102032
 20
340.65569986407502
 30
0.0
 40
9.0
  1
20
  0
LINE
  5
3234
  8
_0-9_
  6
CONTINUOUS
 62
     5
 10
3511.411938438469
 20
250.30025678055461
 30
0.0
 11
3511.411938438469
 21
140.30025678055461
 31
0.0
  0
LINE
  5
3235
  8
_0-9_
  6
CONTINUOUS
 62
     5
 10
3511.411938438469
 20
140.30025678055461
 30
0.0
 11
3646.411938438469
 21
140.30025678055461
 31
0.0
  0
LINE
  5
3236
  8
_0-9_
  6
CONTINUOUS
 62
     5
 10
3646.411938438469
 20
140.30025678055461
 30
0.0
 11
3646.411938438469
 21
250.30025678055461
 31
0.0
  0
LINE
  5
3237
  8
_0-9_
  6
CONTINUOUS
 62
     5
 10
3646.411938438469
 20
250.30025678055461
 30
0.0
 11
3511.411938438469
 21
250.30025678055461
 31
0.0
  0
LINE
  5
3238
  8
_0-9_
  6
CONTINUOUS
 62
     5
 10
3516.411938438468
 20
250.30025678055461
 30
0.0
 11
3516.411938438468
 21
140.30025678055461
 31
0.0
  0
LINE
  5
3239
  8
_0-9_
  6
CONTINUOUS
 62
     5
 10
3511.411938438469
 20
140.30025678055461
 30
0.0
 11
3511.411938438469
 21
115.30025678055461
 31
0.0
  0
LINE
  5
323A
  8
_0-9_
  6
CONTINUOUS
 62
     5
 10
3511.411938438469
 20
115.30025678055461
 30
0.0
 11
3531.411938438469
 21
115.30025678055461
 31
0.0
  0
LINE
  5
323B
  8
_0-9_
  6
CONTINUOUS
 62
     5
 10
3531.411938438469
 20
115.30025678055461
 30
0.0
 11
3531.411938438469
 21
120.30025678055461
 31
0.0
  0
LINE
  5
323C
  8
_0-9_
  6
CONTINUOUS
 62
     5
 10
3531.411938438469
 20
120.30025678055461
 30
0.0
 11
3536.411938438469
 21
120.30025678055461
 31
0.0
  0
LINE
  5
323D
  8
_0-9_
  6
CONTINUOUS
 62
     5
 10
3536.411938438469
 20
120.30025678055461
 30
0.0
 11
3536.411938438469
 21
140.30025678055461
 31
0.0
  0
LINE
  5
323E
  8
_0-9_
  6
CONTINUOUS
 62
     5
 10
3536.411938438469
 20
140.30025678055461
 30
0.0
 11
3511.411938438469
 21
140.30025678055461
 31
0.0
  0
LINE
  5
323F
  8
_0-9_
  6
CONTINUOUS
 62
     5
 10
3511.411938438469
 20
115.30025678055461
 30
0.0
 11
3591.411938438469
 21
115.30025678055461
 31
0.0
  0
LINE
  5
3240
  8
_0-9_
  6
CONTINUOUS
 62
     5
 10
3646.411938438469
 20
240.30025678055461
 30
0.0
 11
3861.411938438468
 21
240.30025678055461
 31
0.0
  0
LINE
  5
3241
  8
_0-9_
  6
CONTINUOUS
 62
     5
 10
3861.411938438468
 20
240.30025678055461
 30
0.0
 11
3861.411938438468
 21
-260.2120276166454
 31
0.0
  0
LINE
  5
3242
  8
_0-9_
  6
CONTINUOUS
 62
     5
 10
3861.411938438468
 20
-260.2120276166454
 30
0.0
 11
3591.411938438469
 21
-260.2120276166454
 31
0.0
  0
ARC
  5
3243
  8
_0-9_
  6
CONTINUOUS
 62
     5
 10
3551.411938438469
 20
-236.32943368574541
 30
0.0
 40
50.914143418099997
 50
218.22043205479511
 51
321.77956794520497
  0
LINE
  5
3244
  8
_0-9_
  6
CONTINUOUS
 62
     5
 10
3526.411938438469
 20
115.30025678055461
 30
0.0
 11
3526.411938438469
 21
-46.642101305145438
 31
0.0
  0
LINE
  5
3245
  8
_0-9_
  6
CONTINUOUS
 62
     5
 10
3526.411938438469
 20
-59.07819893074543
 30
0.0
 11
3526.411938438469
 21
-177.21202761664529
 31
0.0
  0
LINE
  5
3246
  8
_0-9_
  6
CONTINUOUS
 62
     5
 10
3511.411938438469
 20
-197.2120276166454
 30
0.0
 11
3511.411938438469
 21
-59.07819893074543
 31
0.0
  0
LINE
  5
3247
  8
_0-9_
  6
CONTINUOUS
 62
     5
 10
3511.411938438469
 20
-46.642101305145438
 30
0.0
 11
3511.411938438469
 21
115.30025678055461
 31
0.0
  0
LINE
  5
3248
  8
_0-9_
  6
CONTINUOUS
 62
     5
 10
3526.411938438469
 20
-177.21202761664529
 30
0.0
 11
3591.411938438469
 21
-177.21202761664529
 31
0.0
  0
LINE
  5
3249
  8
_0-9_
  6
CONTINUOUS
 62
     5
 10
3591.411938438469
 20
115.30025678055461
 30
0.0
 11
3591.411938438469
 21
-46.642101305145438
 31
0.0
  0
LINE
  5
324A
  8
_0-9_
  6
CONTINUOUS
 62
     5
 10
3591.411938438469
 20
-59.07819893074543
 30
0.0
 11
3591.4119384384899
 21
-267.82943368570011
 31
0.0
  0
LINE
  5
324B
  8
_0-9_
  6
CONTINUOUS
 62
     5
 10
3583.411938438469
 20
115.30025678055461
 30
0.0
 11
3583.411938438469
 21
-46.642101305145438
 31
0.0
  0
LINE
  5
324C
  8
_0-9_
  6
CONTINUOUS
 62
     5
 10
3583.411938438469
 20
-59.07819893074543
 30
0.0
 11
3583.411938438469
 21
-177.21202761664529
 31
0.0
  0
LINE
  5
324D
  8
_0-9_
  6
CONTINUOUS
 62
     5
 10
3511.411938438469
 20
-232.52606964084529
 30
0.0
 11
3591.411938438469
 21
-232.52606964084529
 31
0.0
  0
LINE
  5
324E
  8
_0-9_
  6
CONTINUOUS
 62
     5
 10
3526.411938438469
 20
-177.21202761664529
 30
0.0
 11
3526.411938438469
 21
-211.8401116650453
 31
0.0
  0
LINE
  5
324F
  8
_0-9_
  6
CONTINUOUS
 62
     5
 10
3526.411938438469
 20
-211.8401116650453
 30
0.0
 11
3511.411938438469
 21
-219.8401116650453
 31
0.0
  0
LINE
  5
3250
  8
_0-9_
  6
CONTINUOUS
 62
     5
 10
3511.411938438469
 20
-219.8401116650453
 30
0.0
 11
3511.411938438448
 21
-267.82943368570011
 31
0.0
  0
LINE
  5
3251
  8
_0-9_
  6
CONTINUOUS
 62
     5
 10
3519.4714320988692
 20
-275.9785705586454
 30
0.0
 11
3511.411938438469
 21
-284.03806421894541
 31
0.0
  0
LINE
  5
3252
  8
_0-9_
  6
CONTINUOUS
 62
     5
 10
3511.411938438469
 20
-284.03806421894541
 30
0.0
 11
3511.411938438469
 21
-286.86649134364541
 31
0.0
  0
LINE
  5
3253
  8
_0-9_
  6
CONTINUOUS
 62
     5
 10
3511.411938438469
 20
-286.86649134364541
 30
0.0
 11
3521.0663183378688
 21
-277.21211144424541
 31
0.0
  0
LINE
  5
3254
  8
_0-9_
  6
CONTINUOUS
 62
     5
 10
3511.411938438469
 20
-197.2120276166454
 30
0.0
 11
3526.411938438469
 21
-197.2120276166454
 31
0.0
  0
LINE
  5
3255
  8
_0-9_
  6
CONTINUOUS
 62
     5
 10
3583.3524447781688
 20
-275.9785705586454
 30
0.0
 11
3591.411938438469
 21
-284.03806421894541
 31
0.0
  0
LINE
  5
3256
  8
_0-9_
  6
CONTINUOUS
 62
     5
 10
3591.411938438469
 20
-284.03806421894541
 30
0.0
 11
3591.411938438469
 21
-286.86649134364541
 31
0.0
  0
LINE
  5
3257
  8
_0-9_
  6
CONTINUOUS
 62
     5
 10
3591.411938438469
 20
-286.86649134364541
 30
0.0
 11
3581.7575585390691
 21
-277.21211144424541
 31
0.0
  0
LINE
  5
3258
  8
_0-9_
  6
CONTINUOUS
 62
     5
 10
3511.411938438469
 20
115.30025678055461
 30
0.0
 11
3526.411938438469
 21
115.30025678055461
 31
0.0
  0
LINE
  5
3259
  8
_0-9_
  6
CONTINUOUS
 62
     5
 10
3583.411938438469
 20
115.30025678055461
 30
0.0
 11
3591.411938438469
 21
115.30025678055461
 31
0.0
  0
CIRCLE
  5
325A
  8
_0-0_
  6
CONTINUOUS
 62
     1
 10
3511.8996330667678
 20
125.6412354870547
 30
0.0
 40
1.5
  0
TEXT
  5
325B
  8
文字
 10
3450.1852713289682
 20
88.967100890998395
 30
0.0
 40
9.0
  1
ガ-ドゴム
  0
LINE
  5
325C
  8
_0-0_
  6
CONTINUOUS
 62
     1
 10
3511.8996330667678
 20
125.6412354870547
 30
0.0
 11
3496.6852717679681
 21
98.593482067054651
 31
0.0
  0
CIRCLE
  5
325D
  8
_0-0_
  6
CONTINUOUS
 62
     1
 10
3561.869298300076
 20
-251.1607098148902
 30
0.0
 40
1.5
  0
TEXT
  5
325E
  8
文字
 10
3619.9735167786389
 20
-229.874679048404
 30
0.0
 40
9.0
  1
ボトムゴム
  0
LINE
  5
325F
  8
文字
 10
3561.869298300076
 20
-251.1607098148902
 30
0.0
 11
3616.9893711500608
 21
-224.94990447822869
 31
0.0
  0
CIRCLE
  5
3260
  8
_0-0_
  6
CONTINUOUS
 62
     1
 10
3589.875788889769
 20
244.85516058035461
 30
0.0
 40
1.5
  0
TEXT
  5
3261
  8
文字
 10
3594.090911328969
 20
267.12429234535449
 30
0.0
 40
9.0
  1
ガレ-ジドアケ-ス
  0
LINE
  5
3262
  8
_0-0_
  6
CONTINUOUS
 62
     1
 10
3589.875788889769
 20
244.85516058035461
 30
0.0
 11
3594.0909115402692
 21
264.12429269705461
 31
0.0
  0
CIRCLE
  5
3263
  8
_0-0_
  6
CONTINUOUS
 62
     1
 10
3518.6703241149689
 20
-126.9788732326453
 30
0.0
 40
1.5
  0
TEXT
  5
3264
  8
文字
 10
3441.7990313289688
 20
-99.591377654645385
 30
0.0
 40
9.0
  1
ガレ-ジドア
  0
TEXT
  5
3265
  8
文字
 10
3441.666293719315
 20
-110.8783343339023
 30
0.0
 40
9.0
  1
表面材
  0
LINE
  5
3266
  8
_0-0_
  6
CONTINUOUS
 62
     1
 10
3518.6703241149689
 20
-126.9788732326453
 30
0.0
 11
3498.7990316197679
 21
-102.5913778975453
 31
0.0
  0
LINE
  5
3267
  8
_0-9_
  6
CONTINUOUS
 62
     5
 10
3516.411938438468
 20
250.30025678055461
 30
0.0
 11
3646.411938438469
 21
140.30025678055461
 31
0.0
  0
LINE
  5
3268
  8
_0-9_
  6
CONTINUOUS
 62
     5
 10
3646.411938438469
 20
250.30025678055461
 30
0.0
 11
3516.411938438468
 21
140.30025678055461
 31
0.0
  0
LINE
  5
3269
  8
_0-9_
  6
CONTINUOUS
 62
     5
 10
3478.580268103769
 20
-46.642101305145438
 30
0.0
 11
3613.2383187005689
 21
-46.642101305145438
 31
0.0
  0
LINE
  5
326A
  8
_0-9_
  6
CONTINUOUS
 62
     5
 10
3613.2383187005689
 20
-59.07819893074543
 30
0.0
 11
3478.580268103769
 21
-59.07819893074543
 31
0.0
  0
LINE
  5
326B
  8
_0-9_
  6
DASHED1
 62
     5
 10
3514.411938438469
 20
253.30025678055461
 30
0.0
 11
3561.411938438469
 21
253.30025678055461
 31
0.0
  0
LINE
  5
326C
  8
_0-9_
  6
DASHED1
 62
     5
 10
3514.411938438469
 20
300.30025678055461
 30
0.0
 11
3514.411938438469
 21
253.30025678055461
 31
0.0
  0
LINE
  5
326D
  8
_0-9_
  6
DASHED1
 62
     5
 10
3511.411938438469
 20
300.30025678055461
 30
0.0
 11
3514.411938438469
 21
300.30025678055461
 31
0.0
  0
LINE
  5
326E
  8
_0-9_
  6
DASHED1
 62
     5
 10
3511.411938438469
 20
300.30025678055461
 30
0.0
 11
3511.411938438469
 21
250.30025678055461
 31
0.0
  0
LINE
  5
326F
  8
_0-9_
  6
CONTINUOUS
 62
     7
 10
3511.411938438469
 20
170.30025678055461
 30
0.0
 11
3288.9725158003771
 21
170.30025678055461
 31
0.0
  0
LINE
  5
3270
  8
_0-9_
  6
CONTINUOUS
 62
     7
 10
3308.9725158003771
 20
190.30025678055429
 30
0.0
 11
3511.411938438469
 21
190.30025678055461
 31
0.0
  0
LINE
  5
3271
  8
寸法線
 10
3511.411938438469
 20
59.213620667676651
 30
0.0
 11
3591.411938438469
 21
59.213620667676651
 31
0.0
  0
LINE
  5
3272
  8
寸法線
 10
3511.411938438469
 20
59.213620667676651
 30
0.0
 11
3520.1052708750699
 21
61.5429920735994
 31
0.0
  0
LINE
  5
3273
  8
寸法線
 10
3511.411938438469
 20
59.213620667676651
 30
0.0
 11
3520.1052708750699
 21
56.884249261754
 31
0.0
  0
LINE
  5
3274
  8
寸法線
 10
3591.411938438469
 20
59.213620667676651
 30
0.0
 11
3582.7186060018671
 21
61.5429920735994
 31
0.0
  0
LINE
  5
3275
  8
寸法線
 10
3591.411938438469
 20
59.213620667676651
 30
0.0
 11
3582.7186060018671
 21
56.884249261754
 31
0.0
  0
TEXT
  5
3276
  8
寸法線
 10
3546.536938438469
 20
59.213620667676651
 30
0.0
 40
9.0
  1
80
  0
LINE
  5
3277
  8
寸法線
 10
3591.411938438469
 20
59.213620667676651
 30
0.0
 11
3861.411938438468
 21
59.213620667676651
 31
0.0
  0
LINE
  5
3278
  8
寸法線
 10
3591.411938438469
 20
59.213620667676651
 30
0.0
 11
3600.1052708750699
 21
61.5429920735994
 31
0.0
  0
LINE
  5
3279
  8
寸法線
 10
3591.411938438469
 20
59.213620667676651
 30
0.0
 11
3600.1052708750699
 21
56.884249261754
 31
0.0
  0
LINE
  5
327A
  8
寸法線
 10
3861.411938438468
 20
59.213620667676651
 30
0.0
 11
3852.7186060018671
 21
61.5429920735994
 31
0.0
  0
LINE
  5
327B
  8
寸法線
 10
3861.411938438468
 20
59.213620667676651
 30
0.0
 11
3852.7186060018671
 21
56.884249261754
 31
0.0
  0
TEXT
  5
327C
  8
寸法線
 10
3718.911938438469
 20
59.213620667676651
 30
0.0
 40
9.0
  1
270
  0
LINE
  5
327D
  8
寸法線
 10
3511.411938438469
 20
31.34436620134511
 30
0.0
 11
3861.411938438468
 21
31.34436620134511
 31
0.0
  0
LINE
  5
327E
  8
寸法線
 10
3511.411938438469
 20
31.34436620134511
 30
0.0
 11
3520.1052708750699
 21
33.673737607267753
 31
0.0
  0
LINE
  5
327F
  8
寸法線
 10
3511.411938438469
 20
31.34436620134511
 30
0.0
 11
3520.1052708750699
 21
29.01499479542241
 31
0.0
  0
LINE
  5
3280
  8
寸法線
 10
3861.411938438468
 20
31.34436620134511
 30
0.0
 11
3852.7186060018671
 21
33.673737607267753
 31
0.0
  0
LINE
  5
3281
  8
寸法線
 10
3861.411938438468
 20
31.34436620134511
 30
0.0
 11
3852.7186060018671
 21
29.01499479542241
 31
0.0
  0
TEXT
  5
3282
  8
寸法線
 10
3678.911938438468
 20
31.34436620134511
 30
0.0
 40
9.0
  1
350
  0
LINE
  5
3283
  8
寸法線
 10
3743.9601290062969
 20
-287.2120276166454
 30
0.0
 11
3743.9601290062969
 21
-302.21202761664529
 31
0.0
  0
LINE
  5
3284
  8
寸法線
 10
3743.9601290062969
 20
-260.2120276166454
 30
0.0
 11
3743.9601290062969
 21
-245.2120276166454
 31
0.0
  0
LINE
  5
3285
  8
寸法線
 10
3743.960129006296
 20
-287.2120276166454
 30
0.0
 11
3743.9601290062969
 21
-260.2120276166454
 31
0.0
  0
LINE
  5
3286
  8
寸法線
 10
3743.9601290062969
 20
-287.2120276166454
 30
0.0
 11
3746.2895004122201
 21
-295.90536005324702
 31
0.0
  0
LINE
  5
3287
  8
寸法線
 10
3743.9601290062969
 20
-287.2120276166454
 30
0.0
 11
3741.6307576003742
 21
-295.90536005324702
 31
0.0
  0
LINE
  5
3288
  8
寸法線
 10
3743.9601290062969
 20
-260.2120276166454
 30
0.0
 11
3746.2895004122201
 21
-251.51869518004369
 31
0.0
  0
LINE
  5
3289
  8
寸法線
 10
3743.9601290062969
 20
-260.2120276166454
 30
0.0
 11
3741.6307576003742
 21
-251.51869518004369
 31
0.0
  0
TEXT
  5
328A
  8
寸法線
 10
3742.5130700687309
 20
-282.66454110151989
 30
0.0
 40
9.0
  1
27
 50
90.0
  0
LINE
  5
328B
  8
_0-1_
  6
CONTINUOUS
 62
     7
 10
3511.411938438469
 20
108.0635261796545
 30
0.0
 11
3518.648669039369
 21
115.30025678055461
 31
0.0
  0
LINE
  5
328C
  8
_0-1_
  6
CONTINUOUS
 62
     7
 10
3511.411938438469
 20
99.578244805454574
 30
0.0
 11
3526.411938438469
 21
114.5782448054545
 31
0.0
  0
LINE
  5
328D
  8
_0-1_
  6
CONTINUOUS
 62
     7
 10
3511.411938438469
 20
91.092963431154644
 30
0.0
 11
3526.411938438469
 21
106.0929634311546
 31
0.0
  0
LINE
  5
328E
  8
_0-1_
  6
CONTINUOUS
 62
     7
 10
3511.411938438469
 20
82.607682056954545
 30
0.0
 11
3526.411938438469
 21
97.607682056954545
 31
0.0
  0
LINE
  5
328F
  8
_0-1_
  6
CONTINUOUS
 62
     7
 10
3511.411938438469
 20
74.12240068275446
 30
0.0
 11
3526.411938438469
 21
89.12240068275446
 31
0.0
  0
LINE
  5
3290
  8
_0-1_
  6
CONTINUOUS
 62
     7
 10
3511.411938438469
 20
65.637119308454544
 30
0.0
 11
3526.411938438469
 21
80.637119308454544
 31
0.0
  0
LINE
  5
3291
  8
_0-1_
  6
CONTINUOUS
 62
     7
 10
3511.411938438469
 20
57.151837934254559
 30
0.0
 11
3526.411938438469
 21
72.151837934254559
 31
0.0
  0
LINE
  5
3292
  8
_0-1_
  6
CONTINUOUS
 62
     7
 10
3511.411938438469
 20
48.666556559954643
 30
0.0
 11
3526.411938438469
 21
63.666556559954643
 31
0.0
  0
LINE
  5
3293
  8
_0-1_
  6
CONTINUOUS
 62
     7
 10
3511.411938438469
 20
40.1812751857546
 30
0.0
 11
3526.411938438469
 21
55.18127518575465
 31
0.0
  0
LINE
  5
3294
  8
_0-1_
  6
CONTINUOUS
 62
     7
 10
3511.411938438469
 20
31.695993811554558
 30
0.0
 11
3526.411938438469
 21
46.695993811554558
 31
0.0
  0
LINE
  5
3295
  8
_0-1_
  6
CONTINUOUS
 62
     7
 10
3511.411938438469
 20
23.210712437254639
 30
0.0
 11
3526.411938438469
 21
38.210712437254642
 31
0.0
  0
LINE
  5
3296
  8
_0-1_
  6
CONTINUOUS
 62
     7
 10
3511.411938438469
 20
14.72543106305454
 30
0.0
 11
3526.411938438469
 21
29.72543106305455
 31
0.0
  0
LINE
  5
3297
  8
_0-1_
  6
CONTINUOUS
 62
     7
 10
3511.411938438469
 20
6.240149688854558
 30
0.0
 11
3526.411938438469
 21
21.240149688854562
 31
0.0
  0
LINE
  5
3298
  8
_0-1_
  6
CONTINUOUS
 62
     7
 10
3511.411938438469
 20
-2.2451316854452439
 30
0.0
 11
3526.411938438469
 21
12.75486831455475
 31
0.0
  0
LINE
  5
3299
  8
_0-1_
  6
CONTINUOUS
 62
     7
 10
3511.411938438469
 20
-10.7304130596454
 30
0.0
 11
3526.411938438469
 21
4.269586940354599
 31
0.0
  0
LINE
  5
329A
  8
_0-1_
  6
CONTINUOUS
 62
     7
 10
3511.411938438469
 20
-19.21569443394543
 30
0.0
 11
3526.411938438469
 21
-4.215694433945429
 31
0.0
  0
LINE
  5
329B
  8
_0-1_
  6
CONTINUOUS
 62
     7
 10
3511.411938438469
 20
-27.700975808145419
 30
0.0
 11
3526.411938438469
 21
-12.70097580814541
 31
0.0
  0
LINE
  5
329C
  8
_0-1_
  6
CONTINUOUS
 62
     7
 10
3511.411938438469
 20
-36.186257182345287
 30
0.0
 11
3526.411938438469
 21
-21.18625718234529
 31
0.0
  0
LINE
  5
329D
  8
_0-1_
  6
CONTINUOUS
 62
     7
 10
3511.411938438469
 20
-44.67153855664543
 30
0.0
 11
3526.411938438469
 21
-29.67153855664543
 31
0.0
  0
LINE
  5
329E
  8
_0-1_
  6
CONTINUOUS
 62
     7
 10
3517.926657064269
 20
-46.642101305145438
 30
0.0
 11
3526.411938438469
 21
-38.156819930845359
 31
0.0
  0
LINE
  5
329F
  8
_0-1_
  6
CONTINUOUS
 62
     7
 10
3515.1747331842689
 20
250.30025678055461
 30
0.0
 11
3516.411938438468
 21
249.06305152635471
 31
0.0
  0
LINE
  5
32A0
  8
_0-1_
  6
CONTINUOUS
 62
     7
 10
3511.411938438469
 20
241.3351294649548
 30
0.0
 11
3516.411938438468
 21
236.33512946495469
 31
0.0
  0
LINE
  5
32A1
  8
_0-1_
  6
CONTINUOUS
 62
     7
 10
3511.411938438469
 20
228.6072074036546
 30
0.0
 11
3516.411938438468
 21
223.6072074036546
 31
0.0
  0
LINE
  5
32A2
  8
_0-1_
  6
CONTINUOUS
 62
     7
 10
3511.411938438469
 20
215.8792853422546
 30
0.0
 11
3516.411938438468
 21
210.87928534225449
 31
0.0
  0
LINE
  5
32A3
  8
_0-1_
  6
CONTINUOUS
 62
     7
 10
3511.411938438469
 20
203.15136328085461
 30
0.0
 11
3516.411938438468
 21
198.1513632808547
 31
0.0
  0
LINE
  5
32A4
  8
_0-1_
  6
CONTINUOUS
 62
     7
 10
3511.411938438469
 20
190.42344121955449
 30
0.0
 11
3516.411938438468
 21
185.4234412195546
 31
0.0
  0
LINE
  5
32A5
  8
_0-1_
  6
CONTINUOUS
 62
     7
 10
3511.411938438469
 20
177.6955191581547
 30
0.0
 11
3516.411938438468
 21
172.69551915815461
 31
0.0
  0
LINE
  5
32A6
  8
_0-1_
  6
CONTINUOUS
 62
     7
 10
3511.411938438469
 20
164.9675970968546
 30
0.0
 11
3516.411938438468
 21
159.9675970968546
 31
0.0
  0
LINE
  5
32A7
  8
_0-1_
  6
CONTINUOUS
 62
     7
 10
3511.411938438469
 20
152.23967503545461
 30
0.0
 11
3516.411938438468
 21
147.23967503545461
 31
0.0
  0
LINE
  5
32A8
  8
_0-1_
  6
CONTINUOUS
 62
     7
 10
3583.411938438469
 20
114.5782448054545
 30
0.0
 11
3584.133950413569
 21
115.30025678055461
 31
0.0
  0
LINE
  5
32A9
  8
_0-1_
  6
CONTINUOUS
 62
     7
 10
3583.411938438469
 20
106.0929634311546
 30
0.0
 11
3591.411938438469
 21
114.0929634311546
 31
0.0
  0
LINE
  5
32AA
  8
_0-1_
  6
CONTINUOUS
 62
     7
 10
3583.411938438469
 20
97.607682056954545
 30
0.0
 11
3591.411938438469
 21
105.6076820569545
 31
0.0
  0
LINE
  5
32AB
  8
_0-1_
  6
CONTINUOUS
 62
     7
 10
3583.411938438469
 20
89.12240068275446
 30
0.0
 11
3591.411938438469
 21
97.122400682754574
 31
0.0
  0
LINE
  5
32AC
  8
_0-1_
  6
CONTINUOUS
 62
     7
 10
3583.411938438469
 20
80.637119308454544
 30
0.0
 11
3591.411938438469
 21
88.637119308454544
 31
0.0
  0
LINE
  5
32AD
  8
_0-1_
  6
CONTINUOUS
 62
     7
 10
3583.411938438469
 20
72.151837934254559
 30
0.0
 11
3591.411938438469
 21
80.151837934254544
 31
0.0
  0
LINE
  5
32AE
  8
_0-1_
  6
CONTINUOUS
 62
     7
 10
3583.411938438469
 20
63.666556559954643
 30
0.0
 11
3591.411938438469
 21
71.666556559954756
 31
0.0
  0
LINE
  5
32AF
  8
_0-1_
  6
CONTINUOUS
 62
     7
 10
3583.411938438469
 20
55.18127518575465
 30
0.0
 11
3591.411938438469
 21
63.18127518575465
 31
0.0
  0
LINE
  5
32B0
  8
_0-1_
  6
CONTINUOUS
 62
     7
 10
3583.411938438469
 20
46.695993811554558
 30
0.0
 11
3591.411938438469
 21
54.695993811554558
 31
0.0
  0
LINE
  5
32B1
  8
_0-1_
  6
CONTINUOUS
 62
     7
 10
3583.411938438469
 20
38.210712437254642
 30
0.0
 11
3591.411938438469
 21
46.210712437254642
 31
0.0
  0
LINE
  5
32B2
  8
_0-1_
  6
CONTINUOUS
 62
     7
 10
3583.411938438469
 20
29.72543106305455
 30
0.0
 11
3591.411938438469
 21
37.725431063054543
 31
0.0
  0
LINE
  5
32B3
  8
_0-1_
  6
CONTINUOUS
 62
     7
 10
3583.411938438469
 20
21.240149688854562
 30
0.0
 11
3591.411938438469
 21
29.240149688854562
 31
0.0
  0
LINE
  5
32B4
  8
_0-1_
  6
CONTINUOUS
 62
     7
 10
3583.411938438469
 20
12.75486831455475
 30
0.0
 11
3591.411938438469
 21
20.754868314554638
 31
0.0
  0
LINE
  5
32B5
  8
_0-1_
  6
CONTINUOUS
 62
     7
 10
3583.411938438469
 20
4.269586940354599
 30
0.0
 11
3591.411938438469
 21
12.2695869403546
 31
0.0
  0
LINE
  5
32B6
  8
_0-1_
  6
CONTINUOUS
 62
     7
 10
3583.411938438469
 20
-4.215694433945429
 30
0.0
 11
3591.411938438469
 21
3.7843055660545701
 31
0.0
  0
LINE
  5
32B7
  8
_0-1_
  6
CONTINUOUS
 62
     7
 10
3583.411938438469
 20
-12.70097580814541
 30
0.0
 11
3591.411938438469
 21
-4.7009758081453006
 31
0.0
  0
LINE
  5
32B8
  8
_0-1_
  6
CONTINUOUS
 62
     7
 10
3583.411938438469
 20
-21.18625718234529
 30
0.0
 11
3591.411938438469
 21
-13.18625718234545
 31
0.0
  0
LINE
  5
32B9
  8
_0-1_
  6
CONTINUOUS
 62
     7
 10
3583.411938438469
 20
-29.67153855664543
 30
0.0
 11
3591.411938438469
 21
-21.67153855664543
 31
0.0
  0
LINE
  5
32BA
  8
_0-1_
  6
CONTINUOUS
 62
     7
 10
3583.411938438469
 20
-38.156819930845359
 30
0.0
 11
3591.411938438469
 21
-30.156819930845359
 31
0.0
  0
LINE
  5
32BB
  8
_0-1_
  6
CONTINUOUS
 62
     7
 10
3583.411938438469
 20
-46.642101305145438
 30
0.0
 11
3591.411938438469
 21
-38.642101305145452
 31
0.0
  0
LINE
  5
32BC
  8
_0-1_
  6
CONTINUOUS
 62
     7
 10
3511.411938438469
 20
-59.476962880345297
 30
0.0
 11
3511.8107023881689
 21
-59.07819893074543
 31
0.0
  0
LINE
  5
32BD
  8
_0-1_
  6
CONTINUOUS
 62
     7
 10
3511.411938438469
 20
-67.962244254545396
 30
0.0
 11
3520.2959837623689
 21
-59.07819893074543
 31
0.0
  0
LINE
  5
32BE
  8
_0-1_
  6
CONTINUOUS
 62
     7
 10
3511.411938438469
 20
-76.447525628845369
 30
0.0
 11
3526.411938438469
 21
-61.447525628845369
 31
0.0
  0
LINE
  5
32BF
  8
_0-1_
  6
CONTINUOUS
 62
     7
 10
3511.411938438469
 20
-84.932807003045355
 30
0.0
 11
3526.411938438469
 21
-69.932807003045355
 31
0.0
  0
LINE
  5
32C0
  8
_0-1_
  6
CONTINUOUS
 62
     7
 10
3511.411938438469
 20
-93.418088377345455
 30
0.0
 11
3526.411938438469
 21
-78.418088377345441
 31
0.0
  0
LINE
  5
32C1
  8
_0-1_
  6
CONTINUOUS
 62
     7
 10
3511.411938438469
 20
-101.9033697515454
 30
0.0
 11
3526.411938438469
 21
-86.903369751545426
 31
0.0
  0
LINE
  5
32C2
  8
_0-1_
  6
CONTINUOUS
 62
     7
 10
3511.411938438469
 20
-110.3886511257453
 30
0.0
 11
3526.411938438469
 21
-95.388651125745355
 31
0.0
  0
LINE
  5
32C3
  8
_0-1_
  6
CONTINUOUS
 62
     7
 10
3511.411938438469
 20
-118.8739325000454
 30
0.0
 11
3526.411938438469
 21
-103.8739325000454
 31
0.0
  0
LINE
  5
32C4
  8
_0-1_
  6
CONTINUOUS
 62
     7
 10
3511.411938438469
 20
-127.3592138742454
 30
0.0
 11
3526.411938438469
 21
-112.3592138742454
 31
0.0
  0
LINE
  5
32C5
  8
_0-1_
  6
CONTINUOUS
 62
     7
 10
3511.411938438469
 20
-135.84449524854529
 30
0.0
 11
3526.411938438469
 21
-120.8444952485453
 31
0.0
  0
LINE
  5
32C6
  8
_0-1_
  6
CONTINUOUS
 62
     7
 10
3511.411938438469
 20
-144.32977662274541
 30
0.0
 11
3526.411938438469
 21
-129.32977662274541
 31
0.0
  0
LINE
  5
32C7
  8
_0-1_
  6
CONTINUOUS
 62
     7
 10
3511.411938438469
 20
-152.8150579969454
 30
0.0
 11
3526.411938438469
 21
-137.8150579969454
 31
0.0
  0
LINE
  5
32C8
  8
_0-1_
  6
CONTINUOUS
 62
     7
 10
3511.411938438469
 20
-161.3003393712454
 30
0.0
 11
3526.411938438469
 21
-146.3003393712454
 31
0.0
  0
LINE
  5
32C9
  8
_0-1_
  6
CONTINUOUS
 62
     7
 10
3511.411938438469
 20
-169.7856207454453
 30
0.0
 11
3526.411938438469
 21
-154.7856207454453
 31
0.0
  0
LINE
  5
32CA
  8
_0-1_
  6
CONTINUOUS
 62
     7
 10
3511.411938438469
 20
-178.2709021196454
 30
0.0
 11
3526.411938438469
 21
-163.2709021196454
 31
0.0
  0
LINE
  5
32CB
  8
_0-1_
  6
CONTINUOUS
 62
     7
 10
3511.411938438469
 20
-186.75618349394529
 30
0.0
 11
3526.411938438469
 21
-171.75618349394529
 31
0.0
  0
LINE
  5
32CC
  8
_0-1_
  6
CONTINUOUS
 62
     7
 10
3511.411938438469
 20
-195.24146486814541
 30
0.0
 11
3526.411938438469
 21
-180.24146486814541
 31
0.0
  0
LINE
  5
32CD
  8
_0-1_
  6
CONTINUOUS
 62
     7
 10
3517.926657064269
 20
-197.2120276166454
 30
0.0
 11
3526.411938438469
 21
-188.72674624244539
 31
0.0
  0
LINE
  5
32CE
  8
_0-1_
  6
CONTINUOUS
 62
     7
 10
3583.411938438469
 20
-67.563480304945301
 30
0.0
 11
3591.411938438469
 21
-59.563480304945422
 31
0.0
  0
LINE
  5
32CF
  8
_0-1_
  6
CONTINUOUS
 62
     7
 10
3583.411938438469
 20
-76.048761679145457
 30
0.0
 11
3591.411938438469
 21
-68.048761679145287
 31
0.0
  0
LINE
  5
32D0
  8
_0-1_
  6
CONTINUOUS
 62
     7
 10
3583.411938438469
 20
-84.53404305344543
 30
0.0
 11
3591.411938438469
 21
-76.53404305344543
 31
0.0
  0
LINE
  5
32D1
  8
_0-1_
  6
CONTINUOUS
 62
     7
 10
3583.411938438469
 20
-93.019324427645358
 30
0.0
 11
3591.411938438469
 21
-85.019324427645302
 31
0.0
  0
LINE
  5
32D2
  8
_0-1_
  6
CONTINUOUS
 62
     7
 10
3583.411938438469
 20
-101.5046058019452
 30
0.0
 11
3591.411938438469
 21
-93.504605801945445
 31
0.0
  0
LINE
  5
32D3
  8
_0-1_
  6
CONTINUOUS
 62
     7
 10
3583.411938438469
 20
-109.9898871761452
 30
0.0
 11
3591.411938438469
 21
-101.9898871761452
 31
0.0
  0
LINE
  5
32D4
  8
_0-1_
  6
CONTINUOUS
 62
     7
 10
3583.411938438469
 20
-118.4751685503453
 30
0.0
 11
3591.411938438469
 21
-110.4751685503453
 31
0.0
  0
LINE
  5
32D5
  8
_0-1_
  6
CONTINUOUS
 62
     7
 10
3583.411938438469
 20
-126.9604499246453
 30
0.0
 11
3591.411938438469
 21
-118.9604499246452
 31
0.0
  0
LINE
  5
32D6
  8
_0-1_
  6
CONTINUOUS
 62
     7
 10
3583.411938438469
 20
-135.44573129884529
 30
0.0
 11
3591.411938438469
 21
-127.4457312988453
 31
0.0
  0
LINE
  5
32D7
  8
_0-1_
  6
CONTINUOUS
 62
     7
 10
3583.411938438469
 20
-143.93101267314529
 30
0.0
 11
3591.411938438469
 21
-135.93101267314529
 31
0.0
  0
LINE
  5
32D8
  8
_0-1_
  6
CONTINUOUS
 62
     7
 10
3583.411938438469
 20
-152.41629404734519
 30
0.0
 11
3591.411938438469
 21
-144.4162940473453
 31
0.0
  0
LINE
  5
32D9
  8
_0-1_
  6
CONTINUOUS
 62
     7
 10
3583.411938438469
 20
-160.9015754215452
 30
0.0
 11
3591.411938438469
 21
-152.9015754215454
 31
0.0
  0
LINE
  5
32DA
  8
_0-1_
  6
CONTINUOUS
 62
     7
 10
3583.411938438469
 20
-169.38685679584529
 30
0.0
 11
3591.411938438469
 21
-161.38685679584529
 31
0.0
  0
LINE
  5
32DB
  8
_0-1_
  6
CONTINUOUS
 62
     7
 10
3584.072048991969
 20
-177.21202761664529
 30
0.0
 11
3591.411938438469
 21
-169.87213817004519
 31
0.0
  0
LINE
  5
32DC
  8
_0-1_
  6
CONTINUOUS
 62
     7
 10
3511.411938438469
 20
-246.57241730984529
 30
0.0
 11
3525.4582861078138
 21
-232.52606964084529
 31
0.0
  0
LINE
  5
32DD
  8
_0-1_
  6
CONTINUOUS
 62
     7
 10
3511.411938438469
 20
-267.78562074554537
 30
0.0
 11
3546.6714895430291
 21
-232.52606964084529
 31
0.0
  0
LINE
  5
32DE
  8
_0-1_
  6
CONTINUOUS
 62
     7
 10
3522.3065908516678
 20
-278.10417176804538
 30
0.0
 11
3567.8846929786118
 21
-232.52606964084529
 31
0.0
  0
LINE
  5
32DF
  8
_0-1_
  6
CONTINUOUS
 62
     7
 10
3536.5866262502691
 20
-285.03733980494542
 30
0.0
 11
3589.0978964141232
 21
-232.52606964084529
 31
0.0
  0
LINE
  5
32E0
  8
_0-1_
  6
CONTINUOUS
 62
     7
 10
3555.7814360091679
 20
-287.05573348154542
 30
0.0
 11
3591.411938438469
 21
-251.4252310520454
 31
0.0
  0
LINE
  5
32E1
  8
_0-1_
  6
CONTINUOUS
 62
     7
 10
3577.3655907697162
 20
-232.52606964084529
 30
0.0
 11
3591.411938438469
 21
-246.57241730994539
 31
0.0
  0
LINE
  5
32E2
  8
_0-1_
  6
CONTINUOUS
 62
     7
 10
3556.1523873340479
 20
-232.52606964084529
 30
0.0
 11
3591.411938438469
 21
-267.78562074554537
 31
0.0
  0
LINE
  5
32E3
  8
_0-1_
  6
CONTINUOUS
 62
     7
 10
3534.9391838984252
 20
-232.52606964084529
 30
0.0
 11
3580.5172860253688
 21
-278.10417176804538
 31
0.0
  0
LINE
  5
32E4
  8
_0-1_
  6
CONTINUOUS
 62
     7
 10
3513.7259804629148
 20
-232.52606964084529
 30
0.0
 11
3566.2372506267689
 21
-285.03733980494542
 31
0.0
  0
LINE
  5
32E5
  8
_0-1_
  6
CONTINUOUS
 62
     7
 10
3511.411938438469
 20
-251.4252310520454
 30
0.0
 11
3547.0424408677691
 21
-287.05573348154542
 31
0.0
  0
LINE
  5
32E6
  8
_0-1_
  6
CONTINUOUS
 62
     7
 10
4203.2424576042677
 20
47.960662674254593
 30
0.0
 11
4208.0546012081686
 21
43.148519070354602
 31
0.0
  0
LINE
  5
32E7
  8
_0-1_
  6
CONTINUOUS
 62
     7
 10
4190.5145355429686
 20
47.960662674254593
 30
0.0
 11
4197.5145355429686
 21
40.960662674254593
 31
0.0
  0
LINE
  5
32E8
  8
_0-1_
  6
CONTINUOUS
 62
     7
 10
4177.7866134815677
 20
47.960662674254593
 30
0.0
 11
4184.7866134815686
 21
40.960662674254593
 31
0.0
  0
LINE
  5
32E9
  8
_0-1_
  6
CONTINUOUS
 62
     7
 10
4165.0586914202677
 20
47.960662674254593
 30
0.0
 11
4172.0586914202677
 21
40.960662674254593
 31
0.0
  0
LINE
  5
32EA
  8
_0-1_
  6
CONTINUOUS
 62
     7
 10
4152.3307693588677
 20
47.960662674254593
 30
0.0
 11
4159.3307693588677
 21
40.960662674254593
 31
0.0
  0
LINE
  5
32EB
  8
_0-1_
  6
CONTINUOUS
 62
     7
 10
4139.6028472975677
 20
47.960662674254593
 30
0.0
 11
4146.6028472975677
 21
40.960662674254593
 31
0.0
  0
LINE
  5
32EC
  8
_0-1_
  6
CONTINUOUS
 62
     7
 10
4126.8749252361677
 20
47.960662674254593
 30
0.0
 11
4133.8749252361686
 21
40.960662674254593
 31
0.0
  0
LINE
  5
32ED
  8
_0-1_
  6
CONTINUOUS
 62
     7
 10
4114.1470031747676
 20
47.960662674254593
 30
0.0
 11
4121.1470031747676
 21
40.960662674254593
 31
0.0
  0
LINE
  5
32EE
  8
_0-1_
  6
CONTINUOUS
 62
     7
 10
4101.4190811134677
 20
47.960662674254593
 30
0.0
 11
4108.4190811134686
 21
40.960662674254593
 31
0.0
  0
LINE
  5
32EF
  8
_0-1_
  6
CONTINUOUS
 62
     7
 10
4088.691159052069
 20
47.960662674254593
 30
0.0
 11
4095.6911590520681
 21
40.960662674254593
 31
0.0
  0
LINE
  5
32F0
  8
_0-1_
  6
CONTINUOUS
 62
     7
 10
4075.963236990769
 20
47.960662674254593
 30
0.0
 11
4082.9632369907681
 21
40.960662674254593
 31
0.0
  0
LINE
  5
32F1
  8
_0-1_
  6
CONTINUOUS
 62
     7
 10
4063.2353149293681
 20
47.960662674254593
 30
0.0
 11
4070.235314929369
 21
40.960662674254593
 31
0.0
  0
LINE
  5
32F2
  8
_0-1_
  6
CONTINUOUS
 62
     7
 10
4050.5073928679681
 20
47.960662674254593
 30
0.0
 11
4057.5073928679681
 21
40.960662674254593
 31
0.0
  0
LINE
  5
32F3
  8
_0-1_
  6
CONTINUOUS
 62
     7
 10
4037.7794708066681
 20
47.960662674254593
 30
0.0
 11
4044.779470806669
 21
40.960662674254593
 31
0.0
  0
LINE
  5
32F4
  8
_0-1_
  6
CONTINUOUS
 62
     7
 10
4025.051548745269
 20
47.960662674254593
 30
0.0
 11
4032.0515487452681
 21
40.960662674254593
 31
0.0
  0
LINE
  5
32F5
  8
_0-1_
  6
CONTINUOUS
 62
     7
 10
4012.3236266839681
 20
47.960662674254593
 30
0.0
 11
4019.3236266839681
 21
40.960662674254593
 31
0.0
  0
LINE
  5
32F6
  8
_0-1_
  6
CONTINUOUS
 62
     7
 10
3999.595704622569
 20
47.960662674254593
 30
0.0
 11
4006.5957046225681
 21
40.960662674254593
 31
0.0
  0
LINE
  5
32F7
  8
_0-1_
  6
CONTINUOUS
 62
     7
 10
3986.867782561269
 20
47.960662674254593
 30
0.0
 11
3993.867782561269
 21
40.960662674254593
 31
0.0
  0
LINE
  5
32F8
  8
_0-1_
  6
CONTINUOUS
 62
     7
 10
3974.139860499869
 20
47.960662674254593
 30
0.0
 11
3981.139860499869
 21
40.960662674254593
 31
0.0
  0
LINE
  5
32F9
  8
_0-1_
  6
CONTINUOUS
 62
     7
 10
3961.411938438469
 20
47.960662674254593
 30
0.0
 11
3968.411938438469
 21
40.960662674254593
 31
0.0
  0
LINE
  5
32FA
  8
_0-1_
  6
CONTINUOUS
 62
     7
 10
4200.9703796656677
 20
120.96066267425461
 30
0.0
 11
4208.0546012081686
 21
113.8764411317546
 31
0.0
  0
LINE
  5
32FB
  8
_0-1_
  6
CONTINUOUS
 62
     7
 10
4188.2424576042677
 20
120.96066267425461
 30
0.0
 11
4203.2424576042677
 21
105.96066267425449
 31
0.0
  0
LINE
  5
32FC
  8
_0-1_
  6
CONTINUOUS
 62
     7
 10
4175.5145355429677
 20
120.96066267425461
 30
0.0
 11
4190.5145355429686
 21
105.96066267425449
 31
0.0
  0
LINE
  5
32FD
  8
_0-1_
  6
CONTINUOUS
 62
     7
 10
4162.7866134815677
 20
120.96066267425461
 30
0.0
 11
4177.7866134815677
 21
105.96066267425449
 31
0.0
  0
LINE
  5
32FE
  8
_0-1_
  6
CONTINUOUS
 62
     7
 10
4150.0586914202686
 20
120.96066267425461
 30
0.0
 11
4165.0586914202677
 21
105.96066267425449
 31
0.0
  0
LINE
  5
32FF
  8
_0-1_
  6
CONTINUOUS
 62
     7
 10
4137.3307693588677
 20
120.96066267425461
 30
0.0
 11
4152.3307693588677
 21
105.96066267425449
 31
0.0
  0
LINE
  5
3300
  8
_0-1_
  6
CONTINUOUS
 62
     7
 10
4124.6028472975686
 20
120.96066267425461
 30
0.0
 11
4139.6028472975677
 21
105.96066267425449
 31
0.0
  0
LINE
  5
3301
  8
_0-1_
  6
CONTINUOUS
 62
     7
 10
4111.8749252361677
 20
120.96066267425461
 30
0.0
 11
4126.8749252361677
 21
105.96066267425449
 31
0.0
  0
LINE
  5
3302
  8
_0-1_
  6
CONTINUOUS
 62
     7
 10
4099.1470031747695
 20
120.96066267425461
 30
0.0
 11
4114.1470031747676
 21
105.96066267425449
 31
0.0
  0
LINE
  5
3303
  8
_0-1_
  6
CONTINUOUS
 62
     7
 10
4086.4190811134681
 20
120.96066267425461
 30
0.0
 11
4101.4190811134677
 21
105.96066267425449
 31
0.0
  0
LINE
  5
3304
  8
_0-1_
  6
CONTINUOUS
 62
     7
 10
4073.6911590520681
 20
120.96066267425461
 30
0.0
 11
4088.691159052069
 21
105.96066267425449
 31
0.0
  0
LINE
  5
3305
  8
_0-1_
  6
CONTINUOUS
 62
     7
 10
4060.9632369907681
 20
120.96066267425461
 30
0.0
 11
4075.963236990769
 21
105.96066267425449
 31
0.0
  0
LINE
  5
3306
  8
_0-1_
  6
CONTINUOUS
 62
     7
 10
4048.2353149293681
 20
120.96066267425461
 30
0.0
 11
4063.2353149293681
 21
105.96066267425449
 31
0.0
  0
LINE
  5
3307
  8
_0-1_
  6
CONTINUOUS
 62
     7
 10
4035.507392867969
 20
120.96066267425461
 30
0.0
 11
4050.5073928679681
 21
105.96066267425449
 31
0.0
  0
LINE
  5
3308
  8
_0-1_
  6
CONTINUOUS
 62
     7
 10
4022.779470806669
 20
120.96066267425461
 30
0.0
 11
4037.7794708066681
 21
105.96066267425449
 31
0.0
  0
LINE
  5
3309
  8
_0-1_
  6
CONTINUOUS
 62
     7
 10
4010.051548745269
 20
120.96066267425461
 30
0.0
 11
4025.051548745269
 21
105.96066267425449
 31
0.0
  0
LINE
  5
330A
  8
_0-1_
  6
CONTINUOUS
 62
     7
 10
3997.3236266839681
 20
120.96066267425461
 30
0.0
 11
4012.3236266839681
 21
105.96066267425449
 31
0.0
  0
LINE
  5
330B
  8
_0-1_
  6
CONTINUOUS
 62
     7
 10
3984.595704622569
 20
120.96066267425461
 30
0.0
 11
3999.595704622569
 21
105.96066267425449
 31
0.0
  0
LINE
  5
330C
  8
_0-1_
  6
CONTINUOUS
 62
     7
 10
3971.867782561269
 20
120.96066267425461
 30
0.0
 11
3986.867782561269
 21
105.96066267425449
 31
0.0
  0
LINE
  5
330D
  8
_0-1_
  6
CONTINUOUS
 62
     7
 10
3961.411938438469
 20
118.6885847356546
 30
0.0
 11
3974.139860499869
 21
105.96066267425449
 31
0.0
  0
LINE
  5
330E
  8
_0-1_
  6
CONTINUOUS
 62
     7
 10
4340.9221335763687
 20
120.96066267425461
 30
0.0
 11
4343.0546012081677
 21
118.82819504235459
 31
0.0
  0
LINE
  5
330F
  8
_0-1_
  6
CONTINUOUS
 62
     7
 10
4328.1942115149677
 20
120.96066267425461
 30
0.0
 11
4333.1942115149677
 21
115.96066267425461
 31
0.0
  0
LINE
  5
3310
  8
_0-1_
  6
CONTINUOUS
 62
     7
 10
4315.4662894536677
 20
120.96066267425461
 30
0.0
 11
4320.4662894536677
 21
115.96066267425461
 31
0.0
  0
LINE
  5
3311
  8
_0-1_
  6
CONTINUOUS
 62
     7
 10
4302.7383673922677
 20
120.96066267425461
 30
0.0
 11
4307.7383673922686
 21
115.96066267425461
 31
0.0
  0
LINE
  5
3312
  8
_0-1_
  6
CONTINUOUS
 62
     7
 10
4290.0104453308677
 20
120.96066267425461
 30
0.0
 11
4295.0104453308686
 21
115.96066267425461
 31
0.0
  0
LINE
  5
3313
  8
_0-1_
  6
CONTINUOUS
 62
     7
 10
4277.2825232695677
 20
120.96066267425461
 30
0.0
 11
4282.2825232695677
 21
115.96066267425461
 31
0.0
  0
LINE
  5
3314
  8
_0-1_
  6
CONTINUOUS
 62
     7
 10
4264.5546012081677
 20
120.96066267425461
 30
0.0
 11
4269.5546012081677
 21
115.96066267425461
 31
0.0
  0
LINE
  5
3315
  8
_0-1_
  6
CONTINUOUS
 62
     7
 10
4251.8266791468677
 20
120.96066267425461
 30
0.0
 11
4256.8266791468677
 21
115.96066267425461
 31
0.0
  0
LINE
  5
3316
  8
_0-1_
  6
CONTINUOUS
 62
     7
 10
4239.0987570854677
 20
120.96066267425461
 30
0.0
 11
4244.0987570854686
 21
115.96066267425461
 31
0.0
  0
LINE
  5
3317
  8
_0-1_
  6
CONTINUOUS
 62
     7
 10
4191.0840384596686
 20
38.960662674254593
 30
0.0
 11
4193.0840384596686
 21
40.960662674254593
 31
0.0
  0
LINE
  5
3318
  8
_0-1_
  6
CONTINUOUS
 62
     7
 10
4199.5693198339677
 20
38.960662674254593
 30
0.0
 11
4201.5693198339686
 21
40.960662674254593
 31
0.0
  0
LINE
  5
3319
  8
_0-1_
  6
CONTINUOUS
 62
     7
 10
4208.0546012081686
 20
38.960662674254593
 30
0.0
 11
4210.0546012081677
 21
40.960662674254593
 31
0.0
  0
LINE
  5
331A
  8
_0-1_
  6
CONTINUOUS
 62
     7
 10
4216.5398825824686
 20
38.960662674254593
 30
0.0
 11
4218.5398825824677
 21
40.960662674254593
 31
0.0
  0
LINE
  5
331B
  8
_0-1_
  6
CONTINUOUS
 62
     7
 10
4225.0251639566677
 20
38.960662674254593
 30
0.0
 11
4227.0251639566677
 21
40.960662674254593
 31
0.0
  0
LINE
  5
331C
  8
_0-1_
  6
CONTINUOUS
 62
     7
 10
4233.5104453308677
 20
38.960662674254593
 30
0.0
 11
4235.5104453308677
 21
40.960662674254593
 31
0.0
  0
LINE
  5
331D
  8
_0-1_
  6
CONTINUOUS
 62
     7
 10
4241.9957267051686
 20
38.960662674254593
 30
0.0
 11
4243.9957267051677
 21
40.960662674254593
 31
0.0
  0
LINE
  5
331E
  8
寸法線
 10
4113.3375358590447
 20
-229.03933732574529
 30
0.0
 11
4113.3375358590447
 21
40.960662674254593
 31
0.0
  0
LINE
  5
331F
  8
寸法線
 10
4113.3375358590447
 20
-229.03933732574529
 30
0.0
 11
4111.0081644531228
 21
-220.3460048891437
 31
0.0
  0
LINE
  5
3320
  8
寸法線
 10
4113.3375358590447
 20
-229.03933732574529
 30
0.0
 11
4115.6669072649684
 21
-220.3460048891437
 31
0.0
  0
LINE
  5
3321
  8
寸法線
 10
4113.3375358590447
 20
40.960662674254593
 30
0.0
 11
4111.0081644531228
 21
32.267330237653027
 31
0.0
  0
LINE
  5
3322
  8
寸法線
 10
4113.3375358590447
 20
40.960662674254593
 30
0.0
 11
4115.6669072649684
 21
32.267330237653027
 31
0.0
  0
LINE
  5
3323
  8
寸法線
 10
4113.3375358590447
 20
-229.03933732574529
 30
0.0
 11
4260.5546012081686
 21
-229.03933732574529
 31
0.0
  0
TEXT
  5
3324
  8
寸法線
 10
4112.3107585259922
 20
-102.5651708755519
 30
0.0
 40
9.0
  1
270
 50
90.0
  0
LINE
  5
3325
  8
寸法線
 10
4113.3375358590447
 20
40.960662674254593
 30
0.0
 11
4113.3375358590447
 21
120.96066267425461
 31
0.0
  0
LINE
  5
3326
  8
寸法線
 10
4113.3375358590447
 20
40.960662674254593
 30
0.0
 11
4111.0081644531228
 21
49.653995110856208
 31
0.0
  0
LINE
  5
3327
  8
寸法線
 10
4113.3375358590447
 20
40.960662674254593
 30
0.0
 11
4115.6669072649684
 21
49.653995110856208
 31
0.0
  0
LINE
  5
3328
  8
寸法線
 10
4113.3375358590447
 20
120.96066267425461
 30
0.0
 11
4111.0081644531228
 21
112.267330237653
 31
0.0
  0
LINE
  5
3329
  8
寸法線
 10
4113.3375358590447
 20
120.96066267425461
 30
0.0
 11
4115.6669072649684
 21
112.267330237653
 31
0.0
  0
TEXT
  5
332A
  8
寸法線
 10
4112.7079117146441
 20
74.108670598641993
 30
0.0
 40
9.0
  1
80
 50
90.0
  0
LINE
  5
332B
  8
寸法線
 10
4269.0546012081686
 20
-268.36226536846152
 30
0.0
 11
4339.0546012081677
 21
-268.36226536846152
 31
0.0
  0
LINE
  5
332C
  8
寸法線
 10
4269.0546012081686
 20
-268.36226536846152
 30
0.0
 11
4277.7479336447714
 21
-266.03289396253888
 31
0.0
  0
LINE
  5
332D
  8
寸法線
 10
4269.0546012081686
 20
-268.36226536846152
 30
0.0
 11
4277.7479336447714
 21
-270.69163677438428
 31
0.0
  0
LINE
  5
332E
  8
寸法線
 10
4339.0546012081677
 20
-268.36226536846152
 30
0.0
 11
4330.3612687715668
 21
-266.03289396253888
 31
0.0
  0
LINE
  5
332F
  8
寸法線
 10
4339.0546012081677
 20
-268.36226536846152
 30
0.0
 11
4330.3612687715668
 21
-270.69163677438428
 31
0.0
  0
LINE
  5
3330
  8
寸法線
 10
4269.0546012081686
 20
-268.36226536846152
 30
0.0
 11
4269.0546012081686
 21
-238.03933732574529
 31
0.0
  0
LINE
  5
3331
  8
寸法線
 10
4339.0546012081677
 20
-268.36226536846152
 30
0.0
 11
4339.0546012081677
 21
-238.03933732574529
 31
0.0
  0
TEXT
  5
3332
  8
寸法線
 10
4299.1796012081686
 20
-268.36226536846152
 30
0.0
 40
9.0
  1
70
  0
TEXT
  5
3333
  8
寸法線
 10
4140.9438624139184
 20
337.41482558743661
 30
0.0
 40
9.0
  1
本体2570
  0
TEXT
  5
3334
  8
寸法線
 10
4058.6283473976032
 20
277.10933998836589
 30
0.0
 40
9.0
  1
有効W=2300
  0
TEXT
  5
3335
  8
寸法線
 10
4084.3205646933452
 20
307.41482558743633
 30
0.0
 40
9.0
  1
開口W=2410
  0
LINE
  5
3336
  8
寸法線
 10
3373.9083155440062
 20
-277.2120276166454
 30
0.0
 11
3373.9083155440062
 21
170.30025678055461
 31
0.0
  0
LINE
  5
3337
  8
寸法線
 10
3373.9083155440062
 20
170.30025678055461
 30
0.0
 11
3371.578944138083
 21
161.60692434395301
 31
0.0
  0
LINE
  5
3338
  8
寸法線
 10
3373.9083155440062
 20
170.30025678055461
 30
0.0
 11
3376.237686949929
 21
161.60692434395301
 31
0.0
  0
LINE
  5
3339
  8
寸法線
 10
3373.9083155440062
 20
170.30025678055461
 30
0.0
 11
3396.040173811522
 21
170.30025678055461
 31
0.0
  0
TEXT
  5
333A
  8
寸法線
 10
3373.0790834220429
 20
-69.330885418045455
 30
0.0
 40
9.0
  1
開口H=2200
 50
90.0
  0
LINE
  5
333B
  8
寸法線
 10
4208.0546012081686
 20
275.96066267425448
 30
0.0
 11
3961.411938438469
 21
275.96066267425448
 31
0.0
  0
LINE
  5
333C
  8
寸法線
 10
4263.0546012081677
 20
305.96066267425448
 30
0.0
 11
3961.411938438469
 21
305.96066267425448
 31
0.0
  0
LINE
  5
333D
  8
寸法線
 10
4343.0546012081677
 20
335.96066267425471
 30
0.0
 11
3961.411938438469
 21
335.96066267425471
 31
0.0
  0
TEXT
  5
333E
  8
寸法線
 10
3313.9083155440062
 20
-23.580885418045462
 30
0.0
 40
9.0
  1
2280
 50
90.0
  0
TEXT
  5
333F
  8
寸法線
 10
3342.2468843072102
 20
-171.0931538638728
 30
0.0
 40
9.0
  1
有効H=2030
 50
90.0
  0
LINE
  5
3340
  8
_0-1_
  6
CONTINUOUS
 62
     7
 10
4222.0400492048057
 20
95.960662674255104
 30
0.0
 11
4233.0546012081668
 21
106.9752146776159
 31
0.0
  0
LINE
  5
3341
  8
_0-1_
  6
CONTINUOUS
 62
     7
 10
4213.0546012081677
 20
98.288923176597564
 30
0.0
 11
4233.0546012081686
 21
118.2889231765981
 31
0.0
  0
LINE
  5
3342
  8
_0-1_
  6
CONTINUOUS
 62
     7
 10
4208.0546012081704
 20
104.6026316755852
 30
0.0
 11
4224.4126322068387
 21
120.9606626742558
 31
0.0
  0
LINE
  5
3343
  8
_0-1_
  6
CONTINUOUS
 62
     7
 10
4208.0546012081686
 20
115.9163401745712
 30
0.0
 11
4213.098923707852
 21
120.9606626742553
 31
0.0
  0
LINE
  5
3344
  8
_0-1_
  6
CONTINUOUS
 62
     7
 10
3528.6160078750659
 20
115.3002567805551
 30
0.0
 11
3531.411938438468
 21
118.0961873439559
 31
0.0
  0
LINE
  5
3345
  8
_0-1_
  6
CONTINUOUS
 62
     7
 10
3533.6160078750681
 20
120.3002567805557
 30
0.0
 11
3536.411938438468
 21
123.0961873439563
 31
0.0
  0
LINE
  5
3346
  8
_0-1_
  6
CONTINUOUS
 62
     7
 10
3517.3022993760851
 20
115.30025678055389
 30
0.0
 11
3536.411938438468
 21
134.40989584293729
 31
0.0
  0
LINE
  5
3347
  8
_0-1_
  6
CONTINUOUS
 62
     7
 10
3511.411938438469
 20
120.72360434192569
 30
0.0
 11
3530.9885908770989
 21
140.30025678055509
 31
0.0
  0
LINE
  5
3348
  8
_0-1_
  6
CONTINUOUS
 62
     7
 10
3511.411938438469
 20
132.03731284091211
 30
0.0
 11
3519.6748823781122
 21
140.30025678055461
 31
0.0
  0
LINE
  5
3349
  8
_0-1_
  6
CONTINUOUS
 62
     7
 10
3511.4119384384699
 20
119.0065793515589
 30
0.0
 11
3515.1182610094738
 21
115.3002567805555
 31
0.0
  0
LINE
  5
334A
  8
_0-1_
  6
CONTINUOUS
 62
     7
 10
3511.4119384384699
 20
130.3202878505455
 30
0.0
 11
3526.431969508461
 21
115.30025678055431
 31
0.0
  0
LINE
  5
334B
  8
_0-1_
  6
CONTINUOUS
 62
     7
 10
3512.7456780074399
 20
140.30025678055651
 30
0.0
 11
3532.745678007444
 21
120.3002567805538
 31
0.0
  0
LINE
  5
334C
  8
_0-1_
  6
CONTINUOUS
 62
     7
 10
3524.0593865064279
 20
140.30025678055591
 30
0.0
 11
3536.411938438469
 21
127.9477048485149
 31
0.0
  0
LINE
  5
334D
  8
_0-1_
  6
CONTINUOUS
 62
     7
 10
3535.3730950054151
 20
140.3002567805554
 30
0.0
 11
3536.411938438469
 21
139.26141334750071
 31
0.0
  0
LINE
  5
334E
  8
_0-1_
  6
CONTINUOUS
 62
     7
 10
4208.0546012081704
 20
101.1864265209452
 30
0.0
 11
4208.2803650548576
 21
100.9606626742553
 31
0.0
  0
LINE
  5
334F
  8
_0-1_
  6
CONTINUOUS
 62
     7
 10
4213.0546012081686
 20
96.186426520945247
 30
0.0
 11
4213.2803650548594
 21
95.960662674255317
 31
0.0
  0
LINE
  5
3350
  8
_0-1_
  6
CONTINUOUS
 62
     7
 10
4208.0546012081686
 20
112.500135019932
 30
0.0
 11
4224.5940735538461
 21
95.960662674255104
 31
0.0
  0
LINE
  5
3351
  8
_0-1_
  6
CONTINUOUS
 62
     7
 10
4210.9077820528273
 20
120.9606626742553
 30
0.0
 11
4233.0546012081686
 21
98.813843518913131
 31
0.0
  0
LINE
  5
3352
  8
_0-1_
  6
CONTINUOUS
 62
     7
 10
4222.221490551814
 20
120.96066267425461
 30
0.0
 11
4233.0546012081686
 21
110.1275520179001
 31
0.0
  0
LINE
  5
3353
  8
_0-2_
  6
CONTINUOUS
 62
     5
 10
3964.411938438469
 20
208.41203169990521
 30
0.0
 11
3958.411938438469
 21
205.41203169990521
 31
0.0
  0
LINE
  5
3354
  8
_0-2_
  6
CONTINUOUS
 62
     5
 10
3961.411938438469
 20
211.4120316999053
 30
0.0
 11
3964.411938438469
 21
208.41203169990521
 31
0.0
  0
LINE
  5
3355
  8
_0-2_
  6
CONTINUOUS
 62
     5
 10
3958.411938438469
 20
205.41203169990521
 30
0.0
 11
3961.411938438469
 21
202.41203169990521
 31
0.0
  0
LINE
  5
3356
  8
_0-1_
  6
CONTINUOUS
 62
     7
 10
3431.411938438469
 20
-307.21202761664563
 30
0.0
 11
3671.411938438469
 21
-307.21202761664563
 31
0.0
  0
LINE
  5
3357
  8
_0-9_
  6
CONTINUOUS
 62
     7
 10
3659.0587599062151
 20
-307.21202761664659
 30
0.0
 11
3671.4119384384699
 21
-294.85884908439152
 31
0.0
  0
LINE
  5
3358
  8
_0-9_
  6
CONTINUOUS
 62
     7
 10
3637.8455564706142
 20
-307.21202761664659
 30
0.0
 11
3657.8455564706151
 21
-287.21202761664659
 31
0.0
  0
LINE
  5
3359
  8
_0-9_
  6
CONTINUOUS
 62
     7
 10
3616.6323530350192
 20
-307.21202761664739
 30
0.0
 11
3636.632353035021
 21
-287.21202761664608
 31
0.0
  0
LINE
  5
335A
  8
_0-9_
  6
CONTINUOUS
 62
     7
 10
3595.419149599426
 20
-307.21202761664631
 30
0.0
 11
3615.4191495994251
 21
-287.21202761664659
 31
0.0
  0
LINE
  5
335B
  8
_0-9_
  6
CONTINUOUS
 62
     7
 10
3574.205946163826
 20
-307.21202761664659
 30
0.0
 11
3594.205946163825
 21
-287.21202761664682
 31
0.0
  0
LINE
  5
335C
  8
_0-9_
  6
CONTINUOUS
 62
     7
 10
3552.992742728231
 20
-307.21202761664767
 30
0.0
 11
3572.992742728231
 21
-287.21202761664608
 31
0.0
  0
LINE
  5
335D
  8
_0-9_
  6
CONTINUOUS
 62
     7
 10
3531.7795392926382
 20
-307.2120276166454
 30
0.0
 11
3551.7795392926369
 21
-287.21202761664563
 31
0.0
  0
LINE
  5
335E
  8
_0-9_
  6
CONTINUOUS
 62
     7
 10
3510.5663358570368
 20
-307.21202761664682
 30
0.0
 11
3530.5663358570368
 21
-287.2120276166454
 31
0.0
  0
LINE
  5
335F
  8
_0-9_
  6
CONTINUOUS
 62
     7
 10
3489.3531324214409
 20
-307.2120276166479
 30
0.0
 11
3509.3531324214418
 21
-287.21202761664631
 31
0.0
  0
LINE
  5
3360
  8
_0-9_
  6
CONTINUOUS
 62
     7
 10
3468.1399289858482
 20
-307.21202761664563
 30
0.0
 11
3488.1399289858491
 21
-287.21202761664563
 31
0.0
  0
LINE
  5
3361
  8
_0-9_
  6
CONTINUOUS
 62
     7
 10
3446.9267255502468
 20
-307.21202761664699
 30
0.0
 11
3466.9267255502482
 21
-287.21202761664563
 31
0.0
  0
LINE
  5
3362
  8
_0-9_
  6
CONTINUOUS
 62
     7
 10
3431.411938438469
 20
-301.51361129283032
 30
0.0
 11
3445.713522114655
 21
-287.21202761664517
 31
0.0
  0
LINE
  5
3363
  8
_0-1_
  6
CONTINUOUS
 62
     7
 10
3431.411938438469
 20
-287.21202761664563
 30
0.0
 11
3431.411938438469
 21
-307.21202761664563
 31
0.0
  0
LINE
  5
3364
  8
_0-1_
  6
CONTINUOUS
 62
     7
 10
3671.411938438469
 20
-287.21202761664563
 30
0.0
 11
3671.411938438469
 21
-307.21202761664563
 31
0.0
  0
LINE
  5
3365
  8
文字
 10
3551.411938438469
 20
-297.21202761664563
 30
0.0
 11
3596.30270260523
 21
-331.8591627357128
 31
0.0
  0
CIRCLE
  5
3366
  8
_0-3_
  6
CONTINUOUS
 62
     1
 10
3551.411938438469
 20
-297.21202761664563
 30
0.0
 40
1.2
  0
TEXT
  5
3367
  8
文字
 10
3600.7550004713612
 20
-338.34349563103967
 30
0.0
 40
9.0
  1
注意：接地面に摩擦が生じると、開閉に支障を来たしますので、
  0
TEXT
  5
3368
  8
文字
 10
3600.7550004713612
 20
-351.38599217263288
 30
0.0
 40
9.0
  1
取り付け時に充分注意して下さい。（接地面は、フラットな状態にして下さい。）
  0
LINE
  5
336A
  8
_0-9_
  6
CONTINUOUS
 62
     4
 10
4419.0546012081686
 20
-33.68192254993199
 30
0.0
 11
4479.0546012081677
 21
26.31807745006833
 31
0.0
  0
LINE
  5
336B
  8
_0-9_
  6
CONTINUOUS
 62
     4
 10
4419.0546012081686
 20
-344.80890627201092
 30
0.0
 11
4479.0546012081677
 21
-284.80890627201052
 31
0.0
  0
LINE
  5
336C
  8
_0-9_
  6
CONTINUOUS
 62
     4
 10
4419.0546012081686
 20
-330.66677064828298
 30
0.0
 11
4479.0546012081677
 21
-270.66677064828258
 31
0.0
  0
LINE
  5
336D
  8
_0-9_
  6
CONTINUOUS
 62
     4
 10
4419.0546012081686
 20
-316.52463502454958
 30
0.0
 11
4479.0546012081677
 21
-256.52463502454901
 31
0.0
  0
LINE
  5
336E
  8
_0-9_
  6
CONTINUOUS
 62
     4
 10
4419.0546012081686
 20
-61.966193797393203
 30
0.0
 11
4479.0546012081677
 21
-1.9661937973932291
 31
0.0
  0
LINE
  5
336F
  8
_0-9_
  6
CONTINUOUS
 62
     4
 10
4419.0546012081686
 20
-47.824058173659857
 30
0.0
 11
4479.0546012081677
 21
12.175941826340431
 31
0.0
  0
LINE
  5
3370
  8
_0-9_
  6
CONTINUOUS
 62
     4
 10
4283.0546012081686
 20
169.16078992468539
 30
0.0
 11
4344.8544739577374
 21
230.96066267425439
 31
0.0
  0
LINE
  5
3371
  8
_0-9_
  6
CONTINUOUS
 62
     4
 10
4283.0546012081686
 20
155.01865430095731
 30
0.0
 11
4358.9966095814652
 21
230.96066267425459
 31
0.0
  0
LINE
  5
3372
  8
_0-9_
  6
CONTINUOUS
 62
     4
 10
4283.0546012081686
 20
140.87651867722369
 30
0.0
 11
4373.1387452051977
 21
230.96066267425451
 31
0.0
  0
LINE
  5
3373
  8
_0-9_
  6
CONTINUOUS
 62
     4
 10
3405.2960924794629
 20
190.30025678055449
 30
0.0
 11
3511.411938438469
 21
296.41610273956007
 31
0.0
  0
LINE
  5
3374
  8
_0-9_
  6
CONTINUOUS
 62
     4
 10
3391.153956855735
 20
190.30025678055449
 30
0.0
 11
3511.411938438469
 21
310.55823836328778
 31
0.0
  0
LINE
  5
3375
  8
_0-9_
  6
CONTINUOUS
 62
     4
 10
3377.0118212320008
 20
190.30025678055441
 30
0.0
 11
3511.411938438469
 21
324.70037398702141
 31
0.0
  0
LINE
  5
3377
  8
寸法線
 10
4343.0546012081677
 20
255.96066267425451
 30
0.0
 11
4343.0546012081677
 21
275.96066267425448
 31
0.0
  0
LINE
  5
3379
  8
寸法線
 10
4333.0546012081686
 20
275.96066267425448
 30
0.0
 11
4323.0546012081686
 21
275.96066267425448
 31
0.0
  0
LINE
  5
3985
  8
_0-9_
  6
CONTINUOUS
 62
     5
 10
3174.529606143235
 20
-287.2120276166454
 30
0.0
 11
3942.7402055690982
 21
-287.2120276166454
 31
0.0
  0
CIRCLE
  5
39F7
  8
文字
 10
3307.2140535872791
 20
-317.18439211124951
 30
0.0
 40
14.159022053936489
  0
TEXT
  5
39F8
  8
文字
 10
3130.6349655465642
 20
-380.11160690794293
 30
0.0
 40
9.0
  1
注意：接地面からサイドフレームを10ｍｍ持ち上げた状態で固定して下さい。
  0
TEXT
  5
39FA
  8
文字
 10
3162.390959769129
 20
-392.81517600671981
 30
0.0
 40
9.0
  1
10ｍｍくらい浮かすと接地面にゴムが擦りません。
  0
TEXT
  5
3A05
  8
文字
 10
3458.0133080324399
 20
-286.53105359592831
 30
0.0
 40
9.0
  1
レベル面
  0
LINE
  5
3A11
  8
文字
 10
3302.8784279493402
 20
-331.59831991294232
 30
0.0
 11
3290.4561636064341
 21
-367.6982770006407
 31
0.0
  0
LINE
  5
3A12
  8
文字
 10
3302.8784279493402
 20
-331.59831991294232
 30
0.0
 11
3296.3669582854218
 21
-337.4846796085904
 31
0.0
  0
LINE
  5
3A13
  8
文字
 10
3302.8784279493402
 20
-331.59831991294249
 30
0.0
 11
3304.388935292081
 21
-340.24510169683163
 31
0.0
  0
LINE
  5
3A14
  8
文字
 10
3296.3669582854218
 20
-337.4846796085904
 30
0.0
 11
3304.388935292081
 21
-340.24510169683163
 31
0.0
  0
INSERT
  5
3A1D
  8
文字
  6
CONTINUOUS
  2
*U19
 10
0.0
 20
0.0
 30
0.0
1001
ACAD
1002
{
1000
R14_HATCH_DATA
1000
3A1D
1011
1.0
1021
0.0
1031
0.0
1021
0.0
1031
0.0
1011
0.0
1021
0.0
1031
0.0
1021
1.0
1031
0.0
1011
0.0
1021
0.0
1031
0.0
1021
0.0
1031
1.0
1040
0.0
1010
0.0
1020
0.0
1030
1.0
1000
SOLID
1070
     1
1070
     1
1071
        2
1071
        7
1070
     0
1070
     1
1071
        3
1040
3302.8784279493402
1040
-331.59831991294402
1040
3300.3779467887521
1040
-338.8648906527111
1040
3304.388935292081
1040
-340.2451016968318
1071
        3
1005
3A11
1005
3A14
1005
3A13
1071
        7
1070
     0
1070
     1
1071
        3
1040
3302.8784279493402
1040
-331.59831991294271
1040
3296.3669582854218
1040
-337.4846796085904
1040
3300.3779467887521
1040
-338.86489065271132
1071
        3
1005
3A12
1005
3A14
1005
3A11
1070
     0
1070
     1
1040
0.0570523534143364
1071
        2
1040
3303.1345388301311
1040
-338.0952710219172
1040
0.0
1040
3299.9364077169871
1040
-336.89716680176213
1040
0.0
1002
}
  0
LINE
  5
3B55
  8
寸法線
 10
3370.3889363322041
 20
-277.2120276166454
 30
0.0
 11
3373.9083155440062
 21
-277.2120276166454
 31
0.0
  0
LINE
  5
3B56
  8
寸法線
 10
3369.274120507192
 20
-287.2120276166454
 30
0.0
 11
3373.9083155440062
 21
-287.2120276166454
 31
0.0
  0
LINE
  5
3B57
  8
寸法線
 10
3373.9083155440062
 20
-267.2120276166454
 30
0.0
 11
3373.9083155440062
 21
-257.2120276166454
 31
0.0
  0
LINE
  5
3B58
  8
寸法線
 10
3373.9083155440062
 20
-297.2120276166454
 30
0.0
 11
3373.9083155440062
 21
-323.9739323785501
 31
0.0
  0
LINE
  5
3B59
  8
寸法線
 10
3373.9083155440062
 20
-277.2120276166454
 30
0.0
 11
3373.9083155440062
 21
-287.2120276166454
 31
0.0
  0
LINE
  5
3B5D
  8
寸法線
 10
3340.388936332205
 20
-277.2120276166454
 30
0.0
 11
3343.9083155440062
 21
-277.2120276166454
 31
0.0
  0
LINE
  5
3B5E
  8
寸法線
 10
3339.2741205071911
 20
-287.2120276166454
 30
0.0
 11
3343.9083155440062
 21
-287.2120276166454
 31
0.0
  0
LINE
  5
3B5F
  8
寸法線
 10
3343.9083155440062
 20
-267.2120276166454
 30
0.0
 11
3343.9083155440062
 21
-257.2120276166454
 31
0.0
  0
LINE
  5
3B60
  8
寸法線
 10
3343.9083155440062
 20
-297.2120276166454
 30
0.0
 11
3343.9083155440062
 21
-323.9739323785501
 31
0.0
  0
LINE
  5
3B61
  8
寸法線
 10
3343.9083155440062
 20
-277.2120276166454
 30
0.0
 11
3343.9083155440062
 21
-287.2120276166454
 31
0.0
  0
LINE
  5
3B65
  8
文字
 10
3450.783014985333
 20
-286.0255937688321
 30
0.0
 11
3454.8478386036231
 21
-278.98511273814802
 31
0.0
  0
LINE
  5
3B66
  8
文字
 10
3454.8478386036231
 20
-278.98511273814802
 30
0.0
 11
3446.718191367042
 21
-278.98511273814802
 31
0.0
  0
LINE
  5
3B67
  8
文字
 10
3446.718191367042
 20
-278.98511273814802
 30
0.0
 11
3450.783014985333
 21
-286.0255937688321
 31
0.0
  0
LINE
  5
3B68
  8
寸法線
 10
3310.3889363322041
 20
-277.2120276166454
 30
0.0
 11
3313.9083155440062
 21
-277.2120276166454
 31
0.0
  0
LINE
  5
3B69
  8
寸法線
 10
3309.274120507192
 20
-287.2120276166454
 30
0.0
 11
3313.9083155440062
 21
-287.2120276166454
 31
0.0
  0
LINE
  5
3B6A
  8
寸法線
 10
3313.9083155440062
 20
-267.2120276166454
 30
0.0
 11
3313.9083155440062
 21
-257.2120276166454
 31
0.0
  0
LINE
  5
3B6B
  8
寸法線
 10
3313.9083155440062
 20
-297.2120276166454
 30
0.0
 11
3313.9083155440062
 21
-323.9739323785501
 31
0.0
  0
LINE
  5
3B6C
  8
寸法線
 10
3313.9083155440062
 20
-277.2120276166454
 30
0.0
 11
3313.9083155440062
 21
-287.2120276166454
 31
0.0
  0
LINE
  5
3B70
  8
寸法線
 10
4233.0546012081686
 20
130.96066267425459
 30
0.0
 11
4233.0546012081686
 21
212.1354292721025
 31
0.0
  0
LINE
  5
3B71
  8
寸法線
 10
4263.0546012081677
 20
130.96066267425459
 30
0.0
 11
4263.0546012081677
 21
212.1354292721025
 31
0.0
  0
LINE
  5
3B72
  8
寸法線
 10
4243.0546012081677
 20
212.1354292721025
 30
0.0
 11
4253.0546012081686
 21
212.1354292721025
 31
0.0
  0
LINE
  5
3B76
  8
0
  6
BYBLOCK
 62
     0
 10
4333.0546012081686
 20
278.6401545742545
 30
0.0
 11
4343.0546012081677
 21
275.96066267425448
 31
0.0
  0
LINE
  5
3B77
  8
0
  6
BYBLOCK
 62
     0
 10
4343.0546012081677
 20
275.96066267425448
 30
0.0
 11
4333.0546012081686
 21
273.28117077425452
 31
0.0
  0
LINE
  5
3B78
  8
0
  6
BYBLOCK
 62
     0
 10
4343.0546012081677
 20
275.96066267425448
 30
0.0
 11
4333.0546012081686
 21
275.96066267425448
 31
0.0
  0
LINE
  5
3B79
  8
寸法線
 10
3455.860630122806
 20
250.30025678055461
 30
0.0
 11
3373.9083155440062
 21
250.30025678055461
 31
0.0
  0
LINE
  5
3B7A
  8
寸法線
 10
3363.9083155440048
 20
190.30025678055461
 30
0.0
 11
3373.9083155440062
 21
190.30025678055461
 31
0.0
  0
LINE
  5
3B7B
  8
寸法線
 10
3373.9083155440062
 20
240.30025678055461
 30
0.0
 11
3373.9083155440062
 21
200.30025678055461
 31
0.0
  0
TEXT
  5
3B7F
  8
寸法線
  6
CONTINUOUS
 10
3372.9083155440062
 20
-325.83107523569242
 30
0.0
 40
10.0
  1
10
 50
90.0
  7
JAPANESE
  0
LINE
  5
3B80
  8
0
  6
BYBLOCK
 62
     0
 10
3371.2288236440058
 20
-297.2120276166454
 30
0.0
 11
3373.9083155440062
 21
-287.2120276166454
 31
0.0
  0
LINE
  5
3B81
  8
0
  6
BYBLOCK
 62
     0
 10
3373.9083155440062
 20
-287.2120276166454
 30
0.0
 11
3376.5878074440061
 21
-297.2120276166454
 31
0.0
  0
LINE
  5
3B82
  8
0
  6
BYBLOCK
 62
     0
 10
3373.9083155440062
 20
-287.2120276166454
 30
0.0
 11
3373.9083155440062
 21
-297.2120276166454
 31
0.0
  0
LINE
  5
3B83
  8
0
  6
BYBLOCK
 62
     0
 10
3376.5878074440061
 20
-267.2120276166454
 30
0.0
 11
3373.9083155440062
 21
-277.2120276166454
 31
0.0
  0
LINE
  5
3B84
  8
0
  6
BYBLOCK
 62
     0
 10
3373.9083155440062
 20
-277.2120276166454
 30
0.0
 11
3371.2288236440058
 21
-267.2120276166454
 31
0.0
  0
LINE
  5
3B85
  8
0
  6
BYBLOCK
 62
     0
 10
3373.9083155440062
 20
-277.2120276166454
 30
0.0
 11
3373.9083155440062
 21
-267.2120276166454
 31
0.0
  0
TEXT
  5
3B86
  8
寸法線
  6
CONTINUOUS
 10
3342.9083155440062
 20
-325.83107523569242
 30
0.0
 40
10.0
  1
10
 50
90.0
  7
JAPANESE
  0
LINE
  5
3B87
  8
0
  6
BYBLOCK
 62
     0
 10
3341.2288236440058
 20
-297.2120276166454
 30
0.0
 11
3343.9083155440062
 21
-287.2120276166454
 31
0.0
  0
LINE
  5
3B88
  8
0
  6
BYBLOCK
 62
     0
 10
3343.9083155440062
 20
-287.2120276166454
 30
0.0
 11
3346.5878074440061
 21
-297.2120276166454
 31
0.0
  0
LINE
  5
3B89
  8
0
  6
BYBLOCK
 62
     0
 10
3343.9083155440062
 20
-287.2120276166454
 30
0.0
 11
3343.9083155440062
 21
-297.2120276166454
 31
0.0
  0
LINE
  5
3B8A
  8
0
  6
BYBLOCK
 62
     0
 10
3346.5878074440061
 20
-267.2120276166454
 30
0.0
 11
3343.9083155440062
 21
-277.2120276166454
 31
0.0
  0
LINE
  5
3B8B
  8
0
  6
BYBLOCK
 62
     0
 10
3343.9083155440062
 20
-277.2120276166454
 30
0.0
 11
3341.2288236440058
 21
-267.2120276166454
 31
0.0
  0
LINE
  5
3B8C
  8
0
  6
BYBLOCK
 62
     0
 10
3343.9083155440062
 20
-277.2120276166454
 30
0.0
 11
3343.9083155440062
 21
-267.2120276166454
 31
0.0
  0
TEXT
  5
3B8D
  8
寸法線
  6
CONTINUOUS
 10
3312.9083155440062
 20
-325.83107523569242
 30
0.0
 40
10.0
  1
10
 50
90.0
  7
JAPANESE
  0
LINE
  5
3B8E
  8
0
  6
BYBLOCK
 62
     0
 10
3311.2288236440058
 20
-297.2120276166454
 30
0.0
 11
3313.9083155440062
 21
-287.2120276166454
 31
0.0
  0
LINE
  5
3B8F
  8
0
  6
BYBLOCK
 62
     0
 10
3313.9083155440062
 20
-287.2120276166454
 30
0.0
 11
3316.5878074440061
 21
-297.2120276166454
 31
0.0
  0
LINE
  5
3B90
  8
0
  6
BYBLOCK
 62
     0
 10
3313.9083155440062
 20
-287.2120276166454
 30
0.0
 11
3313.9083155440062
 21
-297.2120276166454
 31
0.0
  0
LINE
  5
3B91
  8
0
  6
BYBLOCK
 62
     0
 10
3316.5878074440061
 20
-267.2120276166454
 30
0.0
 11
3313.9083155440062
 21
-277.2120276166454
 31
0.0
  0
LINE
  5
3B92
  8
0
  6
BYBLOCK
 62
     0
 10
3313.9083155440062
 20
-277.2120276166454
 30
0.0
 11
3311.2288236440058
 21
-267.2120276166454
 31
0.0
  0
LINE
  5
3B93
  8
0
  6
BYBLOCK
 62
     0
 10
3313.9083155440062
 20
-277.2120276166454
 30
0.0
 11
3313.9083155440062
 21
-267.2120276166454
 31
0.0
  0
TEXT
  5
3B94
  8
寸法線
  6
CONTINUOUS
 10
4238.5307916843576
 20
213.13542927210261
 30
0.0
 40
10.0
  1
30
  7
JAPANESE
  0
LINE
  5
3B95
  8
0
  6
BYBLOCK
 62
     0
 10
4253.0546012081686
 20
214.8149211721026
 30
0.0
 11
4263.0546012081677
 21
212.1354292721025
 31
0.0
  0
LINE
  5
3B96
  8
0
  6
BYBLOCK
 62
     0
 10
4263.0546012081677
 20
212.1354292721025
 30
0.0
 11
4253.0546012081686
 21
209.45593737210251
 31
0.0
  0
LINE
  5
3B97
  8
0
  6
BYBLOCK
 62
     0
 10
4263.0546012081677
 20
212.1354292721025
 30
0.0
 11
4253.0546012081686
 21
212.1354292721025
 31
0.0
  0
LINE
  5
3B98
  8
0
  6
BYBLOCK
 62
     0
 10
4243.0546012081677
 20
209.45593737210251
 30
0.0
 11
4233.0546012081686
 21
212.1354292721025
 31
0.0
  0
LINE
  5
3B99
  8
0
  6
BYBLOCK
 62
     0
 10
4233.0546012081686
 20
212.1354292721025
 30
0.0
 11
4243.0546012081677
 21
214.8149211721026
 31
0.0
  0
LINE
  5
3B9A
  8
0
  6
BYBLOCK
 62
     0
 10
4233.0546012081686
 20
212.1354292721025
 30
0.0
 11
4243.0546012081677
 21
212.1354292721025
 31
0.0
  0
TEXT
  5
3B9B
  8
寸法線
  6
CONTINUOUS
 10
3372.9083155440062
 20
210.53835201865039
 30
0.0
 40
10.0
  1
60
 50
90.0
  7
JAPANESE
  0
LINE
  5
3B9C
  8
0
  6
BYBLOCK
 62
     0
 10
3376.5878074440061
 20
200.30025678055461
 30
0.0
 11
3373.9083155440062
 21
190.30025678055461
 31
0.0
  0
LINE
  5
3B9D
  8
0
  6
BYBLOCK
 62
     0
 10
3373.9083155440062
 20
190.30025678055461
 30
0.0
 11
3371.2288236440058
 21
200.30025678055461
 31
0.0
  0
LINE
  5
3B9E
  8
0
  6
BYBLOCK
 62
     0
 10
3373.9083155440062
 20
190.30025678055461
 30
0.0
 11
3373.9083155440062
 21
200.30025678055461
 31
0.0
  0
LINE
  5
3B9F
  8
0
  6
BYBLOCK
 62
     0
 10
3371.2288236440058
 20
240.30025678055461
 30
0.0
 11
3373.9083155440062
 21
250.30025678055461
 31
0.0
  0
LINE
  5
3BA0
  8
0
  6
BYBLOCK
 62
     0
 10
3373.9083155440062
 20
250.30025678055461
 30
0.0
 11
3376.5878074440061
 21
240.30025678055461
 31
0.0
  0
LINE
  5
3BA1
  8
0
  6
BYBLOCK
 62
     0
 10
3373.9083155440062
 20
250.30025678055461
 30
0.0
 11
3373.9083155440062
 21
240.30025678055461
 31
0.0
  0
VIEWPORT
  5
2CFB
 67
     1
  8
0
  6
CONTINUOUS
 10
253.64811922749831
 20
76.345401685216643
 30
0.0
 40
555.95946549729683
 41
256.92764685226098
 68
     1
 69
     1
1001
ACAD
1000
MVIEW
1002
{
1070
    16
1010
0.0
1020
0.0
1030
0.0
1010
0.0
1020
0.0
1030
1.0
1040
0.0
1040
256.92764685226098
1040
253.64811922749831
1040
76.345401685216643
1040
50.0
1040
0.0
1040
0.0
1070
     0
1070
   100
1070
     1
1070
     1
1070
     0
1070
     0
1070
     0
1070
     0
1040
0.0
1040
0.0
1040
0.0
1040
10.0
1040
10.0
1040
10.0
1040
10.0
1070
     0
1002
{
1002
}
1002
}
  0
VIEWPORT
  5
2CFD
 67
     1
  8
DEFPOINTS
  6
CONTINUOUS
 10
145.08417701447021
 20
101.6094391185581
 30
0.0
 40
294.93923576847658
 41
208.095017589843
 68
     2
 69
     2
1001
ACAD
1000
MVIEW
1002
{
1070
    16
1010
0.0
1020
0.0
1030
0.0
1010
0.0
1020
0.0
1030
1.0
1040
0.0
1040
1040.4750906864861
1040
3817.0431297327691
1040
-6.5977163670813894
1040
50.0
1040
0.0
1040
0.0
1070
     0
1070
   100
1070
     1
1070
     1
1070
     0
1070
     0
1070
     0
1070
     0
1040
0.0
1040
0.0
1040
0.0
1040
1.0
1040
1.0
1040
0.0
1040
0.0
1070
     0
1002
{
1002
}
1002
}
  0
ENDSEC
  0
EOF
